ISO-10303-21;
HEADER;
FILE_DESCRIPTION (( 'STEP AP203' ),
    '1' );
FILE_NAME ('112-0231E BK7 pl-cv 25.4 F-200.STEP',
    '2019-01-15T08:32:49',
    ( '' ),
    ( '' ),
    'SwSTEP 2.0',
    'SolidWorks 2017',
    '' );
FILE_SCHEMA (( 'CONFIG_CONTROL_DESIGN' ));
ENDSEC;

DATA;
#1 = DIRECTION ( 'NONE',  ( -0.0000000000000000000, -0.0000000000000000000, -1.000000000000000000 ) ) ;
#2 = SECURITY_CLASSIFICATION ( '', '', #164 ) ;
#3 = ORGANIZATION ( 'UNSPECIFIED', 'UNSPECIFIED', '' ) ;
#4 = DIRECTION ( 'NONE',  ( 0.0000000000000000000, 0.0000000000000000000, 1.000000000000000000 ) ) ;
#5 = APPLICATION_PROTOCOL_DEFINITION ( 'international standard', 'config_control_design', 1994, #126 ) ;
#6 = CARTESIAN_POINT ( 'NONE',  ( 2.233903847635022000E-014, 4.306003573673876900, 0.2678556109025210800 ) ) ;
#7 = CIRCLE ( 'NONE', #36, 12.69999999999999900 ) ;
#8 = LINE ( 'NONE', #210, #209 ) ;
#9 = CARTESIAN_POINT ( 'NONE',  ( -4.283202722934274400, -4.306003573673874200, 0.2678556109025234700 ) ) ;
#10 = DIRECTION ( 'NONE',  ( 0.0000000000000000000, 0.0000000000000000000, 1.000000000000000000 ) ) ;
#11 = DIRECTION ( 'NONE',  ( 0.0000000000000000000, 0.0000000000000000000, 1.000000000000000000 ) ) ;
#12 = DIRECTION ( 'NONE',  ( 1.000000000000000000, 0.0000000000000000000, -0.0000000000000000000 ) ) ;
#13 = PERSON_AND_ORGANIZATION ( #70, #3 ) ;
#14 = VERTEX_POINT ( 'NONE', #73 ) ;
#15 = CIRCLE ( 'NONE', #200, 12.69999999999999900 ) ;
#16 = CARTESIAN_POINT ( 'NONE',  ( 4.239233070608042600, -12.85161962313845100, -0.7994369643092731300 ) ) ;
#17 = CC_DESIGN_APPROVAL ( #86, ( #188 ) ) ;
#18 = SHAPE_DEFINITION_REPRESENTATION ( #64, #153 ) ;
#19 = FACE_OUTER_BOUND ( 'NONE', #136, .T. ) ;
#20 = PERSON_AND_ORGANIZATION ( #70, #3 ) ;
#21 = PERSON_AND_ORGANIZATION_ROLE ( 'design_owner' ) ;
#22 = PERSON_AND_ORGANIZATION_ROLE ( 'design_supplier' ) ;
#23 = ORIENTED_EDGE ( 'NONE', *, *, #34, .F. ) ;
#24 = CARTESIAN_POINT ( 'NONE',  ( 4.283202722934271700, 4.306003573673877800, 0.2678556109025198600 ) ) ;
#25 = DIRECTION ( 'NONE',  ( 1.000000000000000000, 0.0000000000000000000, 0.0000000000000000000 ) ) ;
#26 = CARTESIAN_POINT ( 'NONE',  ( 12.69999999999999900, 2.442490654175340100E-015, 3.000000000000000000 ) ) ;
#27 = CARTESIAN_POINT ( 'NONE',  ( -12.67732285009358200, -12.85161962313844900, -1.583344363337790800 ) ) ;
#28 = PRODUCT_RELATED_PRODUCT_CATEGORY ( 'detail', '', ( #196 ) ) ;
#29 = EDGE_CURVE ( 'NONE', #114, #121, #7, .T. ) ;
#30 = APPROVAL_PERSON_ORGANIZATION ( #103, #195, #187 ) ;
#31 = CARTESIAN_POINT ( 'NONE',  ( 0.0000000000000000000, 26.11199999999999800, 3.000000000000000000 ) ) ;
#32 = CLOSED_SHELL ( 'NONE', ( #185, #225, #77, #96, #146 ) ) ;
#33 = ORIENTED_EDGE ( 'NONE', *, *, #141, .F. ) ;
#34 = EDGE_CURVE ( 'NONE', #14, #208, #197, .T. ) ;
#35 = DIRECTION ( 'NONE',  ( -0.0000000000000000000, -0.0000000000000000000, -1.000000000000000000 ) ) ;
#36 = AXIS2_PLACEMENT_3D ( 'NONE', #142, #35, #163 ) ;
#37 =( BOUNDED_SURFACE ( )  B_SPLINE_SURFACE ( 3, 3, ( 
 ( #151, #61, #167, #186 ),
 ( #6, #24, #148, #211 ),
 ( #227, #115, #128, #172 ),
 ( #192, #16, #170, #85 ) ),
 .UNSPECIFIED., .F., .F., .F. ) 
 B_SPLINE_SURFACE_WITH_KNOTS ( ( 4, 4 ),
 ( 4, 4 ),
 ( 0.0000000000000000000, 1.000000000000000000 ),
 ( 0.0000000000000000000, 1.000000000000000000 ),
 .UNSPECIFIED. ) 
 GEOMETRIC_REPRESENTATION_ITEM ( )  RATIONAL_B_SPLINE_SURFACE ( (
 ( 1.000000000000000000, 0.9987291042808929000, 0.9987291042808929000, 1.000000000000000000),
 ( 0.9948605788215412200, 0.9935962147708085100, 0.9935962147708085100, 0.9948605788215412200),
 ( 0.9948605788215412200, 0.9935962147708085100, 0.9935962147708085100, 0.9948605788215412200),
 ( 1.000000000000000000, 0.9987291042808929000, 0.9987291042808929000, 1.000000000000000000) ) ) 
 REPRESENTATION_ITEM ( '' )  SURFACE ( )  );
#38 = APPROVAL_ROLE ( '' ) ;
#39 = DATE_AND_TIME ( #162, #89 ) ;
#40 = APPLICATION_CONTEXT ( 'configuration controlled 3d designs of mechanical parts and assemblies' ) ;
#41 = CARTESIAN_POINT ( 'NONE',  ( -12.69999999999999900, 3.997792089092478900E-015, 3.000000000000000000 ) ) ;
#42 = CARTESIAN_POINT ( 'NONE',  ( -4.239233070608046100, -12.85161962313845100, -0.7994369643092702500 ) ) ;
#43 = COORDINATED_UNIVERSAL_TIME_OFFSET ( 2, 0, .AHEAD. ) ;
#44 = CARTESIAN_POINT ( 'NONE',  ( 4.996003610813200500E-016, 2.442490654175340100E-015, 3.000000000000000000 ) ) ;
#45 = COORDINATED_UNIVERSAL_TIME_OFFSET ( 2, 0, .AHEAD. ) ;
#46 = EDGE_LOOP ( 'NONE', ( #198, #156, #207, #59, #191 ) ) ;
#47 = VECTOR ( 'NONE', #4, 1000.000000000000000 ) ;
#48 = CC_DESIGN_APPROVAL ( #229, ( #217 ) ) ;
#49 = EDGE_CURVE ( 'NONE', #155, #114, #201, .T. ) ;
#50 = LOCAL_TIME ( 10, 32, 49.00000000000000000, #173 ) ;
#51 = ORIENTED_EDGE ( 'NONE', *, *, #88, .T. ) ;
#52 = DESIGN_CONTEXT ( 'detailed design', #40, 'design' ) ;
#53 = DIRECTION ( 'NONE',  ( 0.0000000000000000000, 0.0000000000000000000, 1.000000000000000000 ) ) ;
#54 = CARTESIAN_POINT ( 'NONE',  ( 2.204210410614834700E-014, -12.69999999999998900, -0.7806140710118735200 ) ) ;
#55 = CARTESIAN_POINT ( 'NONE',  ( 4.996003610813200500E-016, 2.442490654175340100E-015, -0.7806140710118709700 ) ) ;
#56 = DIRECTION ( 'NONE',  ( 1.000000000000000000, 0.0000000000000000000, 0.0000000000000000000 ) ) ;
#57 = PERSON_AND_ORGANIZATION_ROLE ( 'creator' ) ;
#58 = DIRECTION ( 'NONE',  ( 0.0000000000000000000, 0.0000000000000000000, 1.000000000000000000 ) ) ;
#59 = ORIENTED_EDGE ( 'NONE', *, *, #98, .T. ) ;
#60 = FACE_OUTER_BOUND ( 'NONE', #46, .T. ) ;
#61 = CARTESIAN_POINT ( 'NONE',  ( 4.239233070608042600, 12.85161962313845400, -0.7994369643092731300 ) ) ;
#62 = CARTESIAN_POINT ( 'NONE',  ( -8.470384706473488700, 12.85161962313845400, -1.061071941424498200 ) ) ;
#63 = CC_DESIGN_PERSON_AND_ORGANIZATION_ASSIGNMENT ( #169, #226, ( #217 ) ) ;
#64 = PRODUCT_DEFINITION_SHAPE ( 'NONE', 'NONE',  #188 ) ;
#65 = CALENDAR_DATE ( 2019, 15, 1 ) ;
#66 = CC_DESIGN_PERSON_AND_ORGANIZATION_ASSIGNMENT ( #13, #184, ( #2 ) ) ;
#67 = AXIS2_PLACEMENT_3D ( 'NONE', #44, #1, #106 ) ;
#68 = CALENDAR_DATE ( 2019, 15, 1 ) ;
#69 = ORIENTED_EDGE ( 'NONE', *, *, #90, .F. ) ;
#70 = PERSON ( 'UNSPECIFIED', 'UNSPECIFIED', 'UNSPECIFIED', ('UNSPECIFIED'), ('UNSPECIFIED'), ('UNSPECIFIED') ) ;
#71 = CC_DESIGN_PERSON_AND_ORGANIZATION_ASSIGNMENT ( #131, #22, ( #217 ) ) ;
#72 = APPROVAL_DATE_TIME ( #144, #229 ) ;
#73 = CARTESIAN_POINT ( 'NONE',  ( 12.69999999999999900, 2.442490654175340100E-015, -0.7806140710118709700 ) ) ;
#74 =( BOUNDED_SURFACE ( )  B_SPLINE_SURFACE ( 3, 3, ( 
 ( #230, #62, #212, #101 ),
 ( #83, #119, #81, #228 ),
 ( #214, #116, #9, #129 ),
 ( #27, #152, #42, #99 ) ),
 .UNSPECIFIED., .F., .F., .F. ) 
 B_SPLINE_SURFACE_WITH_KNOTS ( ( 4, 4 ),
 ( 4, 4 ),
 ( 0.0000000000000000000, 1.000000000000000000 ),
 ( 0.0000000000000000000, 1.000000000000000000 ),
 .UNSPECIFIED. ) 
 GEOMETRIC_REPRESENTATION_ITEM ( )  RATIONAL_B_SPLINE_SURFACE ( (
 ( 1.000000000000000000, 0.9987291042808929000, 0.9987291042808929000, 1.000000000000000000),
 ( 0.9948605788215412200, 0.9935962147708085100, 0.9935962147708085100, 0.9948605788215412200),
 ( 0.9948605788215412200, 0.9935962147708085100, 0.9935962147708085100, 0.9948605788215412200),
 ( 1.000000000000000000, 0.9987291042808929000, 0.9987291042808929000, 1.000000000000000000) ) ) 
 REPRESENTATION_ITEM ( '' )  SURFACE ( )  );
#75 = DIRECTION ( 'NONE',  ( 0.0000000000000000000, 0.0000000000000000000, 1.000000000000000000 ) ) ;
#76 = DIRECTION ( 'NONE',  ( 1.000000000000000000, 0.0000000000000000000, 0.0000000000000000000 ) ) ;
#77 = ADVANCED_FACE ( 'NONE', ( #206 ), #37, .F. ) ;
#78 = APPROVAL_STATUS ( 'not_yet_approved' ) ;
#79 = CALENDAR_DATE ( 2019, 15, 1 ) ;
#80 = DATE_TIME_ROLE ( 'classification_date' ) ;
#81 = CARTESIAN_POINT ( 'NONE',  ( -4.283202722934274400, 4.306003573673877800, 0.2678556109025225800 ) ) ;
#82 =( GEOMETRIC_REPRESENTATION_CONTEXT ( 3 ) GLOBAL_UNCERTAINTY_ASSIGNED_CONTEXT ( ( #234 ) ) GLOBAL_UNIT_ASSIGNED_CONTEXT ( ( #127, #181, #143 ) ) REPRESENTATION_CONTEXT ( 'NONE', 'WORKASPACE' ) );
#83 = CARTESIAN_POINT ( 'NONE',  ( -12.80881302033468200, 4.306003573673876900, -0.5241825361214832400 ) ) ;
#84 = ORIENTED_EDGE ( 'NONE', *, *, #88, .F. ) ;
#85 = CARTESIAN_POINT ( 'NONE',  ( 12.67732285009354600, -12.85161962313844900, -1.583344363337786800 ) ) ;
#86 = APPROVAL ( #145, 'UNSPECIFIED' ) ;
#87 = PERSON_AND_ORGANIZATION ( #70, #3 ) ;
#88 = EDGE_CURVE ( 'NONE', #208, #155, #232, .T. ) ;
#89 = LOCAL_TIME ( 10, 32, 49.00000000000000000, #123 ) ;
#90 = EDGE_CURVE ( 'NONE', #208, #104, #220, .T. ) ;
#91 = CC_DESIGN_PERSON_AND_ORGANIZATION_ASSIGNMENT ( #20, #57, ( #188 ) ) ;
#92 = LOCAL_TIME ( 10, 32, 49.00000000000000000, #43 ) ;
#93 = CARTESIAN_POINT ( 'NONE',  ( 4.996003610813200500E-016, 2.442490654175340100E-015, -0.7806140710118709700 ) ) ;
#94 = CARTESIAN_POINT ( 'NONE',  ( -12.69999999999999900, 3.997792089092478900E-015, -0.7806140710118709700 ) ) ;
#95 = MECHANICAL_CONTEXT ( 'NONE', #126, 'mechanical' ) ;
#96 = ADVANCED_FACE ( 'NONE', ( #60 ), #157, .T. ) ;
#97 = APPROVAL_ROLE ( '' ) ;
#98 = EDGE_CURVE ( 'NONE', #14, #121, #8, .T. ) ;
#99 = CARTESIAN_POINT ( 'NONE',  ( -6.938893903907228400E-015, -12.85161962313844900, -0.7994369643092701400 ) ) ;
#100 = ORIENTED_EDGE ( 'NONE', *, *, #29, .T. ) ;
#101 = CARTESIAN_POINT ( 'NONE',  ( -6.938893903907228400E-015, 12.85161962313845200, -0.7994369643092701400 ) ) ;
#102 = DIRECTION ( 'NONE',  ( 0.0000000000000000000, 1.000000000000000000, 0.0000000000000000000 ) ) ;
#103 = PERSON_AND_ORGANIZATION ( #70, #3 ) ;
#104 = VERTEX_POINT ( 'NONE', #54 ) ;
#105 = EDGE_LOOP ( 'NONE', ( #84, #138, #107 ) ) ;
#106 = DIRECTION ( 'NONE',  ( 1.000000000000000000, 0.0000000000000000000, 0.0000000000000000000 ) ) ;
#107 = ORIENTED_EDGE ( 'NONE', *, *, #109, .F. ) ;
#108 = CYLINDRICAL_SURFACE ( 'NONE', #174, 12.69999999999999900 ) ;
#109 = EDGE_CURVE ( 'NONE', #155, #104, #15, .T. ) ;
#110 = CARTESIAN_POINT ( 'NONE',  ( 4.996003610813200500E-016, 2.442490654175340100E-015, -0.7806140710118709700 ) ) ;
#111 = PERSON_AND_ORGANIZATION ( #70, #3 ) ;
#112 = CARTESIAN_POINT ( 'NONE',  ( 0.0000000000000000000, 0.0000000000000000000, 0.0000000000000000000 ) ) ;
#113 = APPLICATION_PROTOCOL_DEFINITION ( 'international standard', 'config_control_design', 1994, #40 ) ;
#114 = VERTEX_POINT ( 'NONE', #41 ) ;
#115 = CARTESIAN_POINT ( 'NONE',  ( 4.283202722934271700, -4.306003573673874200, 0.2678556109025207500 ) ) ;
#116 = CARTESIAN_POINT ( 'NONE',  ( -8.558240189861573200, -4.306003573673874200, 0.003506935628093790200 ) ) ;
#117 = CARTESIAN_POINT ( 'NONE',  ( 4.996003610813200500E-016, 2.442490654175340100E-015, -0.7806140710118709700 ) ) ;
#118 = AXIS2_PLACEMENT_3D ( 'NONE', #137, #53, #176 ) ;
#119 = CARTESIAN_POINT ( 'NONE',  ( -8.558240189861573200, 4.306003573673877800, 0.003506935628092922800 ) ) ;
#120 = LOCAL_TIME ( 10, 32, 49.00000000000000000, #202 ) ;
#121 = VERTEX_POINT ( 'NONE', #26 ) ;
#122 = AXIS2_PLACEMENT_3D ( 'NONE', #112, #58, #76 ) ;
#123 = COORDINATED_UNIVERSAL_TIME_OFFSET ( 2, 0, .AHEAD. ) ;
#124 = AXIS2_PLACEMENT_3D ( 'NONE', #55, #180, #224 ) ;
#125 = CC_DESIGN_DATE_AND_TIME_ASSIGNMENT ( #233, #205, ( #188 ) ) ;
#126 = APPLICATION_CONTEXT ( 'configuration controlled 3d designs of mechanical parts and assemblies' ) ;
#127 =( LENGTH_UNIT ( ) NAMED_UNIT ( * ) SI_UNIT ( .MILLI., .METRE. ) );
#128 = CARTESIAN_POINT ( 'NONE',  ( 8.558240189861553700, -4.306003573673874200, 0.003506935628094766000 ) ) ;
#129 = CARTESIAN_POINT ( 'NONE',  ( -6.938893903907228400E-015, -4.306003573673873300, 0.2678556109025234700 ) ) ;
#130 = DIRECTION ( 'NONE',  ( 1.000000000000000000, 0.0000000000000000000, -2.832073977186420200E-016 ) ) ;
#131 = PERSON_AND_ORGANIZATION ( #70, #3 ) ;
#132 = ORIENTED_EDGE ( 'NONE', *, *, #49, .T. ) ;
#133 = PERSON_AND_ORGANIZATION ( #70, #3 ) ;
#134 = AXIS2_PLACEMENT_3D ( 'NONE', #31, #221, #12 ) ;
#135 = APPROVAL_DATE_TIME ( #189, #86 ) ;
#136 = EDGE_LOOP ( 'NONE', ( #33, #165 ) ) ;
#137 = CARTESIAN_POINT ( 'NONE',  ( 4.996003610813200500E-016, 2.442490654175340100E-015, -0.7806140710118709700 ) ) ;
#138 = ORIENTED_EDGE ( 'NONE', *, *, #90, .T. ) ;
#139 = CIRCLE ( 'NONE', #67, 12.69999999999999900 ) ;
#140 = CC_DESIGN_PERSON_AND_ORGANIZATION_ASSIGNMENT ( #87, #21, ( #196 ) ) ;
#141 = EDGE_CURVE ( 'NONE', #121, #114, #139, .T. ) ;
#142 = CARTESIAN_POINT ( 'NONE',  ( 4.996003610813200500E-016, 2.442490654175340100E-015, 3.000000000000000000 ) ) ;
#143 =( NAMED_UNIT ( * ) SI_UNIT ( $, .STERADIAN. ) SOLID_ANGLE_UNIT ( ) );
#144 = DATE_AND_TIME ( #219, #50 ) ;
#145 = APPROVAL_STATUS ( 'not_yet_approved' ) ;
#146 = ADVANCED_FACE ( 'NONE', ( #19 ), #213, .T. ) ;
#147 = DIRECTION ( 'NONE',  ( 0.0000000000000000000, 0.0000000000000000000, 1.000000000000000000 ) ) ;
#148 = CARTESIAN_POINT ( 'NONE',  ( 8.558240189861553700, 4.306003573673877800, 0.003506935628093898200 ) ) ;
#149 = CC_DESIGN_DATE_AND_TIME_ASSIGNMENT ( #39, #80, ( #2 ) ) ;
#150 = DIRECTION ( 'NONE',  ( 1.000000000000000000, 0.0000000000000000000, 0.0000000000000000000 ) ) ;
#151 = CARTESIAN_POINT ( 'NONE',  ( 2.203677332352005500E-014, 12.85161962313845200, -0.7994369643092719100 ) ) ;
#152 = CARTESIAN_POINT ( 'NONE',  ( -8.470384706473488700, -12.85161962313845100, -1.061071941424498200 ) ) ;
#153 = ADVANCED_BREP_SHAPE_REPRESENTATION ( '112-0231E BK7 pl-cv 25.4 F-200', ( #175, #122 ), #82 ) ;
#154 = ORIENTED_EDGE ( 'NONE', *, *, #34, .T. ) ;
#155 = VERTEX_POINT ( 'NONE', #190 ) ;
#156 = ORIENTED_EDGE ( 'NONE', *, *, #109, .T. ) ;
#157 = CYLINDRICAL_SURFACE ( 'NONE', #118, 12.69999999999999900 ) ;
#158 = CC_DESIGN_APPROVAL ( #195, ( #2 ) ) ;
#159 = APPROVAL_DATE_TIME ( #215, #195 ) ;
#160 = EDGE_LOOP ( 'NONE', ( #154, #51, #132, #100, #235 ) ) ;
#161 = AXIS2_PLACEMENT_3D ( 'NONE', #166, #130, #102 ) ;
#162 = CALENDAR_DATE ( 2019, 15, 1 ) ;
#163 = DIRECTION ( 'NONE',  ( 1.000000000000000000, 0.0000000000000000000, 0.0000000000000000000 ) ) ;
#164 = SECURITY_CLASSIFICATION_LEVEL ( 'unclassified' ) ;
#165 = ORIENTED_EDGE ( 'NONE', *, *, #29, .F. ) ;
#166 = CARTESIAN_POINT ( 'NONE',  ( -7.105427357601000300E-015, 7.105427357601000300E-015, -103.7000000000000000 ) ) ;
#167 = CARTESIAN_POINT ( 'NONE',  ( 8.470384706473467400, 12.85161962313845400, -1.061071941424497300 ) ) ;
#168 = APPROVAL_STATUS ( 'not_yet_approved' ) ;
#169 = PERSON_AND_ORGANIZATION ( #70, #3 ) ;
#170 = CARTESIAN_POINT ( 'NONE',  ( 8.470384706473467400, -12.85161962313845100, -1.061071941424497300 ) ) ;
#171 = AXIS2_PLACEMENT_3D ( 'NONE', #93, #75, #56 ) ;
#172 = CARTESIAN_POINT ( 'NONE',  ( 12.80881302033464300, -4.306003573673873300, -0.5241825361214781400 ) ) ;
#173 = COORDINATED_UNIVERSAL_TIME_OFFSET ( 2, 0, .AHEAD. ) ;
#174 = AXIS2_PLACEMENT_3D ( 'NONE', #222, #147, #183 ) ;
#175 = MANIFOLD_SOLID_BREP ( 'Imported1', #32 ) ;
#176 = DIRECTION ( 'NONE',  ( 1.000000000000000000, 0.0000000000000000000, 0.0000000000000000000 ) ) ;
#177 = APPROVAL_PERSON_ORGANIZATION ( #133, #86, #38 ) ;
#178 = CC_DESIGN_SECURITY_CLASSIFICATION ( #2, ( #217 ) ) ;
#179 = CARTESIAN_POINT ( 'NONE',  ( 2.204210410614834700E-014, 12.69999999999999800, -0.7806140710118735200 ) ) ;
#180 = DIRECTION ( 'NONE',  ( 0.0000000000000000000, 0.0000000000000000000, 1.000000000000000000 ) ) ;
#181 =( NAMED_UNIT ( * ) PLANE_ANGLE_UNIT ( ) SI_UNIT ( $, .RADIAN. ) );
#182 = APPROVAL_PERSON_ORGANIZATION ( #111, #229, #97 ) ;
#183 = DIRECTION ( 'NONE',  ( 1.000000000000000000, 0.0000000000000000000, 0.0000000000000000000 ) ) ;
#184 = PERSON_AND_ORGANIZATION_ROLE ( 'classification_officer' ) ;
#185 = ADVANCED_FACE ( 'NONE', ( #216 ), #74, .F. ) ;
#186 = CARTESIAN_POINT ( 'NONE',  ( 12.67732285009354600, 12.85161962313845200, -1.583344363337786800 ) ) ;
#187 = APPROVAL_ROLE ( '' ) ;
#188 = PRODUCT_DEFINITION ( 'UNKNOWN', '', #217, #52 ) ;
#189 = DATE_AND_TIME ( #79, #92 ) ;
#190 = CARTESIAN_POINT ( 'NONE',  ( -12.69999999999999900, 3.997792089092478900E-015, -0.7806140710118709700 ) ) ;
#191 = ORIENTED_EDGE ( 'NONE', *, *, #141, .T. ) ;
#192 = CARTESIAN_POINT ( 'NONE',  ( 2.203677332352005500E-014, -12.85161962313844900, -0.7994369643092719100 ) ) ;
#193 = ORIENTED_EDGE ( 'NONE', *, *, #223, .F. ) ;
#194 = FACE_OUTER_BOUND ( 'NONE', #160, .T. ) ;
#195 = APPROVAL ( #168, 'UNSPECIFIED' ) ;
#196 = PRODUCT ( '112-0231E BK7 pl-cv 25.4 F-200', '112-0231E BK7 pl-cv 25.4 F-200', '', ( #95 ) ) ;
#197 = CIRCLE ( 'NONE', #124, 12.69999999999999900 ) ;
#198 = ORIENTED_EDGE ( 'NONE', *, *, #49, .F. ) ;
#199 = CIRCLE ( 'NONE', #171, 12.69999999999999900 ) ;
#200 = AXIS2_PLACEMENT_3D ( 'NONE', #110, #203, #25 ) ;
#201 = LINE ( 'NONE', #94, #47 ) ;
#202 = COORDINATED_UNIVERSAL_TIME_OFFSET ( 2, 0, .AHEAD. ) ;
#203 = DIRECTION ( 'NONE',  ( 0.0000000000000000000, 0.0000000000000000000, 1.000000000000000000 ) ) ;
#204 = EDGE_LOOP ( 'NONE', ( #69, #23, #193 ) ) ;
#205 = DATE_TIME_ROLE ( 'creation_date' ) ;
#206 = FACE_OUTER_BOUND ( 'NONE', #204, .T. ) ;
#207 = ORIENTED_EDGE ( 'NONE', *, *, #223, .T. ) ;
#208 = VERTEX_POINT ( 'NONE', #179 ) ;
#209 = VECTOR ( 'NONE', #11, 1000.000000000000000 ) ;
#210 = CARTESIAN_POINT ( 'NONE',  ( 12.69999999999999900, 2.442490654175340100E-015, -0.7806140710118709700 ) ) ;
#211 = CARTESIAN_POINT ( 'NONE',  ( 12.80881302033464300, 4.306003573673876900, -0.5241825361214790300 ) ) ;
#212 = CARTESIAN_POINT ( 'NONE',  ( -4.239233070608046100, 12.85161962313845400, -0.7994369643092702500 ) ) ;
#213 = PLANE ( 'NONE',  #134 ) ;
#214 = CARTESIAN_POINT ( 'NONE',  ( -12.80881302033468200, -4.306003573673873300, -0.5241825361214824700 ) ) ;
#215 = DATE_AND_TIME ( #68, #120 ) ;
#216 = FACE_OUTER_BOUND ( 'NONE', #105, .T. ) ;
#217 = PRODUCT_DEFINITION_FORMATION_WITH_SPECIFIED_SOURCE ( 'ANY', '', #196, .NOT_KNOWN. ) ;
#218 = AXIS2_PLACEMENT_3D ( 'NONE', #117, #10, #150 ) ;
#219 = CALENDAR_DATE ( 2019, 15, 1 ) ;
#220 = CIRCLE ( 'NONE', #161, 103.6999999999999900 ) ;
#221 = DIRECTION ( 'NONE',  ( 0.0000000000000000000, 0.0000000000000000000, 1.000000000000000000 ) ) ;
#222 = CARTESIAN_POINT ( 'NONE',  ( 4.996003610813200500E-016, 2.442490654175340100E-015, -0.7806140710118709700 ) ) ;
#223 = EDGE_CURVE ( 'NONE', #104, #14, #199, .T. ) ;
#224 = DIRECTION ( 'NONE',  ( 1.000000000000000000, 0.0000000000000000000, 0.0000000000000000000 ) ) ;
#225 = ADVANCED_FACE ( 'NONE', ( #194 ), #108, .T. ) ;
#226 = PERSON_AND_ORGANIZATION_ROLE ( 'creator' ) ;
#227 = CARTESIAN_POINT ( 'NONE',  ( 2.233903847635022000E-014, -4.306003573673873300, 0.2678556109025219100 ) ) ;
#228 = CARTESIAN_POINT ( 'NONE',  ( -6.938893903907228400E-015, 4.306003573673876900, 0.2678556109025225800 ) ) ;
#229 = APPROVAL ( #78, 'UNSPECIFIED' ) ;
#230 = CARTESIAN_POINT ( 'NONE',  ( -12.67732285009358200, 12.85161962313845200, -1.583344363337790800 ) ) ;
#231 = LOCAL_TIME ( 10, 32, 49.00000000000000000, #45 ) ;
#232 = CIRCLE ( 'NONE', #218, 12.69999999999999900 ) ;
#233 = DATE_AND_TIME ( #65, #231 ) ;
#234 = UNCERTAINTY_MEASURE_WITH_UNIT (LENGTH_MEASURE( 1.000000000000000100E-005 ), #127, 'distance_accuracy_value', 'NONE');
#235 = ORIENTED_EDGE ( 'NONE', *, *, #98, .F. ) ;
ENDSEC;
END-ISO-10303-21;
