ISO-10303-21;
HEADER;
FILE_DESCRIPTION (( 'STEP AP203' ),
    '1' );
FILE_NAME ('112-0227E BK7 pl-cv 25.4 F-150.STEP',
    '2019-01-15T08:21:20',
    ( '' ),
    ( '' ),
    'SwSTEP 2.0',
    'SolidWorks 2017',
    '' );
FILE_SCHEMA (( 'CONFIG_CONTROL_DESIGN' ));
ENDSEC;

DATA;
#1 = CARTESIAN_POINT ( 'NONE',  ( 2.131628207280299600E-014, 4.323249957056302300, 0.3594797895800389600 ) ) ;
#2 = CARTESIAN_POINT ( 'NONE',  ( -4.223913843764571600, 12.85100735937249700, -1.068565886156699800 ) ) ;
#3 = CARTESIAN_POINT ( 'NONE',  ( 1.734723475976807100E-015, 12.85100735937249700, -1.068565886156698900 ) ) ;
#4 = ORIENTED_EDGE ( 'NONE', *, *, #131, .F. ) ;
#5 = CARTESIAN_POINT ( 'NONE',  ( 1.734723475976807100E-015, -12.85100735937248500, -1.068565886156698900 ) ) ;
#6 = PRODUCT_DEFINITION_SHAPE ( 'NONE', 'NONE',  #148 ) ;
#7 = CARTESIAN_POINT ( 'NONE',  ( -8.590407156839528800, -4.323249957056289900, 0.005063504038063379600 ) ) ;
#8 = EDGE_CURVE ( 'NONE', #104, #217, #35, .T. ) ;
#9 = CARTESIAN_POINT ( 'NONE',  ( 4.996003610813200500E-016, 2.442490654175340100E-015, 2.700000000000000200 ) ) ;
#10 = PERSON_AND_ORGANIZATION ( #196, #233 ) ;
#11 = CC_DESIGN_PERSON_AND_ORGANIZATION_ASSIGNMENT ( #213, #180, ( #146 ) ) ;
#12 = EDGE_LOOP ( 'NONE', ( #63, #17, #89, #170, #234 ) ) ;
#13 = PERSON_AND_ORGANIZATION_ROLE ( 'creator' ) ;
#14 = CIRCLE ( 'NONE', #121, 12.69999999999999900 ) ;
#15 = ADVANCED_FACE ( 'NONE', ( #120 ), #185, .F. ) ;
#16 = EDGE_CURVE ( 'NONE', #19, #40, #205, .T. ) ;
#17 = ORIENTED_EDGE ( 'NONE', *, *, #184, .T. ) ;
#18 = DATE_AND_TIME ( #72, #106 ) ;
#19 = VERTEX_POINT ( 'NONE', #224 ) ;
#20 = CARTESIAN_POINT ( 'NONE',  ( 4.223913843764592900, 12.85100735937249700, -1.068565886156683100 ) ) ;
#21 = CARTESIAN_POINT ( 'NONE',  ( 4.223913843764592900, -12.85100735937248500, -1.068565886156683100 ) ) ;
#22 = DATE_AND_TIME ( #216, #124 ) ;
#23 = CARTESIAN_POINT ( 'NONE',  ( -12.69999999999999900, 3.997792089092478900E-015, -1.043431104418900000 ) ) ;
#24 = DESIGN_CONTEXT ( 'detailed design', #32, 'design' ) ;
#25 = CARTESIAN_POINT ( 'NONE',  ( -12.60006359426979100, -12.85100735937248500, -2.110025711565072000 ) ) ;
#26 = DATE_AND_TIME ( #225, #167 ) ;
#27 = ORIENTED_EDGE ( 'NONE', *, *, #158, .F. ) ;
#28 = AXIS2_PLACEMENT_3D ( 'NONE', #190, #155, #140 ) ;
#29 = DIRECTION ( 'NONE',  ( 1.000000000000000000, 0.0000000000000000000, 0.0000000000000000000 ) ) ;
#30 = COORDINATED_UNIVERSAL_TIME_OFFSET ( 2, 0, .AHEAD. ) ;
#31 = EDGE_LOOP ( 'NONE', ( #80, #27 ) ) ;
#32 = APPLICATION_CONTEXT ( 'configuration controlled 3d designs of mechanical parts and assemblies' ) ;
#33 = PERSON_AND_ORGANIZATION_ROLE ( 'design_supplier' ) ;
#34 = APPLICATION_CONTEXT ( 'configuration controlled 3d designs of mechanical parts and assemblies' ) ;
#35 = LINE ( 'NONE', #90, #50 ) ;
#36 = APPROVAL ( #83, 'UNSPECIFIED' ) ;
#37 = CARTESIAN_POINT ( 'NONE',  ( 12.60006359426980500, 12.85100735937249700, -2.110025711565056500 ) ) ;
#38 = APPROVAL_PERSON_ORGANIZATION ( #75, #36, #143 ) ;
#39 = CARTESIAN_POINT ( 'NONE',  ( 12.83453232081343600, -4.323249957056289900, -0.7013600776180335400 ) ) ;
#40 = VERTEX_POINT ( 'NONE', #112 ) ;
#41 = CARTESIAN_POINT ( 'NONE',  ( -8.433472585621137400, 12.85100735937249700, -1.416507488160517700 ) ) ;
#42 = CARTESIAN_POINT ( 'NONE',  ( -8.590407156839530600, 4.323249957056301400, 0.005063504038060234600 ) ) ;
#43 = AXIS2_PLACEMENT_3D ( 'NONE', #173, #77, #94 ) ;
#44 = DIRECTION ( 'NONE',  ( -0.0000000000000000000, -0.0000000000000000000, -1.000000000000000000 ) ) ;
#45 = DIRECTION ( 'NONE',  ( 1.000000000000000000, 0.0000000000000000000, 0.0000000000000000000 ) ) ;
#46 = ORIENTED_EDGE ( 'NONE', *, *, #200, .F. ) ;
#47 = APPROVAL_ROLE ( '' ) ;
#48 = CC_DESIGN_PERSON_AND_ORGANIZATION_ASSIGNMENT ( #156, #179, ( #152 ) ) ;
#49 = DIRECTION ( 'NONE',  ( 1.000000000000000000, 0.0000000000000000000, 0.0000000000000000000 ) ) ;
#50 = VECTOR ( 'NONE', #188, 1000.000000000000000 ) ;
#51 = APPROVAL_STATUS ( 'not_yet_approved' ) ;
#52 = PRODUCT_RELATED_PRODUCT_CATEGORY ( 'detail', '', ( #146 ) ) ;
#53 = PERSON_AND_ORGANIZATION ( #196, #233 ) ;
#54 = APPROVAL ( #51, 'UNSPECIFIED' ) ;
#55 = ADVANCED_FACE ( 'NONE', ( #206 ), #220, .F. ) ;
#56 = EDGE_LOOP ( 'NONE', ( #66, #74, #128 ) ) ;
#57 = AXIS2_PLACEMENT_3D ( 'NONE', #207, #64, #69 ) ;
#58 = APPROVAL_DATE_TIME ( #134, #54 ) ;
#59 = CYLINDRICAL_SURFACE ( 'NONE', #122, 12.69999999999999900 ) ;
#60 = CARTESIAN_POINT ( 'NONE',  ( 8.590407156839544800, 4.323249957056301400, 0.005063504038073786200 ) ) ;
#61 = CC_DESIGN_PERSON_AND_ORGANIZATION_ASSIGNMENT ( #53, #33, ( #152 ) ) ;
#62 = CARTESIAN_POINT ( 'NONE',  ( -4.302514693083136200, 4.323249957056300600, 0.3594797895800223000 ) ) ;
#63 = ORIENTED_EDGE ( 'NONE', *, *, #8, .F. ) ;
#64 = DIRECTION ( 'NONE',  ( 0.0000000000000000000, 0.0000000000000000000, 1.000000000000000000 ) ) ;
#65 = APPROVAL_DATE_TIME ( #18, #102 ) ;
#66 = ORIENTED_EDGE ( 'NONE', *, *, #82, .F. ) ;
#67 = CARTESIAN_POINT ( 'NONE',  ( -12.83453232081342000, -4.323249957056289900, -0.7013600776180488600 ) ) ;
#68 = PLANE ( 'NONE',  #228 ) ;
#69 = DIRECTION ( 'NONE',  ( 1.000000000000000000, 0.0000000000000000000, 0.0000000000000000000 ) ) ;
#70 = EDGE_LOOP ( 'NONE', ( #165, #144, #73, #101, #86 ) ) ;
#71 = MECHANICAL_CONTEXT ( 'NONE', #34, 'mechanical' ) ;
#72 = CALENDAR_DATE ( 2019, 15, 1 ) ;
#73 = ORIENTED_EDGE ( 'NONE', *, *, #8, .T. ) ;
#74 = ORIENTED_EDGE ( 'NONE', *, *, #131, .T. ) ;
#75 = PERSON_AND_ORGANIZATION ( #196, #233 ) ;
#76 = SHAPE_DEFINITION_REPRESENTATION ( #6, #177 ) ;
#77 = DIRECTION ( 'NONE',  ( 0.0000000000000000000, 0.0000000000000000000, 1.000000000000000000 ) ) ;
#78 = CARTESIAN_POINT ( 'NONE',  ( 2.131628207280299900E-014, 12.70000000000002200, -1.043431104418900600 ) ) ;
#79 = CARTESIAN_POINT ( 'NONE',  ( -12.69999999999999900, 3.997792089092478900E-015, 2.700000000000000200 ) ) ;
#80 = ORIENTED_EDGE ( 'NONE', *, *, #99, .F. ) ;
#81 = DIRECTION ( 'NONE',  ( 0.0000000000000000000, 0.0000000000000000000, 1.000000000000000000 ) ) ;
#82 = EDGE_CURVE ( 'NONE', #139, #104, #166, .T. ) ;
#83 = APPROVAL_STATUS ( 'not_yet_approved' ) ;
#84 = COORDINATED_UNIVERSAL_TIME_OFFSET ( 2, 0, .AHEAD. ) ;
#85 = SECURITY_CLASSIFICATION_LEVEL ( 'unclassified' ) ;
#86 = ORIENTED_EDGE ( 'NONE', *, *, #16, .F. ) ;
#87 = AXIS2_PLACEMENT_3D ( 'NONE', #176, #81, #49 ) ;
#88 = CC_DESIGN_PERSON_AND_ORGANIZATION_ASSIGNMENT ( #10, #13, ( #148 ) ) ;
#89 = ORIENTED_EDGE ( 'NONE', *, *, #200, .T. ) ;
#90 = CARTESIAN_POINT ( 'NONE',  ( -12.69999999999999900, 3.997792089092478900E-015, -1.043431104418900000 ) ) ;
#91 = SECURITY_CLASSIFICATION ( '', '', #85 ) ;
#92 = CARTESIAN_POINT ( 'NONE',  ( 12.60006359426980700, -12.85100735937248500, -2.110025711565056500 ) ) ;
#93 = DIRECTION ( 'NONE',  ( 1.000000000000000000, 0.0000000000000000000, 0.0000000000000000000 ) ) ;
#94 = DIRECTION ( 'NONE',  ( 1.000000000000000000, 0.0000000000000000000, 0.0000000000000000000 ) ) ;
#95 = DIRECTION ( 'NONE',  ( 1.000000000000000000, 0.0000000000000000000, 0.0000000000000000000 ) ) ;
#96 = DATE_AND_TIME ( #187, #198 ) ;
#97 = EDGE_LOOP ( 'NONE', ( #4, #193, #46 ) ) ;
#98 = DIRECTION ( 'NONE',  ( 0.0000000000000000000, 0.0000000000000000000, 1.000000000000000000 ) ) ;
#99 = EDGE_CURVE ( 'NONE', #40, #217, #157, .T. ) ;
#100 = CARTESIAN_POINT ( 'NONE',  ( 4.996003610813200500E-016, 2.442490654175340100E-015, 2.700000000000000200 ) ) ;
#101 = ORIENTED_EDGE ( 'NONE', *, *, #158, .T. ) ;
#102 = APPROVAL ( #232, 'UNSPECIFIED' ) ;
#103 = CLOSED_SHELL ( 'NONE', ( #55, #145, #15, #218, #123 ) ) ;
#104 = VERTEX_POINT ( 'NONE', #23 ) ;
#105 = AXIS2_PLACEMENT_3D ( 'NONE', #100, #154, #93 ) ;
#106 = LOCAL_TIME ( 10, 21, 20.00000000000000000, #119 ) ;
#107 = FACE_OUTER_BOUND ( 'NONE', #70, .T. ) ;
#108 = CARTESIAN_POINT ( 'NONE',  ( 8.433472585621153400, 12.85100735937249700, -1.416507488160504200 ) ) ;
#109 = AXIS2_PLACEMENT_3D ( 'NONE', #133, #227, #189 ) ;
#110 = CARTESIAN_POINT ( 'NONE',  ( 2.131628207280299900E-014, -12.85100735937248500, -1.068565886156683100 ) ) ;
#111 = CARTESIAN_POINT ( 'NONE',  ( -12.60006359426979100, 12.85100735937249700, -2.110025711565072000 ) ) ;
#112 = CARTESIAN_POINT ( 'NONE',  ( 12.69999999999999900, 2.442490654175340100E-015, 2.700000000000000200 ) ) ;
#113 = CARTESIAN_POINT ( 'NONE',  ( -4.302514693083134400, -4.323249957056290800, 0.3594797895800251900 ) ) ;
#114 = PERSON_AND_ORGANIZATION ( #196, #233 ) ;
#115 = CARTESIAN_POINT ( 'NONE',  ( 4.996003610813200500E-016, 2.442490654175340100E-015, -1.043431104418900000 ) ) ;
#116 = DIRECTION ( 'NONE',  ( 0.0000000000000000000, 0.0000000000000000000, 1.000000000000000000 ) ) ;
#117 = CARTESIAN_POINT ( 'NONE',  ( 0.0000000000000000000, -4.323249957056290800, 0.3594797895800264100 ) ) ;
#118 =( LENGTH_UNIT ( ) NAMED_UNIT ( * ) SI_UNIT ( .MILLI., .METRE. ) );
#119 = COORDINATED_UNIVERSAL_TIME_OFFSET ( 2, 0, .AHEAD. ) ;
#120 = FACE_OUTER_BOUND ( 'NONE', #97, .T. ) ;
#121 = AXIS2_PLACEMENT_3D ( 'NONE', #115, #98, #29 ) ;
#122 = AXIS2_PLACEMENT_3D ( 'NONE', #136, #175, #174 ) ;
#123 = ADVANCED_FACE ( 'NONE', ( #221 ), #68, .T. ) ;
#124 = LOCAL_TIME ( 10, 21, 20.00000000000000000, #183 ) ;
#125 = CARTESIAN_POINT ( 'NONE',  ( 2.131628207280299900E-014, 12.85100735937249700, -1.068565886156683100 ) ) ;
#126 = CARTESIAN_POINT ( 'NONE',  ( 2.131628207280299600E-014, -4.323249957056289900, 0.3594797895800421700 ) ) ;
#127 = CALENDAR_DATE ( 2019, 15, 1 ) ;
#128 = ORIENTED_EDGE ( 'NONE', *, *, #184, .F. ) ;
#129 = CARTESIAN_POINT ( 'NONE',  ( 4.302514693083153900, 4.323249957056301400, 0.3594797895800389600 ) ) ;
#130 = CARTESIAN_POINT ( 'NONE',  ( -12.83453232081342100, 4.323249957056302300, -0.7013600776180521900 ) ) ;
#131 = EDGE_CURVE ( 'NONE', #139, #201, #149, .T. ) ;
#132 = CARTESIAN_POINT ( 'NONE',  ( 8.433472585621157000, -12.85100735937248500, -1.416507488160504200 ) ) ;
#133 = CARTESIAN_POINT ( 'NONE',  ( 4.996003610813200500E-016, 2.442490654175340100E-015, -1.043431104418900000 ) ) ;
#134 = DATE_AND_TIME ( #127, #202 ) ;
#135 = CC_DESIGN_PERSON_AND_ORGANIZATION_ASSIGNMENT ( #114, #215, ( #91 ) ) ;
#136 = CARTESIAN_POINT ( 'NONE',  ( 4.996003610813200500E-016, 2.442490654175340100E-015, -1.043431104418900000 ) ) ;
#137 = CARTESIAN_POINT ( 'NONE',  ( 0.0000000000000000000, 26.11199999999999800, 2.700000000000000200 ) ) ;
#138 = DIRECTION ( 'NONE',  ( 1.000000000000000000, 0.0000000000000000000, -0.0000000000000000000 ) ) ;
#139 = VERTEX_POINT ( 'NONE', #78 ) ;
#140 = DIRECTION ( 'NONE',  ( 0.0000000000000000000, 1.000000000000000000, 3.567096210722132400E-016 ) ) ;
#141 = CC_DESIGN_APPROVAL ( #54, ( #148 ) ) ;
#142 = APPLICATION_PROTOCOL_DEFINITION ( 'international standard', 'config_control_design', 1994, #34 ) ;
#143 = APPROVAL_ROLE ( '' ) ;
#144 = ORIENTED_EDGE ( 'NONE', *, *, #82, .T. ) ;
#145 = ADVANCED_FACE ( 'NONE', ( #107 ), #214, .T. ) ;
#146 = PRODUCT ( '112-0227E BK7 pl-cv 25.4 F-150', '112-0227E BK7 pl-cv 25.4 F-150', '', ( #71 ) ) ;
#147 = UNCERTAINTY_MEASURE_WITH_UNIT (LENGTH_MEASURE( 1.000000000000000100E-005 ), #118, 'distance_accuracy_value', 'NONE');
#148 = PRODUCT_DEFINITION ( 'UNKNOWN', '', #152, #24 ) ;
#149 = CIRCLE ( 'NONE', #28, 77.81000000000000200 ) ;
#150 = APPROVAL_DATE_TIME ( #26, #36 ) ;
#151 = FACE_OUTER_BOUND ( 'NONE', #12, .T. ) ;
#152 = PRODUCT_DEFINITION_FORMATION_WITH_SPECIFIED_SOURCE ( 'ANY', '', #146, .NOT_KNOWN. ) ;
#153 = CARTESIAN_POINT ( 'NONE',  ( -1.734723475976807100E-015, 4.323249957056301400, 0.3594797895800236300 ) ) ;
#154 = DIRECTION ( 'NONE',  ( -0.0000000000000000000, -0.0000000000000000000, -1.000000000000000000 ) ) ;
#155 = DIRECTION ( 'NONE',  ( 1.000000000000000000, 0.0000000000000000000, 0.0000000000000000000 ) ) ;
#156 = PERSON_AND_ORGANIZATION ( #196, #233 ) ;
#157 = CIRCLE ( 'NONE', #105, 12.69999999999999900 ) ;
#158 = EDGE_CURVE ( 'NONE', #217, #40, #181, .T. ) ;
#159 = DATE_TIME_ROLE ( 'creation_date' ) ;
#160 =( NAMED_UNIT ( * ) PLANE_ANGLE_UNIT ( ) SI_UNIT ( $, .RADIAN. ) );
#161 = CC_DESIGN_APPROVAL ( #36, ( #152 ) ) ;
#162 =( NAMED_UNIT ( * ) SI_UNIT ( $, .STERADIAN. ) SOLID_ANGLE_UNIT ( ) );
#163 = CC_DESIGN_DATE_AND_TIME_ASSIGNMENT ( #22, #178, ( #91 ) ) ;
#164 = APPROVAL_PERSON_ORGANIZATION ( #169, #102, #47 ) ;
#165 = ORIENTED_EDGE ( 'NONE', *, *, #168, .T. ) ;
#166 = CIRCLE ( 'NONE', #109, 12.69999999999999900 ) ;
#167 = LOCAL_TIME ( 10, 21, 20.00000000000000000, #30 ) ;
#168 = EDGE_CURVE ( 'NONE', #19, #139, #199, .T. ) ;
#169 = PERSON_AND_ORGANIZATION ( #196, #233 ) ;
#170 = ORIENTED_EDGE ( 'NONE', *, *, #16, .T. ) ;
#171 = CARTESIAN_POINT ( 'NONE',  ( 12.69999999999999900, 2.442490654175340100E-015, -1.043431104418900000 ) ) ;
#172 = CC_DESIGN_APPROVAL ( #102, ( #91 ) ) ;
#173 = CARTESIAN_POINT ( 'NONE',  ( 4.996003610813200500E-016, 2.442490654175340100E-015, -1.043431104418900000 ) ) ;
#174 = DIRECTION ( 'NONE',  ( 1.000000000000000000, 0.0000000000000000000, 0.0000000000000000000 ) ) ;
#175 = DIRECTION ( 'NONE',  ( 0.0000000000000000000, 0.0000000000000000000, 1.000000000000000000 ) ) ;
#176 = CARTESIAN_POINT ( 'NONE',  ( 0.0000000000000000000, 0.0000000000000000000, 0.0000000000000000000 ) ) ;
#177 = ADVANCED_BREP_SHAPE_REPRESENTATION ( '112-0227E BK7 pl-cv 25.4 F-150', ( #212, #87 ), #235 ) ;
#178 = DATE_TIME_ROLE ( 'classification_date' ) ;
#179 = PERSON_AND_ORGANIZATION_ROLE ( 'creator' ) ;
#180 = PERSON_AND_ORGANIZATION_ROLE ( 'design_owner' ) ;
#181 = CIRCLE ( 'NONE', #209, 12.69999999999999900 ) ;
#182 = CC_DESIGN_SECURITY_CLASSIFICATION ( #91, ( #152 ) ) ;
#183 = COORDINATED_UNIVERSAL_TIME_OFFSET ( 2, 0, .AHEAD. ) ;
#184 = EDGE_CURVE ( 'NONE', #104, #201, #195, .T. ) ;
#185 =( BOUNDED_SURFACE ( )  B_SPLINE_SURFACE ( 3, 3, ( 
 ( #125, #20, #108, #37 ),
 ( #1, #129, #60, #186 ),
 ( #126, #203, #204, #39 ),
 ( #110, #21, #132, #92 ) ),
 .UNSPECIFIED., .F., .F., .T. ) 
 B_SPLINE_SURFACE_WITH_KNOTS ( ( 4, 4 ),
 ( 4, 4 ),
 ( 0.0000000000000000000, 1.000000000000000000 ),
 ( 0.0000000000000000000, 1.000000000000000000 ),
 .UNSPECIFIED. ) 
 GEOMETRIC_REPRESENTATION_ITEM ( )  RATIONAL_B_SPLINE_SURFACE ( (
 ( 1.000000000000000000, 0.9977343127031818000, 0.9977343127031818000, 1.000000000000000000),
 ( 0.9908446567608560900, 0.9885997126089128800, 0.9885997126089128800, 0.9908446567608560900),
 ( 0.9908446567608560900, 0.9885997126089128800, 0.9885997126089128800, 0.9908446567608560900),
 ( 1.000000000000000000, 0.9977343127031818000, 0.9977343127031818000, 1.000000000000000000) ) ) 
 REPRESENTATION_ITEM ( '' )  SURFACE ( )  );
#186 = CARTESIAN_POINT ( 'NONE',  ( 12.83453232081343600, 4.323249957056302300, -0.7013600776180367600 ) ) ;
#187 = CALENDAR_DATE ( 2019, 15, 1 ) ;
#188 = DIRECTION ( 'NONE',  ( 0.0000000000000000000, 0.0000000000000000000, 1.000000000000000000 ) ) ;
#189 = DIRECTION ( 'NONE',  ( 1.000000000000000000, 0.0000000000000000000, 0.0000000000000000000 ) ) ;
#190 = CARTESIAN_POINT ( 'NONE',  ( 2.131628207280299900E-014, 2.131628207280299900E-014, -77.81000000000000200 ) ) ;
#191 = CARTESIAN_POINT ( 'NONE',  ( -4.223913843764571600, -12.85100735937248500, -1.068565886156699800 ) ) ;
#192 = COORDINATED_UNIVERSAL_TIME_OFFSET ( 2, 0, .AHEAD. ) ;
#193 = ORIENTED_EDGE ( 'NONE', *, *, #168, .F. ) ;
#194 = CARTESIAN_POINT ( 'NONE',  ( 4.996003610813200500E-016, 2.442490654175340100E-015, -1.043431104418900000 ) ) ;
#195 = CIRCLE ( 'NONE', #222, 12.69999999999999900 ) ;
#196 = PERSON ( 'UNSPECIFIED', 'UNSPECIFIED', 'UNSPECIFIED', ('UNSPECIFIED'), ('UNSPECIFIED'), ('UNSPECIFIED') ) ;
#197 = APPLICATION_PROTOCOL_DEFINITION ( 'international standard', 'config_control_design', 1994, #32 ) ;
#198 = LOCAL_TIME ( 10, 21, 20.00000000000000000, #192 ) ;
#199 = CIRCLE ( 'NONE', #57, 12.69999999999999900 ) ;
#200 = EDGE_CURVE ( 'NONE', #201, #19, #14, .T. ) ;
#201 = VERTEX_POINT ( 'NONE', #229 ) ;
#202 = LOCAL_TIME ( 10, 21, 20.00000000000000000, #84 ) ;
#203 = CARTESIAN_POINT ( 'NONE',  ( 4.302514693083153900, -4.323249957056289900, 0.3594797895800422900 ) ) ;
#204 = CARTESIAN_POINT ( 'NONE',  ( 8.590407156839544800, -4.323249957056289900, 0.005063504038076930400 ) ) ;
#205 = LINE ( 'NONE', #171, #210 ) ;
#206 = FACE_OUTER_BOUND ( 'NONE', #56, .T. ) ;
#207 = CARTESIAN_POINT ( 'NONE',  ( 4.996003610813200500E-016, 2.442490654175340100E-015, -1.043431104418900000 ) ) ;
#208 = DIRECTION ( 'NONE',  ( 0.0000000000000000000, 0.0000000000000000000, 1.000000000000000000 ) ) ;
#209 = AXIS2_PLACEMENT_3D ( 'NONE', #9, #44, #45 ) ;
#210 = VECTOR ( 'NONE', #223, 1000.000000000000000 ) ;
#211 = APPROVAL_ROLE ( '' ) ;
#212 = MANIFOLD_SOLID_BREP ( 'Imported1', #103 ) ;
#213 = PERSON_AND_ORGANIZATION ( #196, #233 ) ;
#214 = CYLINDRICAL_SURFACE ( 'NONE', #43, 12.69999999999999900 ) ;
#215 = PERSON_AND_ORGANIZATION_ROLE ( 'classification_officer' ) ;
#216 = CALENDAR_DATE ( 2019, 15, 1 ) ;
#217 = VERTEX_POINT ( 'NONE', #79 ) ;
#218 = ADVANCED_FACE ( 'NONE', ( #151 ), #59, .T. ) ;
#219 = CC_DESIGN_DATE_AND_TIME_ASSIGNMENT ( #96, #159, ( #148 ) ) ;
#220 =( BOUNDED_SURFACE ( )  B_SPLINE_SURFACE ( 3, 3, ( 
 ( #111, #41, #2, #3 ),
 ( #130, #42, #62, #153 ),
 ( #67, #7, #113, #117 ),
 ( #25, #226, #191, #5 ) ),
 .UNSPECIFIED., .F., .F., .F. ) 
 B_SPLINE_SURFACE_WITH_KNOTS ( ( 4, 4 ),
 ( 4, 4 ),
 ( 0.0000000000000000000, 1.000000000000000000 ),
 ( 0.0000000000000000000, 1.000000000000000000 ),
 .UNSPECIFIED. ) 
 GEOMETRIC_REPRESENTATION_ITEM ( )  RATIONAL_B_SPLINE_SURFACE ( (
 ( 1.000000000000000000, 0.9977343127031818000, 0.9977343127031818000, 1.000000000000000000),
 ( 0.9908446567608560900, 0.9885997126089128800, 0.9885997126089128800, 0.9908446567608560900),
 ( 0.9908446567608560900, 0.9885997126089128800, 0.9885997126089128800, 0.9908446567608560900),
 ( 1.000000000000000000, 0.9977343127031818000, 0.9977343127031818000, 1.000000000000000000) ) ) 
 REPRESENTATION_ITEM ( '' )  SURFACE ( )  );
#221 = FACE_OUTER_BOUND ( 'NONE', #31, .T. ) ;
#222 = AXIS2_PLACEMENT_3D ( 'NONE', #194, #116, #95 ) ;
#223 = DIRECTION ( 'NONE',  ( 0.0000000000000000000, 0.0000000000000000000, 1.000000000000000000 ) ) ;
#224 = CARTESIAN_POINT ( 'NONE',  ( 12.69999999999999900, 2.442490654175340100E-015, -1.043431104418900000 ) ) ;
#225 = CALENDAR_DATE ( 2019, 15, 1 ) ;
#226 = CARTESIAN_POINT ( 'NONE',  ( -8.433472585621137400, -12.85100735937248500, -1.416507488160517700 ) ) ;
#227 = DIRECTION ( 'NONE',  ( 0.0000000000000000000, 0.0000000000000000000, 1.000000000000000000 ) ) ;
#228 = AXIS2_PLACEMENT_3D ( 'NONE', #137, #208, #138 ) ;
#229 = CARTESIAN_POINT ( 'NONE',  ( 2.131628207280299900E-014, -12.69999999999999900, -1.043431104418900600 ) ) ;
#230 = PERSON_AND_ORGANIZATION ( #196, #233 ) ;
#231 = APPROVAL_PERSON_ORGANIZATION ( #230, #54, #211 ) ;
#232 = APPROVAL_STATUS ( 'not_yet_approved' ) ;
#233 = ORGANIZATION ( 'UNSPECIFIED', 'UNSPECIFIED', '' ) ;
#234 = ORIENTED_EDGE ( 'NONE', *, *, #99, .T. ) ;
#235 =( GEOMETRIC_REPRESENTATION_CONTEXT ( 3 ) GLOBAL_UNCERTAINTY_ASSIGNED_CONTEXT ( ( #147 ) ) GLOBAL_UNIT_ASSIGNED_CONTEXT ( ( #118, #160, #162 ) ) REPRESENTATION_CONTEXT ( 'NONE', 'WORKASPACE' ) );
ENDSEC;
END-ISO-10303-21;
