ISO-10303-21;
HEADER;
FILE_DESCRIPTION (( 'STEP AP203' ),
    '1' );
FILE_NAME ('112-0223E BK7 pl-cv 25.4 F-125.STEP',
    '2019-01-15T08:01:52',
    ( '' ),
    ( '' ),
    'SwSTEP 2.0',
    'SolidWorks 2017',
    '' );
FILE_SCHEMA (( 'CONFIG_CONTROL_DESIGN' ));
ENDSEC;

DATA;
#1 = APPROVAL_DATE_TIME ( #233, #68 ) ;
#2 = CARTESIAN_POINT ( 'NONE',  ( 8.395967926605427700, -12.85038486223125500, -1.702761426655486700 ) ) ;
#3 = FACE_OUTER_BOUND ( 'NONE', #55, .T. ) ;
#4 = CC_DESIGN_PERSON_AND_ORGANIZATION_ASSIGNMENT ( #180, #187, ( #209 ) ) ;
#5 = DATE_TIME_ROLE ( 'classification_date' ) ;
#6 = VERTEX_POINT ( 'NONE', #97 ) ;
#7 = CARTESIAN_POINT ( 'NONE',  ( -8.395967926605438300, -12.85038486223125900, -1.702761426655499300 ) ) ;
#8 = DIRECTION ( 'NONE',  ( 0.0000000000000000000, 0.0000000000000000000, 1.000000000000000000 ) ) ;
#9 = ORIENTED_EDGE ( 'NONE', *, *, #227, .T. ) ;
#10 = CARTESIAN_POINT ( 'NONE',  ( 12.52179778021905700, 12.85038486223127000, -2.531912328784819100 ) ) ;
#11 = DIRECTION ( 'NONE',  ( -2.240790868895131200E-016, 1.000000000000000000, 4.280625480510319500E-016 ) ) ;
#12 = SECURITY_CLASSIFICATION ( '', '', #76 ) ;
#13 = ORIENTED_EDGE ( 'NONE', *, *, #43, .T. ) ;
#14 = LOCAL_TIME ( 10, 1, 52.00000000000000000, #211 ) ;
#15 = CC_DESIGN_APPROVAL ( #68, ( #188 ) ) ;
#16 = EDGE_LOOP ( 'NONE', ( #106, #139 ) ) ;
#17 = ORIENTED_EDGE ( 'NONE', *, *, #28, .F. ) ;
#18 = PERSON_AND_ORGANIZATION_ROLE ( 'classification_officer' ) ;
#19 = COORDINATED_UNIVERSAL_TIME_OFFSET ( 2, 0, .AHEAD. ) ;
#20 = CC_DESIGN_APPROVAL ( #38, ( #12 ) ) ;
#21 = AXIS2_PLACEMENT_3D ( 'NONE', #102, #212, #136 ) ;
#22 = VERTEX_POINT ( 'NONE', #100 ) ;
#23 = CARTESIAN_POINT ( 'NONE',  ( -3.295974604355933500E-014, 12.85038486223126600, -1.286139307729408300 ) ) ;
#24 = CARTESIAN_POINT ( 'NONE',  ( -1.518670351388484200E-014, 12.85038486223126600, -1.286139307729417000 ) ) ;
#25 = CYLINDRICAL_SURFACE ( 'NONE', #21, 12.69999999999999900 ) ;
#26 = ADVANCED_FACE ( 'NONE', ( #161 ), #200, .F. ) ;
#27 = ORIENTED_EDGE ( 'NONE', *, *, #48, .T. ) ;
#28 = EDGE_CURVE ( 'NONE', #49, #120, #231, .T. ) ;
#29 = CALENDAR_DATE ( 2019, 15, 1 ) ;
#30 = LOCAL_TIME ( 10, 1, 52.00000000000000000, #87 ) ;
#31 = CC_DESIGN_SECURITY_CLASSIFICATION ( #12, ( #209 ) ) ;
#32 = AXIS2_PLACEMENT_3D ( 'NONE', #203, #205, #78 ) ;
#33 = CARTESIAN_POINT ( 'NONE',  ( 4.996003610813200500E-016, 2.442490654175340100E-015, -1.255917086113450100 ) ) ;
#34 = APPLICATION_CONTEXT ( 'configuration controlled 3d designs of mechanical parts and assemblies' ) ;
#35 = MECHANICAL_CONTEXT ( 'NONE', #34, 'mechanical' ) ;
#36 = PERSON_AND_ORGANIZATION ( #178, #108 ) ;
#37 = PERSON_AND_ORGANIZATION ( #178, #108 ) ;
#38 = APPROVAL ( #148, 'UNSPECIFIED' ) ;
#39 = CARTESIAN_POINT ( 'NONE',  ( 4.996003610813200500E-016, 2.442490654175340100E-015, -1.255917086113450100 ) ) ;
#40 = FACE_OUTER_BOUND ( 'NONE', #16, .T. ) ;
#41 = CARTESIAN_POINT ( 'NONE',  ( -12.52179778021906400, -12.85038486223125900, -2.531912328784816000 ) ) ;
#42 = CARTESIAN_POINT ( 'NONE',  ( -4.322252834680997000, -4.340864004307887200, 0.4344582582780743300 ) ) ;
#43 = EDGE_CURVE ( 'NONE', #98, #49, #73, .T. ) ;
#44 = CARTESIAN_POINT ( 'NONE',  ( 4.996003610813200500E-016, 2.442490654175340100E-015, -1.255917086113450100 ) ) ;
#45 = CARTESIAN_POINT ( 'NONE',  ( 12.86080117903702000, 4.340864004307902300, -0.8450416521350770900 ) ) ;
#46 = PERSON_AND_ORGANIZATION ( #178, #108 ) ;
#47 = CARTESIAN_POINT ( 'NONE',  ( 8.623272480906894800, -4.340864004307885400, 0.006556903189776234000 ) ) ;
#48 = EDGE_CURVE ( 'NONE', #49, #6, #101, .T. ) ;
#49 = VERTEX_POINT ( 'NONE', #81 ) ;
#50 = AXIS2_PLACEMENT_3D ( 'NONE', #39, #208, #192 ) ;
#51 = ORIENTED_EDGE ( 'NONE', *, *, #227, .F. ) ;
#52 = DIRECTION ( 'NONE',  ( 0.0000000000000000000, 0.0000000000000000000, 1.000000000000000000 ) ) ;
#53 = APPLICATION_CONTEXT ( 'configuration controlled 3d designs of mechanical parts and assemblies' ) ;
#54 = CC_DESIGN_PERSON_AND_ORGANIZATION_ASSIGNMENT ( #224, #222, ( #123 ) ) ;
#55 = EDGE_LOOP ( 'NONE', ( #71, #182, #51 ) ) ;
#56 = PERSON_AND_ORGANIZATION_ROLE ( 'design_supplier' ) ;
#57 = CALENDAR_DATE ( 2019, 15, 1 ) ;
#58 = APPROVAL_ROLE ( '' ) ;
#59 = CC_DESIGN_PERSON_AND_ORGANIZATION_ASSIGNMENT ( #36, #56, ( #209 ) ) ;
#60 = UNCERTAINTY_MEASURE_WITH_UNIT (LENGTH_MEASURE( 1.000000000000000100E-005 ), #145, 'distance_accuracy_value', 'NONE');
#61 = CARTESIAN_POINT ( 'NONE',  ( -4.322252834681000500, 4.340864004307899600, 0.4344582582780761600 ) ) ;
#62 = AXIS2_PLACEMENT_3D ( 'NONE', #214, #84, #11 ) ;
#63 = FACE_OUTER_BOUND ( 'NONE', #143, .T. ) ;
#64 = DIRECTION ( 'NONE',  ( 0.0000000000000000000, 0.0000000000000000000, 1.000000000000000000 ) ) ;
#65 = CARTESIAN_POINT ( 'NONE',  ( -1.515885794253301600E-014, 12.69999999999999400, -1.255917086113447700 ) ) ;
#66 = ORIENTED_EDGE ( 'NONE', *, *, #28, .T. ) ;
#67 = CIRCLE ( 'NONE', #62, 64.84000000000000300 ) ;
#68 = APPROVAL ( #129, 'UNSPECIFIED' ) ;
#69 = ADVANCED_FACE ( 'NONE', ( #40 ), #138, .T. ) ;
#70 = CALENDAR_DATE ( 2019, 15, 1 ) ;
#71 = ORIENTED_EDGE ( 'NONE', *, *, #114, .F. ) ;
#72 =( NAMED_UNIT ( * ) PLANE_ANGLE_UNIT ( ) SI_UNIT ( $, .RADIAN. ) );
#73 = CIRCLE ( 'NONE', #50, 12.69999999999999900 ) ;
#74 = CARTESIAN_POINT ( 'NONE',  ( 4.208320710149277700, -12.85038486223125500, -1.286139307729402100 ) ) ;
#75 =( BOUNDED_SURFACE ( )  B_SPLINE_SURFACE ( 3, 3, ( 
 ( #24, #226, #118, #10 ),
 ( #213, #137, #176, #45 ),
 ( #104, #158, #47, #94 ),
 ( #202, #74, #2, #125 ) ),
 .UNSPECIFIED., .F., .F., .T. ) 
 B_SPLINE_SURFACE_WITH_KNOTS ( ( 4, 4 ),
 ( 4, 4 ),
 ( 0.0000000000000000000, 1.000000000000000000 ),
 ( 0.0000000000000000000, 1.000000000000000000 ),
 .UNSPECIFIED. ) 
 GEOMETRIC_REPRESENTATION_ITEM ( )  RATIONAL_B_SPLINE_SURFACE ( (
 ( 1.000000000000000000, 0.9967249812744739500, 0.9967249812744739500, 1.000000000000000000),
 ( 0.9867762769100411100, 0.9835445661252558700, 0.9835445661252558700, 0.9867762769100411100),
 ( 0.9867762769100411100, 0.9835445661252558700, 0.9835445661252558700, 0.9867762769100411100),
 ( 1.000000000000000000, 0.9967249812744739500, 0.9967249812744739500, 1.000000000000000000) ) ) 
 REPRESENTATION_ITEM ( '' )  SURFACE ( )  );
#76 = SECURITY_CLASSIFICATION_LEVEL ( 'unclassified' ) ;
#77 = APPROVAL_ROLE ( '' ) ;
#78 = DIRECTION ( 'NONE',  ( 1.000000000000000000, 0.0000000000000000000, 0.0000000000000000000 ) ) ;
#79 = LINE ( 'NONE', #174, #116 ) ;
#80 = DIRECTION ( 'NONE',  ( 0.0000000000000000000, 0.0000000000000000000, 1.000000000000000000 ) ) ;
#81 = CARTESIAN_POINT ( 'NONE',  ( -12.69999999999999900, 3.997792089092478900E-015, -1.255917086113450100 ) ) ;
#82 = ORIENTED_EDGE ( 'NONE', *, *, #201, .T. ) ;
#83 = EDGE_CURVE ( 'NONE', #110, #22, #79, .T. ) ;
#84 = DIRECTION ( 'NONE',  ( 1.000000000000000000, 2.240790868895130200E-016, 1.936499352473490000E-016 ) ) ;
#85 = DIRECTION ( 'NONE',  ( 1.000000000000000000, 0.0000000000000000000, 0.0000000000000000000 ) ) ;
#86 = APPROVAL_PERSON_ORGANIZATION ( #46, #68, #113 ) ;
#87 = COORDINATED_UNIVERSAL_TIME_OFFSET ( 2, 0, .AHEAD. ) ;
#88 = CALENDAR_DATE ( 2019, 15, 1 ) ;
#89 = CC_DESIGN_DATE_AND_TIME_ASSIGNMENT ( #121, #5, ( #12 ) ) ;
#90 = ORIENTED_EDGE ( 'NONE', *, *, #83, .F. ) ;
#91 = APPLICATION_PROTOCOL_DEFINITION ( 'international standard', 'config_control_design', 1994, #53 ) ;
#92 = CARTESIAN_POINT ( 'NONE',  ( 0.0000000000000000000, 0.0000000000000000000, 0.0000000000000000000 ) ) ;
#93 =( GEOMETRIC_REPRESENTATION_CONTEXT ( 3 ) GLOBAL_UNCERTAINTY_ASSIGNED_CONTEXT ( ( #60 ) ) GLOBAL_UNIT_ASSIGNED_CONTEXT ( ( #145, #72, #112 ) ) REPRESENTATION_CONTEXT ( 'NONE', 'WORKASPACE' ) );
#94 = CARTESIAN_POINT ( 'NONE',  ( 12.86080117903702600, -4.340864004307883700, -0.8450416521350651000 ) ) ;
#95 = DATE_AND_TIME ( #57, #142 ) ;
#96 = DIRECTION ( 'NONE',  ( 1.000000000000000000, 0.0000000000000000000, 0.0000000000000000000 ) ) ;
#97 = CARTESIAN_POINT ( 'NONE',  ( -9.467249135539388700E-015, -12.69999999999999200, -1.255917086113447700 ) ) ;
#98 = VERTEX_POINT ( 'NONE', #65 ) ;
#99 = CARTESIAN_POINT ( 'NONE',  ( -8.623272480906912600, 4.340864004307898800, 0.006556903189764849900 ) ) ;
#100 = CARTESIAN_POINT ( 'NONE',  ( 12.69999999999999900, 2.442490654175340100E-015, 3.000000000000000000 ) ) ;
#101 = CIRCLE ( 'NONE', #133, 12.69999999999999900 ) ;
#102 = CARTESIAN_POINT ( 'NONE',  ( 4.996003610813200500E-016, 2.442490654175340100E-015, -1.255917086113450100 ) ) ;
#103 = COORDINATED_UNIVERSAL_TIME_OFFSET ( 2, 0, .AHEAD. ) ;
#104 = CARTESIAN_POINT ( 'NONE',  ( -1.166769777262446900E-014, -4.340864004307887200, 0.4344582582780820400 ) ) ;
#105 = DIRECTION ( 'NONE',  ( 0.0000000000000000000, 0.0000000000000000000, 1.000000000000000000 ) ) ;
#106 = ORIENTED_EDGE ( 'NONE', *, *, #234, .F. ) ;
#107 = ADVANCED_FACE ( 'NONE', ( #122 ), #194, .T. ) ;
#108 = ORGANIZATION ( 'UNSPECIFIED', 'UNSPECIFIED', '' ) ;
#109 = CC_DESIGN_PERSON_AND_ORGANIZATION_ASSIGNMENT ( #204, #127, ( #188 ) ) ;
#110 = VERTEX_POINT ( 'NONE', #230 ) ;
#111 = CIRCLE ( 'NONE', #32, 12.69999999999999900 ) ;
#112 =( NAMED_UNIT ( * ) SI_UNIT ( $, .STERADIAN. ) SOLID_ANGLE_UNIT ( ) );
#113 = APPROVAL_ROLE ( '' ) ;
#114 = EDGE_CURVE ( 'NONE', #98, #6, #67, .T. ) ;
#115 = CARTESIAN_POINT ( 'NONE',  ( -2.775557561562891400E-014, -4.340864004307886300, 0.4344582582780762100 ) ) ;
#116 = VECTOR ( 'NONE', #105, 1000.000000000000000 ) ;
#117 = AXIS2_PLACEMENT_3D ( 'NONE', #33, #52, #183 ) ;
#118 = CARTESIAN_POINT ( 'NONE',  ( 8.395967926605418800, 12.85038486223126800, -1.702761426655500500 ) ) ;
#119 = LOCAL_TIME ( 10, 1, 52.00000000000000000, #103 ) ;
#120 = VERTEX_POINT ( 'NONE', #157 ) ;
#121 = DATE_AND_TIME ( #179, #30 ) ;
#122 = FACE_OUTER_BOUND ( 'NONE', #146, .T. ) ;
#123 = PRODUCT ( '112-0223E BK7 pl-cv 25.4 F-125', '112-0223E BK7 pl-cv 25.4 F-125', '', ( #35 ) ) ;
#124 = DIRECTION ( 'NONE',  ( 0.0000000000000000000, 0.0000000000000000000, 1.000000000000000000 ) ) ;
#125 = CARTESIAN_POINT ( 'NONE',  ( 12.52179778021906700, -12.85038486223125400, -2.531912328784805800 ) ) ;
#126 = CC_DESIGN_APPROVAL ( #150, ( #209 ) ) ;
#127 = PERSON_AND_ORGANIZATION_ROLE ( 'creator' ) ;
#128 = CIRCLE ( 'NONE', #163, 12.69999999999999900 ) ;
#129 = APPROVAL_STATUS ( 'not_yet_approved' ) ;
#130 = PERSON_AND_ORGANIZATION ( #178, #108 ) ;
#131 = CARTESIAN_POINT ( 'NONE',  ( -12.86080117903702600, -4.340864004307889000, -0.8450416521350755400 ) ) ;
#132 = CARTESIAN_POINT ( 'NONE',  ( -4.208320710149299900, -12.85038486223125900, -1.286139307729410300 ) ) ;
#133 = AXIS2_PLACEMENT_3D ( 'NONE', #44, #175, #85 ) ;
#134 = ADVANCED_BREP_SHAPE_REPRESENTATION ( '112-0223E BK7 pl-cv 25.4 F-125', ( #216, #160 ), #93 ) ;
#135 = CARTESIAN_POINT ( 'NONE',  ( -12.52179778021906900, 12.85038486223126400, -2.531912328784816000 ) ) ;
#136 = DIRECTION ( 'NONE',  ( 1.000000000000000000, 0.0000000000000000000, 0.0000000000000000000 ) ) ;
#137 = CARTESIAN_POINT ( 'NONE',  ( 4.322252834680966800, 4.340864004307900500, 0.4344582582780702800 ) ) ;
#138 = PLANE ( 'NONE',  #169 ) ;
#139 = ORIENTED_EDGE ( 'NONE', *, *, #201, .F. ) ;
#140 = ADVANCED_FACE ( 'NONE', ( #63 ), #25, .T. ) ;
#141 = AXIS2_PLACEMENT_3D ( 'NONE', #196, #8, #197 ) ;
#142 = LOCAL_TIME ( 10, 1, 52.00000000000000000, #155 ) ;
#143 = EDGE_LOOP ( 'NONE', ( #17, #27, #9, #159, #235 ) ) ;
#144 = CC_DESIGN_PERSON_AND_ORGANIZATION_ASSIGNMENT ( #130, #18, ( #12 ) ) ;
#145 =( LENGTH_UNIT ( ) NAMED_UNIT ( * ) SI_UNIT ( .MILLI., .METRE. ) );
#146 = EDGE_LOOP ( 'NONE', ( #153, #13, #66, #82, #90 ) ) ;
#147 = APPROVAL_PERSON_ORGANIZATION ( #170, #38, #77 ) ;
#148 = APPROVAL_STATUS ( 'not_yet_approved' ) ;
#149 = CARTESIAN_POINT ( 'NONE',  ( 4.996003610813200500E-016, 2.442490654175340100E-015, 3.000000000000000000 ) ) ;
#150 = APPROVAL ( #168, 'UNSPECIFIED' ) ;
#151 = CARTESIAN_POINT ( 'NONE',  ( -4.208320710149307000, 12.85038486223126600, -1.286139307729410100 ) ) ;
#152 = CARTESIAN_POINT ( 'NONE',  ( -12.86080117903702900, 4.340864004307897000, -0.8450416521350742100 ) ) ;
#153 = ORIENTED_EDGE ( 'NONE', *, *, #220, .T. ) ;
#154 = DIRECTION ( 'NONE',  ( 1.000000000000000000, 0.0000000000000000000, -0.0000000000000000000 ) ) ;
#155 = COORDINATED_UNIVERSAL_TIME_OFFSET ( 2, 0, .AHEAD. ) ;
#156 = CC_DESIGN_DATE_AND_TIME_ASSIGNMENT ( #95, #184, ( #188 ) ) ;
#157 = CARTESIAN_POINT ( 'NONE',  ( -12.69999999999999900, 3.997792089092478900E-015, 3.000000000000000000 ) ) ;
#158 = CARTESIAN_POINT ( 'NONE',  ( 4.322252834680969400, -4.340864004307886300, 0.4344582582780828800 ) ) ;
#159 = ORIENTED_EDGE ( 'NONE', *, *, #83, .T. ) ;
#160 = AXIS2_PLACEMENT_3D ( 'NONE', #92, #124, #96 ) ;
#161 = FACE_OUTER_BOUND ( 'NONE', #190, .T. ) ;
#162 = CIRCLE ( 'NONE', #117, 12.69999999999999900 ) ;
#163 = AXIS2_PLACEMENT_3D ( 'NONE', #219, #186, #206 ) ;
#164 = ADVANCED_FACE ( 'NONE', ( #3 ), #75, .F. ) ;
#165 = PRODUCT_DEFINITION_SHAPE ( 'NONE', 'NONE',  #188 ) ;
#166 = APPLICATION_PROTOCOL_DEFINITION ( 'international standard', 'config_control_design', 1994, #34 ) ;
#167 = SHAPE_DEFINITION_REPRESENTATION ( #165, #134 ) ;
#168 = APPROVAL_STATUS ( 'not_yet_approved' ) ;
#169 = AXIS2_PLACEMENT_3D ( 'NONE', #228, #64, #154 ) ;
#170 = PERSON_AND_ORGANIZATION ( #178, #108 ) ;
#171 = CARTESIAN_POINT ( 'NONE',  ( -8.395967926605443700, 12.85038486223126600, -1.702761426655499600 ) ) ;
#172 = VECTOR ( 'NONE', #80, 1000.000000000000000 ) ;
#173 = CARTESIAN_POINT ( 'NONE',  ( -2.428612866367529900E-014, -12.85038486223125700, -1.286139307729408800 ) ) ;
#174 = CARTESIAN_POINT ( 'NONE',  ( 12.69999999999999900, 2.442490654175340100E-015, -1.255917086113450100 ) ) ;
#175 = DIRECTION ( 'NONE',  ( 0.0000000000000000000, 0.0000000000000000000, 1.000000000000000000 ) ) ;
#176 = CARTESIAN_POINT ( 'NONE',  ( 8.623272480906891200, 4.340864004307901400, 0.006556903189763982500 ) ) ;
#177 = APPROVAL_DATE_TIME ( #215, #38 ) ;
#178 = PERSON ( 'UNSPECIFIED', 'UNSPECIFIED', 'UNSPECIFIED', ('UNSPECIFIED'), ('UNSPECIFIED'), ('UNSPECIFIED') ) ;
#179 = CALENDAR_DATE ( 2019, 15, 1 ) ;
#180 = PERSON_AND_ORGANIZATION ( #178, #108 ) ;
#181 = DESIGN_CONTEXT ( 'detailed design', #53, 'design' ) ;
#182 = ORIENTED_EDGE ( 'NONE', *, *, #220, .F. ) ;
#183 = DIRECTION ( 'NONE',  ( 1.000000000000000000, 0.0000000000000000000, 0.0000000000000000000 ) ) ;
#184 = DATE_TIME_ROLE ( 'creation_date' ) ;
#185 = APPROVAL_DATE_TIME ( #218, #150 ) ;
#186 = DIRECTION ( 'NONE',  ( 0.0000000000000000000, 0.0000000000000000000, 1.000000000000000000 ) ) ;
#187 = PERSON_AND_ORGANIZATION_ROLE ( 'creator' ) ;
#188 = PRODUCT_DEFINITION ( 'UNKNOWN', '', #209, #181 ) ;
#189 = CARTESIAN_POINT ( 'NONE',  ( -12.69999999999999900, 3.997792089092478900E-015, -1.255917086113450100 ) ) ;
#190 = EDGE_LOOP ( 'NONE', ( #217, #198, #207 ) ) ;
#191 = CARTESIAN_POINT ( 'NONE',  ( -8.623272480906909000, -4.340864004307888100, 0.006556903189763548800 ) ) ;
#192 = DIRECTION ( 'NONE',  ( 1.000000000000000000, 0.0000000000000000000, 0.0000000000000000000 ) ) ;
#193 = CIRCLE ( 'NONE', #232, 12.69999999999999900 ) ;
#194 = CYLINDRICAL_SURFACE ( 'NONE', #141, 12.69999999999999900 ) ;
#195 = PRODUCT_RELATED_PRODUCT_CATEGORY ( 'detail', '', ( #123 ) ) ;
#196 = CARTESIAN_POINT ( 'NONE',  ( 4.996003610813200500E-016, 2.442490654175340100E-015, -1.255917086113450100 ) ) ;
#197 = DIRECTION ( 'NONE',  ( 1.000000000000000000, 0.0000000000000000000, 0.0000000000000000000 ) ) ;
#198 = ORIENTED_EDGE ( 'NONE', *, *, #114, .T. ) ;
#199 = LOCAL_TIME ( 10, 1, 52.00000000000000000, #19 ) ;
#200 =( BOUNDED_SURFACE ( )  B_SPLINE_SURFACE ( 3, 3, ( 
 ( #135, #171, #151, #23 ),
 ( #152, #99, #61, #225 ),
 ( #131, #191, #42, #115 ),
 ( #41, #7, #132, #173 ) ),
 .UNSPECIFIED., .F., .F., .T. ) 
 B_SPLINE_SURFACE_WITH_KNOTS ( ( 4, 4 ),
 ( 4, 4 ),
 ( 0.0000000000000000000, 1.000000000000000000 ),
 ( 0.0000000000000000000, 1.000000000000000000 ),
 .UNSPECIFIED. ) 
 GEOMETRIC_REPRESENTATION_ITEM ( )  RATIONAL_B_SPLINE_SURFACE ( (
 ( 1.000000000000000000, 0.9967249812744739500, 0.9967249812744739500, 1.000000000000000000),
 ( 0.9867762769100411100, 0.9835445661252558700, 0.9835445661252558700, 0.9867762769100411100),
 ( 0.9867762769100411100, 0.9835445661252558700, 0.9835445661252558700, 0.9867762769100411100),
 ( 1.000000000000000000, 0.9967249812744739500, 0.9967249812744739500, 1.000000000000000000) ) ) 
 REPRESENTATION_ITEM ( '' )  SURFACE ( )  );
#201 = EDGE_CURVE ( 'NONE', #120, #22, #193, .T. ) ;
#202 = CARTESIAN_POINT ( 'NONE',  ( -9.427698501669639900E-015, -12.85038486223125700, -1.286139307729403200 ) ) ;
#203 = CARTESIAN_POINT ( 'NONE',  ( 4.996003610813200500E-016, 2.442490654175340100E-015, 3.000000000000000000 ) ) ;
#204 = PERSON_AND_ORGANIZATION ( #178, #108 ) ;
#205 = DIRECTION ( 'NONE',  ( -0.0000000000000000000, -0.0000000000000000000, -1.000000000000000000 ) ) ;
#206 = DIRECTION ( 'NONE',  ( 1.000000000000000000, 0.0000000000000000000, 0.0000000000000000000 ) ) ;
#207 = ORIENTED_EDGE ( 'NONE', *, *, #48, .F. ) ;
#208 = DIRECTION ( 'NONE',  ( 0.0000000000000000000, 0.0000000000000000000, 1.000000000000000000 ) ) ;
#209 = PRODUCT_DEFINITION_FORMATION_WITH_SPECIFIED_SOURCE ( 'ANY', '', #123, .NOT_KNOWN. ) ;
#210 = CLOSED_SHELL ( 'NONE', ( #26, #107, #164, #140, #69 ) ) ;
#211 = COORDINATED_UNIVERSAL_TIME_OFFSET ( 2, 0, .AHEAD. ) ;
#212 = DIRECTION ( 'NONE',  ( 0.0000000000000000000, 0.0000000000000000000, 1.000000000000000000 ) ) ;
#213 = CARTESIAN_POINT ( 'NONE',  ( -1.361309145741820400E-014, 4.340864004307898800, 0.4344582582780695000 ) ) ;
#214 = CARTESIAN_POINT ( 'NONE',  ( 0.0000000000000000000, 0.0000000000000000000, -64.84000000000000300 ) ) ;
#215 = DATE_AND_TIME ( #70, #119 ) ;
#216 = MANIFOLD_SOLID_BREP ( 'Imported1', #210 ) ;
#217 = ORIENTED_EDGE ( 'NONE', *, *, #43, .F. ) ;
#218 = DATE_AND_TIME ( #29, #199 ) ;
#219 = CARTESIAN_POINT ( 'NONE',  ( 4.996003610813200500E-016, 2.442490654175340100E-015, -1.255917086113450100 ) ) ;
#220 = EDGE_CURVE ( 'NONE', #110, #98, #128, .T. ) ;
#221 = DIRECTION ( 'NONE',  ( -0.0000000000000000000, -0.0000000000000000000, -1.000000000000000000 ) ) ;
#222 = PERSON_AND_ORGANIZATION_ROLE ( 'design_owner' ) ;
#223 = DIRECTION ( 'NONE',  ( 1.000000000000000000, 0.0000000000000000000, 0.0000000000000000000 ) ) ;
#224 = PERSON_AND_ORGANIZATION ( #178, #108 ) ;
#225 = CARTESIAN_POINT ( 'NONE',  ( -3.122502256758252800E-014, 4.340864004307899600, 0.4344582582780781600 ) ) ;
#226 = CARTESIAN_POINT ( 'NONE',  ( 4.208320710149271400, 12.85038486223126800, -1.286139307729415900 ) ) ;
#227 = EDGE_CURVE ( 'NONE', #6, #110, #162, .T. ) ;
#228 = CARTESIAN_POINT ( 'NONE',  ( 0.0000000000000000000, 26.11199999999999800, 3.000000000000000000 ) ) ;
#229 = APPROVAL_PERSON_ORGANIZATION ( #37, #150, #58 ) ;
#230 = CARTESIAN_POINT ( 'NONE',  ( 12.69999999999999900, 2.442490654175340100E-015, -1.255917086113450100 ) ) ;
#231 = LINE ( 'NONE', #189, #172 ) ;
#232 = AXIS2_PLACEMENT_3D ( 'NONE', #149, #221, #223 ) ;
#233 = DATE_AND_TIME ( #88, #14 ) ;
#234 = EDGE_CURVE ( 'NONE', #22, #120, #111, .T. ) ;
#235 = ORIENTED_EDGE ( 'NONE', *, *, #234, .T. ) ;
ENDSEC;
END-ISO-10303-21;
