ISO-10303-21;
HEADER;
FILE_DESCRIPTION (( 'STEP AP203' ),
    '1' );
FILE_NAME ('112-0219E BK7 pl-cv 25.4 F-100.STEP',
    '2019-01-15T07:43:15',
    ( '' ),
    ( '' ),
    'SwSTEP 2.0',
    'SolidWorks 2017',
    '' );
FILE_SCHEMA (( 'CONFIG_CONTROL_DESIGN' ));
ENDSEC;

DATA;
#1 = DIRECTION ( 'NONE',  ( 0.0000000000000000000, 0.0000000000000000000, 1.000000000000000000 ) ) ;
#2 = COORDINATED_UNIVERSAL_TIME_OFFSET ( 2, 0, .AHEAD. ) ;
#3 = CARTESIAN_POINT ( 'NONE',  ( 2.498001805406600200E-016, 1.221245327087670000E-015, 3.100000000000000500 ) ) ;
#4 = CARTESIAN_POINT ( 'NONE',  ( 4.271726891306650800, 2.149036805498215400, 0.001348661855880487500 ) ) ;
#5 = CARTESIAN_POINT ( 'NONE',  ( 2.498001805406600200E-016, 1.221245327087670000E-015, 3.100000000000000500 ) ) ;
#6 =( NAMED_UNIT ( * ) SI_UNIT ( $, .STERADIAN. ) SOLID_ANGLE_UNIT ( ) );
#7 = AXIS2_PLACEMENT_3D ( 'NONE', #36, #216, #196 ) ;
#8 = CARTESIAN_POINT ( 'NONE',  ( 2.498001805406600200E-016, 1.221245327087670000E-015, -0.3116876092362069800 ) ) ;
#9 = APPROVAL_ROLE ( '' ) ;
#10 = APPROVAL_DATE_TIME ( #56, #184 ) ;
#11 = EDGE_LOOP ( 'NONE', ( #52, #78, #182 ) ) ;
#12 = EDGE_CURVE ( 'NONE', #145, #160, #123, .T. ) ;
#13 = APPROVAL_PERSON_ORGANIZATION ( #64, #184, #9 ) ;
#14 = EDGE_CURVE ( 'NONE', #62, #129, #89, .T. ) ;
#15 = DIRECTION ( 'NONE',  ( 1.000000000000000000, 0.0000000000000000000, 0.0000000000000000000 ) ) ;
#16 = AXIS2_PLACEMENT_3D ( 'NONE', #215, #194, #88 ) ;
#17 = CARTESIAN_POINT ( 'NONE',  ( -2.123147063980236600, -6.425951033630022700, -0.3192068142882328300 ) ) ;
#18 = LOCAL_TIME ( 9, 43, 15.00000000000000000, #94 ) ;
#19 =( GEOMETRIC_REPRESENTATION_CONTEXT ( 3 ) GLOBAL_UNCERTAINTY_ASSIGNED_CONTEXT ( ( #147 ) ) GLOBAL_UNIT_ASSIGNED_CONTEXT ( ( #26, #81, #6 ) ) REPRESENTATION_CONTEXT ( 'NONE', 'WORKASPACE' ) );
#20 = CARTESIAN_POINT ( 'NONE',  ( 4.243710364661555300, 6.425951033630018300, -0.4239194834896737300 ) ) ;
#21 = CARTESIAN_POINT ( 'NONE',  ( -6.398493793489576500, 2.149036805498213200, -0.2092027377904462100 ) ) ;
#22 = CARTESIAN_POINT ( 'NONE',  ( 2.137163856168667700, 2.149036805498215400, 0.1067526330159037200 ) ) ;
#23 = AXIS2_PLACEMENT_3D ( 'NONE', #60, #130, #116 ) ;
#24 = APPROVAL_STATUS ( 'not_yet_approved' ) ;
#25 = DIRECTION ( 'NONE',  ( -0.0000000000000000000, -0.0000000000000000000, -1.000000000000000000 ) ) ;
#26 =( LENGTH_UNIT ( ) NAMED_UNIT ( * ) SI_UNIT ( .MILLI., .METRE. ) );
#27 = APPLICATION_CONTEXT ( 'configuration controlled 3d designs of mechanical parts and assemblies' ) ;
#28 = CIRCLE ( 'NONE', #152, 6.349999999999999600 ) ;
#29 = EDGE_CURVE ( 'NONE', #160, #62, #28, .T. ) ;
#30 = COORDINATED_UNIVERSAL_TIME_OFFSET ( 2, 0, .AHEAD. ) ;
#31 = EDGE_CURVE ( 'NONE', #129, #145, #144, .T. ) ;
#32 = LOCAL_TIME ( 9, 43, 15.00000000000000000, #2 ) ;
#33 = ADVANCED_FACE ( 'NONE', ( #155 ), #146, .T. ) ;
#34 = ORIENTED_EDGE ( 'NONE', *, *, #190, .T. ) ;
#35 = AXIS2_PLACEMENT_3D ( 'NONE', #8, #207, #63 ) ;
#36 = CARTESIAN_POINT ( 'NONE',  ( 2.498001805406600200E-016, 1.221245327087670000E-015, -0.3116876092362069800 ) ) ;
#37 = EDGE_LOOP ( 'NONE', ( #165, #69, #103 ) ) ;
#38 = CARTESIAN_POINT ( 'NONE',  ( -1.107300131434371700E-014, -6.349999999999981000, -0.3116876092362075300 ) ) ;
#39 = CARTESIAN_POINT ( 'NONE',  ( 6.356528664066490600, -6.425951033630021800, -0.6330899617783315400 ) ) ;
#40 = CARTESIAN_POINT ( 'NONE',  ( -4.243710364661572100, 6.425951033630016500, -0.4239194834896705100 ) ) ;
#41 = CALENDAR_DATE ( 2019, 15, 1 ) ;
#42 = MANIFOLD_SOLID_BREP ( 'Imported1', #57 ) ;
#43 = CARTESIAN_POINT ( 'NONE',  ( -2.862293735361731700E-014, 2.149036805498214500, 0.1067526330159081400 ) ) ;
#44 = DIRECTION ( 'NONE',  ( 0.0000000000000000000, 0.0000000000000000000, 1.000000000000000000 ) ) ;
#45 = CYLINDRICAL_SURFACE ( 'NONE', #163, 6.349999999999999600 ) ;
#46 = APPLICATION_CONTEXT ( 'configuration controlled 3d designs of mechanical parts and assemblies' ) ;
#47 = AXIS2_PLACEMENT_3D ( 'NONE', #5, #25, #157 ) ;
#48 = CIRCLE ( 'NONE', #67, 6.349999999999999600 ) ;
#49 = COORDINATED_UNIVERSAL_TIME_OFFSET ( 2, 0, .AHEAD. ) ;
#50 = DATE_AND_TIME ( #41, #198 ) ;
#51 = CARTESIAN_POINT ( 'NONE',  ( 2.498001805406600200E-016, 1.221245327087670000E-015, -0.3116876092362069800 ) ) ;
#52 = ORIENTED_EDGE ( 'NONE', *, *, #72, .F. ) ;
#53 = ADVANCED_FACE ( 'NONE', ( #95 ), #45, .T. ) ;
#54 = DIRECTION ( 'NONE',  ( 1.000000000000000000, 0.0000000000000000000, 0.0000000000000000000 ) ) ;
#55 = AXIS2_PLACEMENT_3D ( 'NONE', #137, #44, #83 ) ;
#56 = DATE_AND_TIME ( #107, #158 ) ;
#57 = CLOSED_SHELL ( 'NONE', ( #109, #53, #231, #127, #33 ) ) ;
#58 = CARTESIAN_POINT ( 'NONE',  ( -6.349999999999999600, 1.998896044546239400E-015, -0.3116876092362069800 ) ) ;
#59 = PRODUCT_DEFINITION_SHAPE ( 'NONE', 'NONE',  #205 ) ;
#60 = CARTESIAN_POINT ( 'NONE',  ( 0.0000000000000000000, 0.0000000000000000000, -64.84000000000000300 ) ) ;
#61 = PRODUCT_DEFINITION_FORMATION_WITH_SPECIFIED_SOURCE ( 'ANY', '', #218, .NOT_KNOWN. ) ;
#62 = VERTEX_POINT ( 'NONE', #58 ) ;
#63 = DIRECTION ( 'NONE',  ( 1.000000000000000000, 0.0000000000000000000, 0.0000000000000000000 ) ) ;
#64 = PERSON_AND_ORGANIZATION ( #213, #164 ) ;
#65 = APPROVAL_STATUS ( 'not_yet_approved' ) ;
#66 = PERSON_AND_ORGANIZATION_ROLE ( 'design_supplier' ) ;
#67 = AXIS2_PLACEMENT_3D ( 'NONE', #3, #151, #54 ) ;
#68 = DATE_AND_TIME ( #77, #32 ) ;
#69 = ORIENTED_EDGE ( 'NONE', *, *, #72, .T. ) ;
#70 = APPROVAL ( #24, 'UNSPECIFIED' ) ;
#71 = SHAPE_DEFINITION_REPRESENTATION ( #59, #132 ) ;
#72 = EDGE_CURVE ( 'NONE', #160, #129, #171, .T. ) ;
#73 = DIRECTION ( 'NONE',  ( 0.0000000000000000000, 0.0000000000000000000, 1.000000000000000000 ) ) ;
#74 = APPROVAL_PERSON_ORGANIZATION ( #124, #70, #101 ) ;
#75 = CARTESIAN_POINT ( 'NONE',  ( 2.123147063980214400, -6.425951033630021800, -0.3192068142882361100 ) ) ;
#76 = CARTESIAN_POINT ( 'NONE',  ( 6.349999999999999600, 1.221245327087670000E-015, 3.100000000000000500 ) ) ;
#77 = CALENDAR_DATE ( 2019, 15, 1 ) ;
#78 = ORIENTED_EDGE ( 'NONE', *, *, #12, .F. ) ;
#79 = CARTESIAN_POINT ( 'NONE',  ( -4.271726891306665100, -2.149036805498219400, 0.001348661855884010900 ) ) ;
#80 = CARTESIAN_POINT ( 'NONE',  ( -2.137163856168694800, 2.149036805498215000, 0.1067526330159072200 ) ) ;
#81 =( NAMED_UNIT ( * ) PLANE_ANGLE_UNIT ( ) SI_UNIT ( $, .RADIAN. ) );
#82 = CC_DESIGN_PERSON_AND_ORGANIZATION_ASSIGNMENT ( #202, #104, ( #61 ) ) ;
#83 = DIRECTION ( 'NONE',  ( 1.000000000000000000, 0.0000000000000000000, 0.0000000000000000000 ) ) ;
#84 = EDGE_CURVE ( 'NONE', #191, #203, #48, .T. ) ;
#85 = LINE ( 'NONE', #172, #178 ) ;
#86 = PERSON_AND_ORGANIZATION ( #213, #164 ) ;
#87 = FACE_OUTER_BOUND ( 'NONE', #37, .T. ) ;
#88 = DIRECTION ( 'NONE',  ( 1.000000000000000000, 0.0000000000000000000, 0.0000000000000000000 ) ) ;
#89 = CIRCLE ( 'NONE', #16, 6.349999999999999600 ) ;
#90 = DIRECTION ( 'NONE',  ( 1.000000000000000000, 0.0000000000000000000, 0.0000000000000000000 ) ) ;
#91 = CARTESIAN_POINT ( 'NONE',  ( -6.356528664066489800, 6.425951033630017400, -0.6330899617783269900 ) ) ;
#92 = CC_DESIGN_PERSON_AND_ORGANIZATION_ASSIGNMENT ( #120, #66, ( #61 ) ) ;
#93 = CARTESIAN_POINT ( 'NONE',  ( -1.391880571784052100E-014, 6.349999999999981000, -0.3116876092362075300 ) ) ;
#94 = COORDINATED_UNIVERSAL_TIME_OFFSET ( 2, 0, .AHEAD. ) ;
#95 = FACE_OUTER_BOUND ( 'NONE', #106, .T. ) ;
#96 = CARTESIAN_POINT ( 'NONE',  ( -1.209538023684112500E-014, -2.149036805498219400, 0.1067526330159036900 ) ) ;
#97 = DIRECTION ( 'NONE',  ( 0.0000000000000000000, 0.0000000000000000000, 1.000000000000000000 ) ) ;
#98 = CARTESIAN_POINT ( 'NONE',  ( 2.137163856168668600, -2.149036805498218500, 0.1067526330159041200 ) ) ;
#99 = SECURITY_CLASSIFICATION ( '', '', #227 ) ;
#100 = VECTOR ( 'NONE', #97, 1000.000000000000000 ) ;
#101 = APPROVAL_ROLE ( '' ) ;
#102 = APPROVAL_PERSON_ORGANIZATION ( #217, #159, #206 ) ;
#103 = ORIENTED_EDGE ( 'NONE', *, *, #14, .F. ) ;
#104 = PERSON_AND_ORGANIZATION_ROLE ( 'creator' ) ;
#105 = PRODUCT_RELATED_PRODUCT_CATEGORY ( 'detail', '', ( #218 ) ) ;
#106 = EDGE_LOOP ( 'NONE', ( #141, #176, #139, #214, #193 ) ) ;
#107 = CALENDAR_DATE ( 2019, 15, 1 ) ;
#108 = CC_DESIGN_APPROVAL ( #159, ( #61 ) ) ;
#109 = ADVANCED_FACE ( 'NONE', ( #87 ), #187, .F. ) ;
#110 = CARTESIAN_POINT ( 'NONE',  ( 0.0000000000000000000, 13.15799999999999900, 3.100000000000000500 ) ) ;
#111 = DIRECTION ( 'NONE',  ( 1.000000000000000000, 0.0000000000000000000, -0.0000000000000000000 ) ) ;
#112 = ORIENTED_EDGE ( 'NONE', *, *, #14, .T. ) ;
#113 = CC_DESIGN_PERSON_AND_ORGANIZATION_ASSIGNMENT ( #86, #121, ( #99 ) ) ;
#114 = DIRECTION ( 'NONE',  ( 0.0000000000000000000, 0.0000000000000000000, 1.000000000000000000 ) ) ;
#115 = DATE_AND_TIME ( #162, #18 ) ;
#116 = DIRECTION ( 'NONE',  ( -2.240790868895131200E-016, 1.000000000000000000, 4.280625480510319500E-016 ) ) ;
#117 = CARTESIAN_POINT ( 'NONE',  ( 6.356528664066487100, 6.425951033630020100, -0.6330899617783315400 ) ) ;
#118 = PERSON_AND_ORGANIZATION ( #213, #164 ) ;
#119 = ORIENTED_EDGE ( 'NONE', *, *, #84, .T. ) ;
#120 = PERSON_AND_ORGANIZATION ( #213, #164 ) ;
#121 = PERSON_AND_ORGANIZATION_ROLE ( 'classification_officer' ) ;
#122 = EDGE_CURVE ( 'NONE', #62, #203, #85, .T. ) ;
#123 = CIRCLE ( 'NONE', #7, 6.349999999999999600 ) ;
#124 = PERSON_AND_ORGANIZATION ( #213, #164 ) ;
#125 = ORIENTED_EDGE ( 'NONE', *, *, #31, .T. ) ;
#126 = CARTESIAN_POINT ( 'NONE',  ( 2.498001805406600200E-016, 1.221245327087670000E-015, -0.3116876092362069800 ) ) ;
#127 = ADVANCED_FACE ( 'NONE', ( #192 ), #233, .F. ) ;
#128 = DIRECTION ( 'NONE',  ( 1.000000000000000000, 0.0000000000000000000, 0.0000000000000000000 ) ) ;
#129 = VERTEX_POINT ( 'NONE', #38 ) ;
#130 = DIRECTION ( 'NONE',  ( 1.000000000000000000, 2.240790868895130200E-016, 1.936499352473490000E-016 ) ) ;
#131 = CARTESIAN_POINT ( 'NONE',  ( -2.688821387764051000E-014, -2.149036805498219000, 0.1067526330159083600 ) ) ;
#132 = ADVANCED_BREP_SHAPE_REPRESENTATION ( '112-0219E BK7 pl-cv 25.4 F-100', ( #42, #55 ), #19 ) ;
#133 = CARTESIAN_POINT ( 'NONE',  ( -6.356528664066486200, -6.425951033630024500, -0.6330899617783269900 ) ) ;
#134 = PERSON_AND_ORGANIZATION ( #213, #164 ) ;
#135 = CIRCLE ( 'NONE', #47, 6.349999999999999600 ) ;
#136 = CARTESIAN_POINT ( 'NONE',  ( -2.137163856168693400, -2.149036805498219000, 0.1067526330159074700 ) ) ;
#137 = CARTESIAN_POINT ( 'NONE',  ( 0.0000000000000000000, 0.0000000000000000000, 0.0000000000000000000 ) ) ;
#138 = PERSON_AND_ORGANIZATION_ROLE ( 'creator' ) ;
#139 = ORIENTED_EDGE ( 'NONE', *, *, #122, .T. ) ;
#140 = EDGE_LOOP ( 'NONE', ( #232, #226 ) ) ;
#141 = ORIENTED_EDGE ( 'NONE', *, *, #12, .T. ) ;
#142 = CC_DESIGN_PERSON_AND_ORGANIZATION_ASSIGNMENT ( #118, #138, ( #205 ) ) ;
#143 = APPROVAL_DATE_TIME ( #222, #70 ) ;
#144 = CIRCLE ( 'NONE', #219, 6.349999999999999600 ) ;
#145 = VERTEX_POINT ( 'NONE', #199 ) ;
#146 = PLANE ( 'NONE',  #161 ) ;
#147 = UNCERTAINTY_MEASURE_WITH_UNIT (LENGTH_MEASURE( 1.000000000000000100E-005 ), #26, 'distance_accuracy_value', 'NONE');
#148 = CARTESIAN_POINT ( 'NONE',  ( -1.393436866253321800E-014, 6.425951033630018300, -0.3192068142882365000 ) ) ;
#149 = CALENDAR_DATE ( 2019, 15, 1 ) ;
#150 = EDGE_LOOP ( 'NONE', ( #223, #112, #125, #34, #119 ) ) ;
#151 = DIRECTION ( 'NONE',  ( -0.0000000000000000000, -0.0000000000000000000, -1.000000000000000000 ) ) ;
#152 = AXIS2_PLACEMENT_3D ( 'NONE', #126, #166, #128 ) ;
#153 = CARTESIAN_POINT ( 'NONE',  ( 6.398493793489576500, -2.149036805498217600, -0.2092027377904504500 ) ) ;
#154 = LOCAL_TIME ( 9, 43, 15.00000000000000000, #30 ) ;
#155 = FACE_OUTER_BOUND ( 'NONE', #140, .T. ) ;
#156 = MECHANICAL_CONTEXT ( 'NONE', #46, 'mechanical' ) ;
#157 = DIRECTION ( 'NONE',  ( 1.000000000000000000, 0.0000000000000000000, 0.0000000000000000000 ) ) ;
#158 = LOCAL_TIME ( 9, 43, 15.00000000000000000, #230 ) ;
#159 = APPROVAL ( #186, 'UNSPECIFIED' ) ;
#160 = VERTEX_POINT ( 'NONE', #93 ) ;
#161 = AXIS2_PLACEMENT_3D ( 'NONE', #110, #73, #111 ) ;
#162 = CALENDAR_DATE ( 2019, 15, 1 ) ;
#163 = AXIS2_PLACEMENT_3D ( 'NONE', #51, #114, #15 ) ;
#164 = ORGANIZATION ( 'UNSPECIFIED', 'UNSPECIFIED', '' ) ;
#165 = ORIENTED_EDGE ( 'NONE', *, *, #29, .F. ) ;
#166 = DIRECTION ( 'NONE',  ( 0.0000000000000000000, 0.0000000000000000000, 1.000000000000000000 ) ) ;
#167 = DIRECTION ( 'NONE',  ( 0.0000000000000000000, 0.0000000000000000000, 1.000000000000000000 ) ) ;
#168 = CARTESIAN_POINT ( 'NONE',  ( 6.398493793489575600, 2.149036805498215900, -0.2092027377904508200 ) ) ;
#169 = CC_DESIGN_DATE_AND_TIME_ASSIGNMENT ( #115, #208, ( #99 ) ) ;
#170 = CARTESIAN_POINT ( 'NONE',  ( -6.349999999999999600, 1.998896044546239400E-015, 3.100000000000000500 ) ) ;
#171 = CIRCLE ( 'NONE', #23, 64.84000000000000300 ) ;
#172 = CARTESIAN_POINT ( 'NONE',  ( -6.349999999999999600, 1.998896044546239400E-015, -0.3116876092362069800 ) ) ;
#173 = APPLICATION_PROTOCOL_DEFINITION ( 'international standard', 'config_control_design', 1994, #46 ) ;
#174 = APPLICATION_PROTOCOL_DEFINITION ( 'international standard', 'config_control_design', 1994, #27 ) ;
#175 = PERSON_AND_ORGANIZATION_ROLE ( 'design_owner' ) ;
#176 = ORIENTED_EDGE ( 'NONE', *, *, #29, .T. ) ;
#177 = CC_DESIGN_SECURITY_CLASSIFICATION ( #99, ( #61 ) ) ;
#178 = VECTOR ( 'NONE', #1, 1000.000000000000000 ) ;
#179 = FACE_OUTER_BOUND ( 'NONE', #150, .T. ) ;
#180 = CARTESIAN_POINT ( 'NONE',  ( -1.105452618250814200E-014, -6.425951033630023600, -0.3192068142882365000 ) ) ;
#181 = CARTESIAN_POINT ( 'NONE',  ( -2.862293735361731700E-014, 6.425951033630019200, -0.3192068142882318300 ) ) ;
#182 = ORIENTED_EDGE ( 'NONE', *, *, #31, .F. ) ;
#183 = CARTESIAN_POINT ( 'NONE',  ( -6.398493793489574700, -2.149036805498220300, -0.2092027377904459000 ) ) ;
#184 = APPROVAL ( #65, 'UNSPECIFIED' ) ;
#185 = CARTESIAN_POINT ( 'NONE',  ( -4.243710364661568600, -6.425951033630023600, -0.4239194834896705100 ) ) ;
#186 = APPROVAL_STATUS ( 'not_yet_approved' ) ;
#187 =( BOUNDED_SURFACE ( )  B_SPLINE_SURFACE ( 3, 3, ( 
 ( #91, #40, #204, #181 ),
 ( #21, #200, #80, #43 ),
 ( #183, #79, #136, #131 ),
 ( #133, #185, #17, #201 ) ),
 .UNSPECIFIED., .F., .F., .F. ) 
 B_SPLINE_SURFACE_WITH_KNOTS ( ( 4, 4 ),
 ( 4, 4 ),
 ( 0.0000000000000000000, 1.000000000000000000 ),
 ( 0.0000000000000000000, 1.000000000000000000 ),
 .UNSPECIFIED. ) 
 GEOMETRIC_REPRESENTATION_ITEM ( )  RATIONAL_B_SPLINE_SURFACE ( (
 ( 1.000000000000000000, 0.9991887001634776100, 0.9991887001634776100, 1.000000000000000000),
 ( 0.9967180051995863100, 0.9959093680449089300, 0.9959093680449089300, 0.9967180051995863100),
 ( 0.9967180051995863100, 0.9959093680449089300, 0.9959093680449089300, 0.9967180051995863100),
 ( 1.000000000000000000, 0.9991887001634776100, 0.9991887001634776100, 1.000000000000000000) ) ) 
 REPRESENTATION_ITEM ( '' )  SURFACE ( )  );
#188 = DESIGN_CONTEXT ( 'detailed design', #27, 'design' ) ;
#189 = DATE_TIME_ROLE ( 'creation_date' ) ;
#190 = EDGE_CURVE ( 'NONE', #145, #191, #229, .T. ) ;
#191 = VERTEX_POINT ( 'NONE', #76 ) ;
#192 = FACE_OUTER_BOUND ( 'NONE', #11, .T. ) ;
#193 = ORIENTED_EDGE ( 'NONE', *, *, #190, .F. ) ;
#194 = DIRECTION ( 'NONE',  ( 0.0000000000000000000, 0.0000000000000000000, 1.000000000000000000 ) ) ;
#195 = CC_DESIGN_APPROVAL ( #184, ( #99 ) ) ;
#196 = DIRECTION ( 'NONE',  ( 1.000000000000000000, 0.0000000000000000000, 0.0000000000000000000 ) ) ;
#197 = CARTESIAN_POINT ( 'NONE',  ( -1.305848864697712000E-014, 2.149036805498214100, 0.1067526330159033200 ) ) ;
#198 = LOCAL_TIME ( 9, 43, 15.00000000000000000, #49 ) ;
#199 = CARTESIAN_POINT ( 'NONE',  ( 6.349999999999999600, 1.221245327087670000E-015, -0.3116876092362069800 ) ) ;
#200 = CARTESIAN_POINT ( 'NONE',  ( -4.271726891306666800, 2.149036805498214500, 0.001348661855883685700 ) ) ;
#201 = CARTESIAN_POINT ( 'NONE',  ( -2.515349040166370300E-014, -6.425951033630022700, -0.3192068142882319400 ) ) ;
#202 = PERSON_AND_ORGANIZATION ( #213, #164 ) ;
#203 = VERTEX_POINT ( 'NONE', #170 ) ;
#204 = CARTESIAN_POINT ( 'NONE',  ( -2.123147063980239700, 6.425951033630017400, -0.3192068142882327800 ) ) ;
#205 = PRODUCT_DEFINITION ( 'UNKNOWN', '', #61, #188 ) ;
#206 = APPROVAL_ROLE ( '' ) ;
#207 = DIRECTION ( 'NONE',  ( 0.0000000000000000000, 0.0000000000000000000, 1.000000000000000000 ) ) ;
#208 = DATE_TIME_ROLE ( 'classification_date' ) ;
#209 = CC_DESIGN_DATE_AND_TIME_ASSIGNMENT ( #50, #189, ( #205 ) ) ;
#210 = CYLINDRICAL_SURFACE ( 'NONE', #35, 6.349999999999999600 ) ;
#211 = APPROVAL_DATE_TIME ( #68, #159 ) ;
#212 = CC_DESIGN_APPROVAL ( #70, ( #205 ) ) ;
#213 = PERSON ( 'UNSPECIFIED', 'UNSPECIFIED', 'UNSPECIFIED', ('UNSPECIFIED'), ('UNSPECIFIED'), ('UNSPECIFIED') ) ;
#214 = ORIENTED_EDGE ( 'NONE', *, *, #234, .T. ) ;
#215 = CARTESIAN_POINT ( 'NONE',  ( 2.498001805406600200E-016, 1.221245327087670000E-015, -0.3116876092362069800 ) ) ;
#216 = DIRECTION ( 'NONE',  ( 0.0000000000000000000, 0.0000000000000000000, 1.000000000000000000 ) ) ;
#217 = PERSON_AND_ORGANIZATION ( #213, #164 ) ;
#218 = PRODUCT ( '112-0219E BK7 pl-cv 25.4 F-100', '112-0219E BK7 pl-cv 25.4 F-100', '', ( #156 ) ) ;
#219 = AXIS2_PLACEMENT_3D ( 'NONE', #235, #167, #90 ) ;
#220 = CARTESIAN_POINT ( 'NONE',  ( 6.349999999999999600, 1.221245327087670000E-015, -0.3116876092362069800 ) ) ;
#221 = CARTESIAN_POINT ( 'NONE',  ( 4.243710364661558800, -6.425951033630021800, -0.4239194834896737300 ) ) ;
#222 = DATE_AND_TIME ( #149, #154 ) ;
#223 = ORIENTED_EDGE ( 'NONE', *, *, #122, .F. ) ;
#224 = CARTESIAN_POINT ( 'NONE',  ( 2.123147063980211200, 6.425951033630018300, -0.3192068142882361100 ) ) ;
#225 = CARTESIAN_POINT ( 'NONE',  ( 4.271726891306651700, -2.149036805498218100, 0.001348661855880839600 ) ) ;
#226 = ORIENTED_EDGE ( 'NONE', *, *, #234, .F. ) ;
#227 = SECURITY_CLASSIFICATION_LEVEL ( 'unclassified' ) ;
#228 = CC_DESIGN_PERSON_AND_ORGANIZATION_ASSIGNMENT ( #134, #175, ( #218 ) ) ;
#229 = LINE ( 'NONE', #220, #100 ) ;
#230 = COORDINATED_UNIVERSAL_TIME_OFFSET ( 2, 0, .AHEAD. ) ;
#231 = ADVANCED_FACE ( 'NONE', ( #179 ), #210, .T. ) ;
#232 = ORIENTED_EDGE ( 'NONE', *, *, #84, .F. ) ;
#233 =( BOUNDED_SURFACE ( )  B_SPLINE_SURFACE ( 3, 3, ( 
 ( #148, #224, #20, #117 ),
 ( #197, #22, #4, #168 ),
 ( #96, #98, #225, #153 ),
 ( #180, #75, #221, #39 ) ),
 .UNSPECIFIED., .F., .F., .F. ) 
 B_SPLINE_SURFACE_WITH_KNOTS ( ( 4, 4 ),
 ( 4, 4 ),
 ( 0.0000000000000000000, 1.000000000000000000 ),
 ( 0.0000000000000000000, 1.000000000000000000 ),
 .UNSPECIFIED. ) 
 GEOMETRIC_REPRESENTATION_ITEM ( )  RATIONAL_B_SPLINE_SURFACE ( (
 ( 1.000000000000000000, 0.9991887001634776100, 0.9991887001634776100, 1.000000000000000000),
 ( 0.9967180051995863100, 0.9959093680449089300, 0.9959093680449089300, 0.9967180051995863100),
 ( 0.9967180051995863100, 0.9959093680449089300, 0.9959093680449089300, 0.9967180051995863100),
 ( 1.000000000000000000, 0.9991887001634776100, 0.9991887001634776100, 1.000000000000000000) ) ) 
 REPRESENTATION_ITEM ( '' )  SURFACE ( )  );
#234 = EDGE_CURVE ( 'NONE', #203, #191, #135, .T. ) ;
#235 = CARTESIAN_POINT ( 'NONE',  ( 2.498001805406600200E-016, 1.221245327087670000E-015, -0.3116876092362069800 ) ) ;
ENDSEC;
END-ISO-10303-21;
