ISO-10303-21;
HEADER;
FILE_DESCRIPTION (( 'STEP AP203' ),
    '1' );
FILE_NAME ('112-0215E BK7 pl-cv 25.4 F-75.STEP',
    '2019-01-15T07:24:05',
    ( '' ),
    ( '' ),
    'SwSTEP 2.0',
    'SolidWorks 2017',
    '' );
FILE_SCHEMA (( 'CONFIG_CONTROL_DESIGN' ));
ENDSEC;

DATA;
#1 = CARTESIAN_POINT ( 'NONE',  ( -4.114079159145804400, -12.84663780296892600, -2.182512379530524300 ) ) ;
#2 = CALENDAR_DATE ( 2019, 15, 1 ) ;
#3 = CC_DESIGN_PERSON_AND_ORGANIZATION_ASSIGNMENT ( #182, #184, ( #212 ) ) ;
#4 = PLANE ( 'NONE',  #135 ) ;
#5 = DIRECTION ( 'NONE',  ( 0.0000000000000000000, 0.0000000000000000000, 1.000000000000000000 ) ) ;
#6 = CARTESIAN_POINT ( 'NONE',  ( -2.255140518769849200E-014, 12.84663780296891700, -2.182512379530523900 ) ) ;
#7 = PERSON_AND_ORGANIZATION ( #164, #70 ) ;
#8 = EDGE_LOOP ( 'NONE', ( #150, #27 ) ) ;
#9 = DIRECTION ( 'NONE',  ( 1.000000000000000000, 0.0000000000000000000, 0.0000000000000000000 ) ) ;
#10 = CARTESIAN_POINT ( 'NONE',  ( -12.69999999999999900, 3.997792089092478900E-015, -2.131535250979000200 ) ) ;
#11 = EDGE_CURVE ( 'NONE', #154, #149, #72, .T. ) ;
#12 = DIRECTION ( 'NONE',  ( 1.000000000000000000, 0.0000000000000000000, 0.0000000000000000000 ) ) ;
#13 = LOCAL_TIME ( 9, 24, 5.000000000000000000, #127 ) ;
#14 = MANIFOLD_SOLID_BREP ( 'Imported1', #125 ) ;
#15 = AXIS2_PLACEMENT_3D ( 'NONE', #196, #218, #73 ) ;
#16 = ORIENTED_EDGE ( 'NONE', *, *, #17, .T. ) ;
#17 = EDGE_CURVE ( 'NONE', #149, #37, #105, .T. ) ;
#18 = ADVANCED_BREP_SHAPE_REPRESENTATION ( '112-0215E BK7 pl-cv 25.4 F-75', ( #14, #207 ), #147 ) ;
#19 = DIRECTION ( 'NONE',  ( 0.0000000000000000000, 0.0000000000000000000, 1.000000000000000000 ) ) ;
#20 = VECTOR ( 'NONE', #183, 1000.000000000000000 ) ;
#21 = PERSON_AND_ORGANIZATION ( #164, #70 ) ;
#22 = VECTOR ( 'NONE', #96, 1000.000000000000000 ) ;
#23 = FACE_OUTER_BOUND ( 'NONE', #8, .T. ) ;
#24 = AXIS2_PLACEMENT_3D ( 'NONE', #30, #187, #52 ) ;
#25 = CARTESIAN_POINT ( 'NONE',  ( -12.69999999999999900, 3.997792089092478900E-015, -2.131535250979000200 ) ) ;
#26 = CARTESIAN_POINT ( 'NONE',  ( -8.170727477244083700, -12.84663780296892600, -2.867531905520881900 ) ) ;
#27 = ORIENTED_EDGE ( 'NONE', *, *, #85, .F. ) ;
#28 = DIRECTION ( 'NONE',  ( 1.000000000000000000, 0.0000000000000000000, 0.0000000000000000000 ) ) ;
#29 = APPROVAL_ROLE ( '' ) ;
#30 = CARTESIAN_POINT ( 'NONE',  ( 4.996003610813200500E-016, 2.442490654175340100E-015, 2.899999999999999900 ) ) ;
#31 = FACE_OUTER_BOUND ( 'NONE', #160, .T. ) ;
#32 = DIRECTION ( 'NONE',  ( 1.000000000000000000, 0.0000000000000000000, 0.0000000000000000000 ) ) ;
#33 = LINE ( 'NONE', #108, #22 ) ;
#34 = CARTESIAN_POINT ( 'NONE',  ( 4.443304797185670700, 4.448607474774867400, 0.7557729138377551300 ) ) ;
#35 = AXIS2_PLACEMENT_3D ( 'NONE', #175, #144, #219 ) ;
#36 = CARTESIAN_POINT ( 'NONE',  ( 12.05668669370723500, -12.84663780296892600, -4.218445779793656300 ) ) ;
#37 = VERTEX_POINT ( 'NONE', #91 ) ;
#38 = ADVANCED_FACE ( 'NONE', ( #133 ), #83, .T. ) ;
#39 = CC_DESIGN_PERSON_AND_ORGANIZATION_ASSIGNMENT ( #229, #98, ( #102 ) ) ;
#40 = DATE_AND_TIME ( #43, #104 ) ;
#41 = ORIENTED_EDGE ( 'NONE', *, *, #69, .T. ) ;
#42 = ADVANCED_FACE ( 'NONE', ( #23 ), #4, .T. ) ;
#43 = CALENDAR_DATE ( 2019, 15, 1 ) ;
#44 = CARTESIAN_POINT ( 'NONE',  ( -13.02151265252691400, 4.448607474774869200, -1.443084301641311300 ) ) ;
#45 = MECHANICAL_CONTEXT ( 'NONE', #128, 'mechanical' ) ;
#46 = DIRECTION ( 'NONE',  ( 0.0000000000000000000, 0.0000000000000000000, 1.000000000000000000 ) ) ;
#47 = CARTESIAN_POINT ( 'NONE',  ( 0.0000000000000000000, 0.0000000000000000000, 0.0000000000000000000 ) ) ;
#48 = ORIENTED_EDGE ( 'NONE', *, *, #124, .T. ) ;
#49 = DATE_TIME_ROLE ( 'classification_date' ) ;
#50 = CARTESIAN_POINT ( 'NONE',  ( 4.996003610813200500E-016, 2.442490654175340100E-015, -2.131535250979000200 ) ) ;
#51 = APPROVAL_PERSON_ORGANIZATION ( #112, #103, #81 ) ;
#52 = DIRECTION ( 'NONE',  ( 1.000000000000000000, 0.0000000000000000000, 0.0000000000000000000 ) ) ;
#53 = ORIENTED_EDGE ( 'NONE', *, *, #233, .T. ) ;
#54 = CC_DESIGN_DATE_AND_TIME_ASSIGNMENT ( #123, #142, ( #228 ) ) ;
#55 = CARTESIAN_POINT ( 'NONE',  ( -1.065814103640150000E-014, -4.448607474774876300, 0.7557729138377593500 ) ) ;
#56 =( BOUNDED_SURFACE ( )  B_SPLINE_SURFACE ( 3, 3, ( 
 ( #93, #80, #202, #6 ),
 ( #44, #140, #95, #223 ),
 ( #200, #77, #224, #155 ),
 ( #111, #26, #1, #109 ) ),
 .UNSPECIFIED., .F., .F., .F. ) 
 B_SPLINE_SURFACE_WITH_KNOTS ( ( 4, 4 ),
 ( 4, 4 ),
 ( 0.0000000000000000000, 1.000000000000000000 ),
 ( 0.0000000000000000000, 1.000000000000000000 ),
 .UNSPECIFIED. ) 
 GEOMETRIC_REPRESENTATION_ITEM ( )  RATIONAL_B_SPLINE_SURFACE ( (
 ( 1.000000000000000000, 0.9906936094606040300, 0.9906936094606040300, 1.000000000000000000),
 ( 0.9625961888683716200, 0.9536378928030283500, 0.9536378928030283500, 0.9625961888683716200),
 ( 0.9625961888683716200, 0.9536378928030283500, 0.9536378928030283500, 0.9625961888683716200),
 ( 1.000000000000000000, 0.9906936094606040300, 0.9906936094606040300, 1.000000000000000000) ) ) 
 REPRESENTATION_ITEM ( '' )  SURFACE ( )  );
#57 = COORDINATED_UNIVERSAL_TIME_OFFSET ( 2, 0, .AHEAD. ) ;
#58 = CARTESIAN_POINT ( 'NONE',  ( 8.824582899779079200, 4.448607474774868300, 0.01593529082254759000 ) ) ;
#59 = CC_DESIGN_DATE_AND_TIME_ASSIGNMENT ( #101, #49, ( #212 ) ) ;
#60 = LOCAL_TIME ( 9, 24, 5.000000000000000000, #57 ) ;
#61 = CARTESIAN_POINT ( 'NONE',  ( 4.996003610813200500E-016, 2.442490654175340100E-015, -2.131535250979000200 ) ) ;
#62 = DIRECTION ( 'NONE',  ( 1.000000000000000000, 0.0000000000000000000, 0.0000000000000000000 ) ) ;
#63 = APPROVAL_STATUS ( 'not_yet_approved' ) ;
#64 = COORDINATED_UNIVERSAL_TIME_OFFSET ( 2, 0, .AHEAD. ) ;
#65 = CYLINDRICAL_SURFACE ( 'NONE', #117, 12.69999999999999900 ) ;
#66 = APPROVAL_ROLE ( '' ) ;
#67 = PRODUCT_DEFINITION_SHAPE ( 'NONE', 'NONE',  #228 ) ;
#68 = ORIENTED_EDGE ( 'NONE', *, *, #11, .T. ) ;
#69 = EDGE_CURVE ( 'NONE', #154, #136, #33, .T. ) ;
#70 = ORGANIZATION ( 'UNSPECIFIED', 'UNSPECIFIED', '' ) ;
#71 = ORIENTED_EDGE ( 'NONE', *, *, #100, .F. ) ;
#72 = CIRCLE ( 'NONE', #15, 12.69999999999999900 ) ;
#73 = DIRECTION ( 'NONE',  ( 1.000000000000000000, 0.0000000000000000000, 0.0000000000000000000 ) ) ;
#74 = CARTESIAN_POINT ( 'NONE',  ( -1.065814103640150000E-014, -1.065814103640150000E-014, -38.89999999999999900 ) ) ;
#75 = APPLICATION_PROTOCOL_DEFINITION ( 'international standard', 'config_control_design', 1994, #128 ) ;
#76 = CC_DESIGN_PERSON_AND_ORGANIZATION_ASSIGNMENT ( #94, #130, ( #228 ) ) ;
#77 = CARTESIAN_POINT ( 'NONE',  ( -8.824582899779102300, -4.448607474774875400, 0.01593529082254369100 ) ) ;
#78 = COORDINATED_UNIVERSAL_TIME_OFFSET ( 2, 0, .AHEAD. ) ;
#79 = CIRCLE ( 'NONE', #24, 12.69999999999999900 ) ;
#80 = CARTESIAN_POINT ( 'NONE',  ( -8.170727477244076600, 12.84663780296891700, -2.867531905520882800 ) ) ;
#81 = APPROVAL_ROLE ( '' ) ;
#82 = CARTESIAN_POINT ( 'NONE',  ( 8.170727477244064100, 12.84663780296891700, -2.867531905520880600 ) ) ;
#83 = CYLINDRICAL_SURFACE ( 'NONE', #89, 12.69999999999999900 ) ;
#84 = SECURITY_CLASSIFICATION_LEVEL ( 'unclassified' ) ;
#85 = EDGE_CURVE ( 'NONE', #210, #136, #79, .T. ) ;
#86 = CARTESIAN_POINT ( 'NONE',  ( -1.065814103640150000E-014, 12.84663780296891700, -2.182512379530522600 ) ) ;
#87 = DATE_AND_TIME ( #170, #60 ) ;
#88 = ORIENTED_EDGE ( 'NONE', *, *, #17, .F. ) ;
#89 = AXIS2_PLACEMENT_3D ( 'NONE', #172, #106, #234 ) ;
#90 = ORIENTED_EDGE ( 'NONE', *, *, #190, .T. ) ;
#91 = CARTESIAN_POINT ( 'NONE',  ( -1.065814103640150000E-014, -12.70000000000000600, -2.131535250978995800 ) ) ;
#92 = AXIS2_PLACEMENT_3D ( 'NONE', #61, #179, #9 ) ;
#93 = CARTESIAN_POINT ( 'NONE',  ( -12.05668669370724000, 12.84663780296891900, -4.218445779793661600 ) ) ;
#94 = PERSON_AND_ORGANIZATION ( #164, #70 ) ;
#95 = CARTESIAN_POINT ( 'NONE',  ( -4.443304797185699200, 4.448607474774867400, 0.7557729138377520300 ) ) ;
#96 = DIRECTION ( 'NONE',  ( 0.0000000000000000000, 0.0000000000000000000, 1.000000000000000000 ) ) ;
#97 = CARTESIAN_POINT ( 'NONE',  ( 12.69999999999999900, 2.442490654175340100E-015, -2.131535250979000200 ) ) ;
#98 = PERSON_AND_ORGANIZATION_ROLE ( 'design_owner' ) ;
#99 = AXIS2_PLACEMENT_3D ( 'NONE', #50, #185, #12 ) ;
#100 = EDGE_CURVE ( 'NONE', #173, #210, #205, .T. ) ;
#101 = DATE_AND_TIME ( #145, #204 ) ;
#102 = PRODUCT ( '112-0215E BK7 pl-cv 25.4 F-75', '112-0215E BK7 pl-cv 25.4 F-75', '', ( #45 ) ) ;
#103 = APPROVAL ( #115, 'UNSPECIFIED' ) ;
#104 = LOCAL_TIME ( 9, 24, 5.000000000000000000, #78 ) ;
#105 = CIRCLE ( 'NONE', #181, 38.89999999999999900 ) ;
#106 = DIRECTION ( 'NONE',  ( 0.0000000000000000000, 0.0000000000000000000, 1.000000000000000000 ) ) ;
#107 = EDGE_CURVE ( 'NONE', #37, #154, #227, .T. ) ;
#108 = CARTESIAN_POINT ( 'NONE',  ( 12.69999999999999900, 2.442490654175340100E-015, -2.131535250979000200 ) ) ;
#109 = CARTESIAN_POINT ( 'NONE',  ( -2.081668171172168500E-014, -12.84663780296892800, -2.182512379530523000 ) ) ;
#110 =( NAMED_UNIT ( * ) SI_UNIT ( $, .STERADIAN. ) SOLID_ANGLE_UNIT ( ) );
#111 = CARTESIAN_POINT ( 'NONE',  ( -12.05668669370724700, -12.84663780296892600, -4.218445779793661600 ) ) ;
#112 = PERSON_AND_ORGANIZATION ( #164, #70 ) ;
#113 = ORIENTED_EDGE ( 'NONE', *, *, #100, .T. ) ;
#114 = PERSON_AND_ORGANIZATION_ROLE ( 'creator' ) ;
#115 = APPROVAL_STATUS ( 'not_yet_approved' ) ;
#116 = ORIENTED_EDGE ( 'NONE', *, *, #107, .F. ) ;
#117 = AXIS2_PLACEMENT_3D ( 'NONE', #203, #5, #28 ) ;
#118 = APPROVAL_DATE_TIME ( #165, #103 ) ;
#119 = ORIENTED_EDGE ( 'NONE', *, *, #69, .F. ) ;
#120 = PRODUCT_DEFINITION_FORMATION_WITH_SPECIFIED_SOURCE ( 'ANY', '', #102, .NOT_KNOWN. ) ;
#121 = CIRCLE ( 'NONE', #35, 12.69999999999999900 ) ;
#122 = CARTESIAN_POINT ( 'NONE',  ( 8.170727477244067700, -12.84663780296892600, -2.867531905520875200 ) ) ;
#123 = DATE_AND_TIME ( #2, #13 ) ;
#124 = EDGE_CURVE ( 'NONE', #149, #173, #166, .T. ) ;
#125 = CLOSED_SHELL ( 'NONE', ( #201, #38, #129, #152, #42 ) ) ;
#126 = EDGE_LOOP ( 'NONE', ( #138, #16, #194 ) ) ;
#127 = COORDINATED_UNIVERSAL_TIME_OFFSET ( 2, 0, .AHEAD. ) ;
#128 = APPLICATION_CONTEXT ( 'configuration controlled 3d designs of mechanical parts and assemblies' ) ;
#129 = ADVANCED_FACE ( 'NONE', ( #31 ), #195, .F. ) ;
#130 = PERSON_AND_ORGANIZATION_ROLE ( 'creator' ) ;
#131 = CC_DESIGN_SECURITY_CLASSIFICATION ( #212, ( #120 ) ) ;
#132 = APPLICATION_CONTEXT ( 'configuration controlled 3d designs of mechanical parts and assemblies' ) ;
#133 = FACE_OUTER_BOUND ( 'NONE', #230, .T. ) ;
#134 = APPROVAL ( #156, 'UNSPECIFIED' ) ;
#135 = AXIS2_PLACEMENT_3D ( 'NONE', #139, #176, #141 ) ;
#136 = VERTEX_POINT ( 'NONE', #178 ) ;
#137 = CARTESIAN_POINT ( 'NONE',  ( 13.02151265252690500, -4.448607474774874500, -1.443084301641307300 ) ) ;
#138 = ORIENTED_EDGE ( 'NONE', *, *, #124, .F. ) ;
#139 = CARTESIAN_POINT ( 'NONE',  ( 0.0000000000000000000, 26.11199999999999800, 2.899999999999999900 ) ) ;
#140 = CARTESIAN_POINT ( 'NONE',  ( -8.824582899779100500, 4.448607474774868300, 0.01593529082254477000 ) ) ;
#141 = DIRECTION ( 'NONE',  ( 1.000000000000000000, 0.0000000000000000000, -0.0000000000000000000 ) ) ;
#142 = DATE_TIME_ROLE ( 'creation_date' ) ;
#143 = ORIENTED_EDGE ( 'NONE', *, *, #107, .T. ) ;
#144 = DIRECTION ( 'NONE',  ( -0.0000000000000000000, -0.0000000000000000000, -1.000000000000000000 ) ) ;
#145 = CALENDAR_DATE ( 2019, 15, 1 ) ;
#146 = PRODUCT_RELATED_PRODUCT_CATEGORY ( 'detail', '', ( #102 ) ) ;
#147 =( GEOMETRIC_REPRESENTATION_CONTEXT ( 3 ) GLOBAL_UNCERTAINTY_ASSIGNED_CONTEXT ( ( #171 ) ) GLOBAL_UNIT_ASSIGNED_CONTEXT ( ( #220, #158, #110 ) ) REPRESENTATION_CONTEXT ( 'NONE', 'WORKASPACE' ) );
#148 = CARTESIAN_POINT ( 'NONE',  ( 13.02151265252690300, 4.448607474774869200, -1.443084301641311300 ) ) ;
#149 = VERTEX_POINT ( 'NONE', #199 ) ;
#150 = ORIENTED_EDGE ( 'NONE', *, *, #190, .F. ) ;
#151 = CC_DESIGN_PERSON_AND_ORGANIZATION_ASSIGNMENT ( #221, #180, ( #120 ) ) ;
#152 = ADVANCED_FACE ( 'NONE', ( #222 ), #65, .T. ) ;
#153 = LOCAL_TIME ( 9, 24, 5.000000000000000000, #192 ) ;
#154 = VERTEX_POINT ( 'NONE', #97 ) ;
#155 = CARTESIAN_POINT ( 'NONE',  ( -2.081668171172168500E-014, -4.448607474774876300, 0.7557729138377525800 ) ) ;
#156 = APPROVAL_STATUS ( 'not_yet_approved' ) ;
#157 = CARTESIAN_POINT ( 'NONE',  ( 4.996003610813200500E-016, 2.442490654175340100E-015, -2.131535250979000200 ) ) ;
#158 =( NAMED_UNIT ( * ) PLANE_ANGLE_UNIT ( ) SI_UNIT ( $, .RADIAN. ) );
#159 = CARTESIAN_POINT ( 'NONE',  ( 4.114079159145775000, 12.84663780296891700, -2.182512379530522600 ) ) ;
#160 = EDGE_LOOP ( 'NONE', ( #88, #209, #116 ) ) ;
#161 = CC_DESIGN_APPROVAL ( #162, ( #228 ) ) ;
#162 = APPROVAL ( #63, 'UNSPECIFIED' ) ;
#163 = DESIGN_CONTEXT ( 'detailed design', #132, 'design' ) ;
#164 = PERSON ( 'UNSPECIFIED', 'UNSPECIFIED', 'UNSPECIFIED', ('UNSPECIFIED'), ('UNSPECIFIED'), ('UNSPECIFIED') ) ;
#165 = DATE_AND_TIME ( #186, #153 ) ;
#166 = CIRCLE ( 'NONE', #168, 12.69999999999999900 ) ;
#167 = CARTESIAN_POINT ( 'NONE',  ( -1.065814103640150000E-014, 4.448607474774867400, 0.7557729138377551300 ) ) ;
#168 = AXIS2_PLACEMENT_3D ( 'NONE', #157, #19, #32 ) ;
#169 = CARTESIAN_POINT ( 'NONE',  ( 4.114079159145776800, -12.84663780296892600, -2.182512379530515900 ) ) ;
#170 = CALENDAR_DATE ( 2019, 15, 1 ) ;
#171 = UNCERTAINTY_MEASURE_WITH_UNIT (LENGTH_MEASURE( 1.000000000000000100E-005 ), #220, 'distance_accuracy_value', 'NONE');
#172 = CARTESIAN_POINT ( 'NONE',  ( 4.996003610813200500E-016, 2.442490654175340100E-015, -2.131535250979000200 ) ) ;
#173 = VERTEX_POINT ( 'NONE', #25 ) ;
#174 = CC_DESIGN_APPROVAL ( #134, ( #120 ) ) ;
#175 = CARTESIAN_POINT ( 'NONE',  ( 4.996003610813200500E-016, 2.442490654175340100E-015, 2.899999999999999900 ) ) ;
#176 = DIRECTION ( 'NONE',  ( 0.0000000000000000000, 0.0000000000000000000, 1.000000000000000000 ) ) ;
#177 = CARTESIAN_POINT ( 'NONE',  ( -12.69999999999999900, 3.997792089092478900E-015, 2.899999999999999900 ) ) ;
#178 = CARTESIAN_POINT ( 'NONE',  ( 12.69999999999999900, 2.442490654175340100E-015, 2.899999999999999900 ) ) ;
#179 = DIRECTION ( 'NONE',  ( 0.0000000000000000000, 0.0000000000000000000, 1.000000000000000000 ) ) ;
#180 = PERSON_AND_ORGANIZATION_ROLE ( 'design_supplier' ) ;
#181 = AXIS2_PLACEMENT_3D ( 'NONE', #74, #197, #235 ) ;
#182 = PERSON_AND_ORGANIZATION ( #164, #70 ) ;
#183 = DIRECTION ( 'NONE',  ( 0.0000000000000000000, 0.0000000000000000000, 1.000000000000000000 ) ) ;
#184 = PERSON_AND_ORGANIZATION_ROLE ( 'classification_officer' ) ;
#185 = DIRECTION ( 'NONE',  ( 0.0000000000000000000, 0.0000000000000000000, 1.000000000000000000 ) ) ;
#186 = CALENDAR_DATE ( 2019, 15, 1 ) ;
#187 = DIRECTION ( 'NONE',  ( -0.0000000000000000000, -0.0000000000000000000, -1.000000000000000000 ) ) ;
#188 = APPROVAL_PERSON_ORGANIZATION ( #7, #162, #29 ) ;
#189 = EDGE_LOOP ( 'NONE', ( #71, #53, #143, #41, #90 ) ) ;
#190 = EDGE_CURVE ( 'NONE', #136, #210, #121, .T. ) ;
#191 = CARTESIAN_POINT ( 'NONE',  ( 4.443304797185670700, -4.448607474774876300, 0.7557729138377593500 ) ) ;
#192 = COORDINATED_UNIVERSAL_TIME_OFFSET ( 2, 0, .AHEAD. ) ;
#193 = APPROVAL_PERSON_ORGANIZATION ( #21, #134, #66 ) ;
#194 = ORIENTED_EDGE ( 'NONE', *, *, #233, .F. ) ;
#195 =( BOUNDED_SURFACE ( )  B_SPLINE_SURFACE ( 3, 3, ( 
 ( #86, #159, #82, #213 ),
 ( #167, #34, #58, #148 ),
 ( #55, #191, #211, #137 ),
 ( #231, #169, #122, #36 ) ),
 .UNSPECIFIED., .F., .F., .F. ) 
 B_SPLINE_SURFACE_WITH_KNOTS ( ( 4, 4 ),
 ( 4, 4 ),
 ( 0.0000000000000000000, 1.000000000000000000 ),
 ( 0.0000000000000000000, 1.000000000000000000 ),
 .UNSPECIFIED. ) 
 GEOMETRIC_REPRESENTATION_ITEM ( )  RATIONAL_B_SPLINE_SURFACE ( (
 ( 1.000000000000000000, 0.9906936094606040300, 0.9906936094606040300, 1.000000000000000000),
 ( 0.9625961888683716200, 0.9536378928030283500, 0.9536378928030283500, 0.9625961888683716200),
 ( 0.9625961888683716200, 0.9536378928030283500, 0.9536378928030283500, 0.9625961888683716200),
 ( 1.000000000000000000, 0.9906936094606040300, 0.9906936094606040300, 1.000000000000000000) ) ) 
 REPRESENTATION_ITEM ( '' )  SURFACE ( )  );
#196 = CARTESIAN_POINT ( 'NONE',  ( 4.996003610813200500E-016, 2.442490654175340100E-015, -2.131535250979000200 ) ) ;
#197 = DIRECTION ( 'NONE',  ( 1.000000000000000000, 0.0000000000000000000, 0.0000000000000000000 ) ) ;
#198 = FACE_OUTER_BOUND ( 'NONE', #126, .T. ) ;
#199 = CARTESIAN_POINT ( 'NONE',  ( -1.065814103640150000E-014, 12.69999999999999600, -2.131535250979002900 ) ) ;
#200 = CARTESIAN_POINT ( 'NONE',  ( -13.02151265252691700, -4.448607474774874500, -1.443084301641312600 ) ) ;
#201 = ADVANCED_FACE ( 'NONE', ( #198 ), #56, .F. ) ;
#202 = CARTESIAN_POINT ( 'NONE',  ( -4.114079159145804400, 12.84663780296891700, -2.182512379530525200 ) ) ;
#203 = CARTESIAN_POINT ( 'NONE',  ( 4.996003610813200500E-016, 2.442490654175340100E-015, -2.131535250979000200 ) ) ;
#204 = LOCAL_TIME ( 9, 24, 5.000000000000000000, #64 ) ;
#205 = LINE ( 'NONE', #10, #20 ) ;
#206 = CC_DESIGN_APPROVAL ( #103, ( #212 ) ) ;
#207 = AXIS2_PLACEMENT_3D ( 'NONE', #47, #46, #62 ) ;
#208 = ORIENTED_EDGE ( 'NONE', *, *, #85, .T. ) ;
#209 = ORIENTED_EDGE ( 'NONE', *, *, #11, .F. ) ;
#210 = VERTEX_POINT ( 'NONE', #177 ) ;
#211 = CARTESIAN_POINT ( 'NONE',  ( 8.824582899779082700, -4.448607474774875400, 0.01593529082255193100 ) ) ;
#212 = SECURITY_CLASSIFICATION ( '', '', #84 ) ;
#213 = CARTESIAN_POINT ( 'NONE',  ( 12.05668669370722600, 12.84663780296891900, -4.218445779793661600 ) ) ;
#214 = PERSON_AND_ORGANIZATION ( #164, #70 ) ;
#215 = SHAPE_DEFINITION_REPRESENTATION ( #67, #18 ) ;
#216 = CIRCLE ( 'NONE', #92, 12.69999999999999900 ) ;
#217 = CC_DESIGN_PERSON_AND_ORGANIZATION_ASSIGNMENT ( #214, #114, ( #120 ) ) ;
#218 = DIRECTION ( 'NONE',  ( 0.0000000000000000000, 0.0000000000000000000, 1.000000000000000000 ) ) ;
#219 = DIRECTION ( 'NONE',  ( 1.000000000000000000, 0.0000000000000000000, 0.0000000000000000000 ) ) ;
#220 =( LENGTH_UNIT ( ) NAMED_UNIT ( * ) SI_UNIT ( .MILLI., .METRE. ) );
#221 = PERSON_AND_ORGANIZATION ( #164, #70 ) ;
#222 = FACE_OUTER_BOUND ( 'NONE', #189, .T. ) ;
#223 = CARTESIAN_POINT ( 'NONE',  ( -2.255140518769849200E-014, 4.448607474774867400, 0.7557729138377532500 ) ) ;
#224 = CARTESIAN_POINT ( 'NONE',  ( -4.443304797185697400, -4.448607474774876300, 0.7557729138377512500 ) ) ;
#225 = APPLICATION_PROTOCOL_DEFINITION ( 'international standard', 'config_control_design', 1994, #132 ) ;
#226 = APPROVAL_DATE_TIME ( #40, #134 ) ;
#227 = CIRCLE ( 'NONE', #99, 12.69999999999999900 ) ;
#228 = PRODUCT_DEFINITION ( 'UNKNOWN', '', #120, #163 ) ;
#229 = PERSON_AND_ORGANIZATION ( #164, #70 ) ;
#230 = EDGE_LOOP ( 'NONE', ( #68, #48, #113, #208, #119 ) ) ;
#231 = CARTESIAN_POINT ( 'NONE',  ( -1.065814103640150000E-014, -12.84663780296892800, -2.182512379530515500 ) ) ;
#232 = APPROVAL_DATE_TIME ( #87, #162 ) ;
#233 = EDGE_CURVE ( 'NONE', #173, #37, #216, .T. ) ;
#234 = DIRECTION ( 'NONE',  ( 1.000000000000000000, 0.0000000000000000000, 0.0000000000000000000 ) ) ;
#235 = DIRECTION ( 'NONE',  ( 0.0000000000000000000, 1.000000000000000000, 7.135109412758075500E-016 ) ) ;
ENDSEC;
END-ISO-10303-21;
