ISO-10303-21;
HEADER;
FILE_DESCRIPTION (( 'STEP AP203' ),
    '1' );
FILE_NAME ('112-0209E BK7 pl-cv 25.4 F-50.STEP',
    '2019-01-15T07:02:02',
    ( '' ),
    ( '' ),
    'SwSTEP 2.0',
    'SolidWorks 2017',
    '' );
FILE_SCHEMA (( 'CONFIG_CONTROL_DESIGN' ));
ENDSEC;

DATA;
#1 = ORIENTED_EDGE ( 'NONE', *, *, #201, .F. ) ;
#2 = DIRECTION ( 'NONE',  ( 0.0000000000000000000, 0.0000000000000000000, 1.000000000000000000 ) ) ;
#3 = DIRECTION ( 'NONE',  ( 0.0000000000000000000, 0.0000000000000000000, 1.000000000000000000 ) ) ;
#4 = DIRECTION ( 'NONE',  ( 0.0000000000000000000, 0.0000000000000000000, 1.000000000000000000 ) ) ;
#5 = FACE_OUTER_BOUND ( 'NONE', #32, .T. ) ;
#6 = DIRECTION ( 'NONE',  ( 1.000000000000000000, 0.0000000000000000000, 0.0000000000000000000 ) ) ;
#7 = DIRECTION ( 'NONE',  ( 0.0000000000000000000, 0.0000000000000000000, 1.000000000000000000 ) ) ;
#8 = PRODUCT_RELATED_PRODUCT_CATEGORY ( 'detail', '', ( #116 ) ) ;
#9 = CARTESIAN_POINT ( 'NONE',  ( -11.09568781962754800, 12.83862458710550800, -6.320136837359477500 ) ) ;
#10 = APPROVAL_PERSON_ORGANIZATION ( #136, #231, #68 ) ;
#11 = SECURITY_CLASSIFICATION ( '', '', #176 ) ;
#12 =( NAMED_UNIT ( * ) PLANE_ANGLE_UNIT ( ) SI_UNIT ( $, .RADIAN. ) );
#13 = PERSON_AND_ORGANIZATION_ROLE ( 'classification_officer' ) ;
#14 = MANIFOLD_SOLID_BREP ( 'Imported1', #124 ) ;
#15 = EDGE_CURVE ( 'NONE', #90, #39, #130, .T. ) ;
#16 = AXIS2_PLACEMENT_3D ( 'NONE', #161, #67, #163 ) ;
#17 = ADVANCED_BREP_SHAPE_REPRESENTATION ( '112-0209E BK7 pl-cv 25.4 F-50', ( #14, #16 ), #21 ) ;
#18 = CARTESIAN_POINT ( 'NONE',  ( 5.329070518200749800E-015, -12.69999999999999600, -3.321565040878709400 ) ) ;
#19 = LOCAL_TIME ( 9, 2, 2.000000000000000000, #79 ) ;
#20 = CARTESIAN_POINT ( 'NONE',  ( 5.329070518200749800E-015, -4.689292653107409900, 1.241832108220027700 ) ) ;
#21 =( GEOMETRIC_REPRESENTATION_CONTEXT ( 3 ) GLOBAL_UNCERTAINTY_ASSIGNED_CONTEXT ( ( #217 ) ) GLOBAL_UNIT_ASSIGNED_CONTEXT ( ( #52, #12, #143 ) ) REPRESENTATION_CONTEXT ( 'NONE', 'WORKASPACE' ) );
#22 = CARTESIAN_POINT ( 'NONE',  ( 7.691938692870670600, -12.83862458710551000, -4.395203038700838500 ) ) ;
#23 = VERTEX_POINT ( 'NONE', #204 ) ;
#24 = APPROVAL ( #54, 'UNSPECIFIED' ) ;
#25 = CARTESIAN_POINT ( 'NONE',  ( 4.996003610813200500E-016, 2.442490654175340100E-015, -3.321565040878709900 ) ) ;
#26 = DIRECTION ( 'NONE',  ( 0.0000000000000000000, 0.0000000000000000000, 1.000000000000000000 ) ) ;
#27 = AXIS2_PLACEMENT_3D ( 'NONE', #109, #2, #169 ) ;
#28 = CARTESIAN_POINT ( 'NONE',  ( 4.996003610813200500E-016, 2.442490654175340100E-015, 2.799999999999999800 ) ) ;
#29 = FACE_OUTER_BOUND ( 'NONE', #121, .T. ) ;
#30 = COORDINATED_UNIVERSAL_TIME_OFFSET ( 2, 0, .AHEAD. ) ;
#31 = DATE_TIME_ROLE ( 'creation_date' ) ;
#32 = EDGE_LOOP ( 'NONE', ( #188, #62, #103 ) ) ;
#33 = PERSON_AND_ORGANIZATION_ROLE ( 'design_owner' ) ;
#34 = APPROVAL_ROLE ( '' ) ;
#35 = VECTOR ( 'NONE', #7, 1000.000000000000000 ) ;
#36 = LOCAL_TIME ( 9, 2, 2.000000000000000000, #30 ) ;
#37 = PERSON_AND_ORGANIZATION ( #45, #219 ) ;
#38 = DATE_AND_TIME ( #187, #146 ) ;
#39 = VERTEX_POINT ( 'NONE', #185 ) ;
#40 = EDGE_LOOP ( 'NONE', ( #166, #167, #123, #137, #129 ) ) ;
#41 = VERTEX_POINT ( 'NONE', #126 ) ;
#42 = DIRECTION ( 'NONE',  ( 1.000000000000000000, 0.0000000000000000000, 0.0000000000000000000 ) ) ;
#43 = CARTESIAN_POINT ( 'NONE',  ( 4.996003610813200500E-016, 2.442490654175340100E-015, -3.321565040878709900 ) ) ;
#44 = FACE_OUTER_BOUND ( 'NONE', #96, .T. ) ;
#45 = PERSON ( 'UNSPECIFIED', 'UNSPECIFIED', 'UNSPECIFIED', ('UNSPECIFIED'), ('UNSPECIFIED'), ('UNSPECIFIED') ) ;
#46 = DATE_AND_TIME ( #65, #165 ) ;
#47 = FACE_OUTER_BOUND ( 'NONE', #40, .T. ) ;
#48 = APPROVAL_STATUS ( 'not_yet_approved' ) ;
#49 = ADVANCED_FACE ( 'NONE', ( #44 ), #222, .T. ) ;
#50 = MECHANICAL_CONTEXT ( 'NONE', #85, 'mechanical' ) ;
#51 = CC_DESIGN_PERSON_AND_ORGANIZATION_ASSIGNMENT ( #57, #13, ( #11 ) ) ;
#52 =( LENGTH_UNIT ( ) NAMED_UNIT ( * ) SI_UNIT ( .MILLI., .METRE. ) );
#53 = ORIENTED_EDGE ( 'NONE', *, *, #226, .F. ) ;
#54 = APPROVAL_STATUS ( 'not_yet_approved' ) ;
#55 = AXIS2_PLACEMENT_3D ( 'NONE', #127, #3, #76 ) ;
#56 = PERSON_AND_ORGANIZATION ( #45, #219 ) ;
#57 = PERSON_AND_ORGANIZATION ( #45, #219 ) ;
#58 = CC_DESIGN_PERSON_AND_ORGANIZATION_ASSIGNMENT ( #180, #87, ( #81 ) ) ;
#59 = AXIS2_PLACEMENT_3D ( 'NONE', #111, #190, #208 ) ;
#60 = COORDINATED_UNIVERSAL_TIME_OFFSET ( 2, 0, .AHEAD. ) ;
#61 = CARTESIAN_POINT ( 'NONE',  ( 9.275981920245635900, -4.689292653107409900, 0.04163545864006639600 ) ) ;
#62 = ORIENTED_EDGE ( 'NONE', *, *, #214, .F. ) ;
#63 = CARTESIAN_POINT ( 'NONE',  ( -4.715636216983390300, -4.689292653107409900, 1.241832108220024300 ) ) ;
#64 = DIRECTION ( 'NONE',  ( 1.000000000000000000, 0.0000000000000000000, 0.0000000000000000000 ) ) ;
#65 = CALENDAR_DATE ( 2019, 15, 1 ) ;
#66 = CARTESIAN_POINT ( 'NONE',  ( 4.996003610813200500E-016, 2.442490654175340100E-015, 2.799999999999999800 ) ) ;
#67 = DIRECTION ( 'NONE',  ( 0.0000000000000000000, 0.0000000000000000000, 1.000000000000000000 ) ) ;
#68 = APPROVAL_ROLE ( '' ) ;
#69 = APPROVAL_PERSON_ORGANIZATION ( #56, #24, #34 ) ;
#70 = CC_DESIGN_APPROVAL ( #24, ( #199 ) ) ;
#71 = AXIS2_PLACEMENT_3D ( 'NONE', #66, #206, #6 ) ;
#72 = LINE ( 'NONE', #228, #141 ) ;
#73 = APPROVAL_PERSON_ORGANIZATION ( #37, #152, #216 ) ;
#74 = CARTESIAN_POINT ( 'NONE',  ( 7.691938692870670600, 12.83862458710550700, -4.395203038700838500 ) ) ;
#75 = CC_DESIGN_DATE_AND_TIME_ASSIGNMENT ( #46, #31, ( #199 ) ) ;
#76 = DIRECTION ( 'NONE',  ( 1.000000000000000000, 0.0000000000000000000, 0.0000000000000000000 ) ) ;
#77 = CARTESIAN_POINT ( 'NONE',  ( -9.275981920245639500, 4.689292653107406400, 0.04163545864006118500 ) ) ;
#78 = FACE_OUTER_BOUND ( 'NONE', #120, .T. ) ;
#79 = COORDINATED_UNIVERSAL_TIME_OFFSET ( 2, 0, .AHEAD. ) ;
#80 = CARTESIAN_POINT ( 'NONE',  ( 4.996003610813200500E-016, 2.442490654175340100E-015, -3.321565040878709900 ) ) ;
#81 = PRODUCT_DEFINITION_FORMATION_WITH_SPECIFIED_SOURCE ( 'ANY', '', #116, .NOT_KNOWN. ) ;
#82 = CARTESIAN_POINT ( 'NONE',  ( -3.910355258428132700, 12.83862458710550700, -3.399961874225462000 ) ) ;
#83 = CIRCLE ( 'NONE', #151, 12.69999999999999900 ) ;
#84 = DESIGN_CONTEXT ( 'detailed design', #177, 'design' ) ;
#85 = APPLICATION_CONTEXT ( 'configuration controlled 3d designs of mechanical parts and assemblies' ) ;
#86 = ORIENTED_EDGE ( 'NONE', *, *, #175, .F. ) ;
#87 = PERSON_AND_ORGANIZATION_ROLE ( 'creator' ) ;
#88 = CALENDAR_DATE ( 2019, 15, 1 ) ;
#89 = ORIENTED_EDGE ( 'NONE', *, *, #104, .F. ) ;
#90 = VERTEX_POINT ( 'NONE', #18 ) ;
#91 = CC_DESIGN_PERSON_AND_ORGANIZATION_ASSIGNMENT ( #150, #33, ( #116 ) ) ;
#92 =( BOUNDED_SURFACE ( )  B_SPLINE_SURFACE ( 3, 3, ( 
 ( #189, #128, #74, #168 ),
 ( #153, #93, #94, #224 ),
 ( #20, #149, #61, #221 ),
 ( #203, #110, #22, #113 ) ),
 .UNSPECIFIED., .F., .F., .F. ) 
 B_SPLINE_SURFACE_WITH_KNOTS ( ( 4, 4 ),
 ( 4, 4 ),
 ( 0.0000000000000000000, 1.000000000000000000 ),
 ( 0.0000000000000000000, 1.000000000000000000 ),
 .UNSPECIFIED. ) 
 GEOMETRIC_REPRESENTATION_ITEM ( )  RATIONAL_B_SPLINE_SURFACE ( (
 ( 1.000000000000000000, 0.9780460144965011900, 0.9780460144965011900, 1.000000000000000000),
 ( 0.9126198438903762000, 0.8925842010674015500, 0.8925842010674015500, 0.9126198438903762000),
 ( 0.9126198438903762000, 0.8925842010674015500, 0.8925842010674015500, 0.9126198438903762000),
 ( 1.000000000000000000, 0.9780460144965011900, 0.9780460144965011900, 1.000000000000000000) ) ) 
 REPRESENTATION_ITEM ( '' )  SURFACE ( )  );
#93 = CARTESIAN_POINT ( 'NONE',  ( 4.715636216983393000, 4.689292653107406400, 1.241832108220029400 ) ) ;
#94 = CARTESIAN_POINT ( 'NONE',  ( 9.275981920245637700, 4.689292653107406400, 0.04163545864006812400 ) ) ;
#95 = DIRECTION ( 'NONE',  ( 0.0000000000000000000, 1.000000000000000000, 0.0000000000000000000 ) ) ;
#96 = EDGE_LOOP ( 'NONE', ( #86, #89 ) ) ;
#97 = DIRECTION ( 'NONE',  ( 1.000000000000000000, 0.0000000000000000000, 0.0000000000000000000 ) ) ;
#98 = CARTESIAN_POINT ( 'NONE',  ( -4.715636216983393000, 4.689292653107406400, 1.241832108220026100 ) ) ;
#99 = ADVANCED_FACE ( 'NONE', ( #5 ), #92, .F. ) ;
#100 = APPROVAL_DATE_TIME ( #223, #231 ) ;
#101 = CARTESIAN_POINT ( 'NONE',  ( -1.734723475976807100E-015, -12.83862458710551200, -3.399961874225461100 ) ) ;
#102 = APPROVAL_STATUS ( 'not_yet_approved' ) ;
#103 = ORIENTED_EDGE ( 'NONE', *, *, #15, .F. ) ;
#104 = EDGE_CURVE ( 'NONE', #184, #147, #192, .T. ) ;
#105 = DIRECTION ( 'NONE',  ( 1.000000000000000000, 0.0000000000000000000, 0.0000000000000000000 ) ) ;
#106 = APPLICATION_PROTOCOL_DEFINITION ( 'international standard', 'config_control_design', 1994, #85 ) ;
#107 = COORDINATED_UNIVERSAL_TIME_OFFSET ( 2, 0, .AHEAD. ) ;
#108 = APPROVAL_DATE_TIME ( #142, #152 ) ;
#109 = CARTESIAN_POINT ( 'NONE',  ( 0.0000000000000000000, 26.11199999999999800, 2.799999999999999800 ) ) ;
#110 = CARTESIAN_POINT ( 'NONE',  ( 3.910355258428135400, -12.83862458710551000, -3.399961874225458500 ) ) ;
#111 = CARTESIAN_POINT ( 'NONE',  ( 4.996003610813200500E-016, 2.442490654175340100E-015, -3.321565040878709900 ) ) ;
#112 = CC_DESIGN_PERSON_AND_ORGANIZATION_ASSIGNMENT ( #202, #119, ( #199 ) ) ;
#113 = CARTESIAN_POINT ( 'NONE',  ( 11.09568781962754600, -12.83862458710551200, -6.320136837359468600 ) ) ;
#114 = CARTESIAN_POINT ( 'NONE',  ( 4.996003610813200500E-016, 2.442490654175340100E-015, -3.321565040878709900 ) ) ;
#115 = CARTESIAN_POINT ( 'NONE',  ( -9.275981920245637700, -4.689292653107409900, 0.04163545864005989400 ) ) ;
#116 = PRODUCT ( '112-0209E BK7 pl-cv 25.4 F-50', '112-0209E BK7 pl-cv 25.4 F-50', '', ( #50 ) ) ;
#117 = CARTESIAN_POINT ( 'NONE',  ( -12.69999999999999900, 3.997792089092478900E-015, 2.799999999999999800 ) ) ;
#118 = DIRECTION ( 'NONE',  ( 0.0000000000000000000, 0.0000000000000000000, 1.000000000000000000 ) ) ;
#119 = PERSON_AND_ORGANIZATION_ROLE ( 'creator' ) ;
#120 = EDGE_LOOP ( 'NONE', ( #1, #227, #218, #173, #179 ) ) ;
#121 = EDGE_LOOP ( 'NONE', ( #53, #145, #205 ) ) ;
#122 = CALENDAR_DATE ( 2019, 15, 1 ) ;
#123 = ORIENTED_EDGE ( 'NONE', *, *, #201, .T. ) ;
#124 = CLOSED_SHELL ( 'NONE', ( #197, #232, #99, #139, #49 ) ) ;
#125 = PERSON_AND_ORGANIZATION ( #45, #219 ) ;
#126 = CARTESIAN_POINT ( 'NONE',  ( -12.69999999999999900, 3.997792089092478900E-015, -3.321565040878709900 ) ) ;
#127 = CARTESIAN_POINT ( 'NONE',  ( 4.996003610813200500E-016, 2.442490654175340100E-015, -3.321565040878709900 ) ) ;
#128 = CARTESIAN_POINT ( 'NONE',  ( 3.910355258428135400, 12.83862458710550700, -3.399961874225458500 ) ) ;
#129 = ORIENTED_EDGE ( 'NONE', *, *, #140, .F. ) ;
#130 = CIRCLE ( 'NONE', #55, 12.69999999999999900 ) ;
#131 = CARTESIAN_POINT ( 'NONE',  ( -11.09568781962754800, -12.83862458710551200, -6.320136837359477500 ) ) ;
#132 = AXIS2_PLACEMENT_3D ( 'NONE', #28, #209, #171 ) ;
#133 = CARTESIAN_POINT ( 'NONE',  ( -13.38068381940565700, 4.689292653107406400, -2.279710540981186600 ) ) ;
#134 = CARTESIAN_POINT ( 'NONE',  ( 12.69999999999999900, 2.442490654175340100E-015, -3.321565040878709900 ) ) ;
#135 = PERSON_AND_ORGANIZATION_ROLE ( 'design_supplier' ) ;
#136 = PERSON_AND_ORGANIZATION ( #45, #219 ) ;
#137 = ORIENTED_EDGE ( 'NONE', *, *, #104, .T. ) ;
#138 = CALENDAR_DATE ( 2019, 15, 1 ) ;
#139 = ADVANCED_FACE ( 'NONE', ( #78 ), #234, .T. ) ;
#140 = EDGE_CURVE ( 'NONE', #39, #147, #230, .T. ) ;
#141 = VECTOR ( 'NONE', #4, 1000.000000000000000 ) ;
#142 = DATE_AND_TIME ( #138, #36 ) ;
#143 =( NAMED_UNIT ( * ) SI_UNIT ( $, .STERADIAN. ) SOLID_ANGLE_UNIT ( ) );
#144 = CC_DESIGN_SECURITY_CLASSIFICATION ( #11, ( #81 ) ) ;
#145 = ORIENTED_EDGE ( 'NONE', *, *, #178, .T. ) ;
#146 = LOCAL_TIME ( 9, 2, 2.000000000000000000, #107 ) ;
#147 = VERTEX_POINT ( 'NONE', #191 ) ;
#148 = AXIS2_PLACEMENT_3D ( 'NONE', #172, #64, #95 ) ;
#149 = CARTESIAN_POINT ( 'NONE',  ( 4.715636216983393000, -4.689292653107409900, 1.241832108220027700 ) ) ;
#150 = PERSON_AND_ORGANIZATION ( #45, #219 ) ;
#151 = AXIS2_PLACEMENT_3D ( 'NONE', #80, #118, #97 ) ;
#152 = APPROVAL ( #102, 'UNSPECIFIED' ) ;
#153 = CARTESIAN_POINT ( 'NONE',  ( 5.329070518200749800E-015, 4.689292653107406400, 1.241832108220029400 ) ) ;
#154 = DIRECTION ( 'NONE',  ( 0.0000000000000000000, 0.0000000000000000000, 1.000000000000000000 ) ) ;
#155 = CIRCLE ( 'NONE', #186, 12.69999999999999900 ) ;
#156 = EDGE_CURVE ( 'NONE', #41, #90, #83, .T. ) ;
#157 = DIRECTION ( 'NONE',  ( 1.000000000000000000, 0.0000000000000000000, 0.0000000000000000000 ) ) ;
#158 = CARTESIAN_POINT ( 'NONE',  ( -3.469446951953614200E-015, 4.689292653107406400, 1.241832108220027700 ) ) ;
#159 = CARTESIAN_POINT ( 'NONE',  ( -7.691938692870672300, 12.83862458710550700, -4.395203038700845600 ) ) ;
#160 = APPLICATION_PROTOCOL_DEFINITION ( 'international standard', 'config_control_design', 1994, #177 ) ;
#161 = CARTESIAN_POINT ( 'NONE',  ( 0.0000000000000000000, 0.0000000000000000000, 0.0000000000000000000 ) ) ;
#162 = DIRECTION ( 'NONE',  ( 0.0000000000000000000, 0.0000000000000000000, 1.000000000000000000 ) ) ;
#163 = DIRECTION ( 'NONE',  ( 1.000000000000000000, 0.0000000000000000000, 0.0000000000000000000 ) ) ;
#164 = AXIS2_PLACEMENT_3D ( 'NONE', #25, #154, #42 ) ;
#165 = LOCAL_TIME ( 9, 2, 2.000000000000000000, #211 ) ;
#166 = ORIENTED_EDGE ( 'NONE', *, *, #214, .T. ) ;
#167 = ORIENTED_EDGE ( 'NONE', *, *, #226, .T. ) ;
#168 = CARTESIAN_POINT ( 'NONE',  ( 11.09568781962754600, 12.83862458710550800, -6.320136837359468600 ) ) ;
#169 = DIRECTION ( 'NONE',  ( 1.000000000000000000, 0.0000000000000000000, -0.0000000000000000000 ) ) ;
#170 = CYLINDRICAL_SURFACE ( 'NONE', #183, 12.69999999999999900 ) ;
#171 = DIRECTION ( 'NONE',  ( 1.000000000000000000, 0.0000000000000000000, 0.0000000000000000000 ) ) ;
#172 = CARTESIAN_POINT ( 'NONE',  ( 5.329070518200749800E-015, -3.552713678800500100E-015, -25.94000000000000100 ) ) ;
#173 = ORIENTED_EDGE ( 'NONE', *, *, #140, .T. ) ;
#174 = APPROVAL_DATE_TIME ( #38, #24 ) ;
#175 = EDGE_CURVE ( 'NONE', #147, #184, #200, .T. ) ;
#176 = SECURITY_CLASSIFICATION_LEVEL ( 'unclassified' ) ;
#177 = APPLICATION_CONTEXT ( 'configuration controlled 3d designs of mechanical parts and assemblies' ) ;
#178 = EDGE_CURVE ( 'NONE', #23, #90, #220, .T. ) ;
#179 = ORIENTED_EDGE ( 'NONE', *, *, #175, .T. ) ;
#180 = PERSON_AND_ORGANIZATION ( #45, #219 ) ;
#181 = CIRCLE ( 'NONE', #164, 12.69999999999999900 ) ;
#182 =( BOUNDED_SURFACE ( )  B_SPLINE_SURFACE ( 3, 3, ( 
 ( #9, #159, #82, #212 ),
 ( #133, #77, #98, #158 ),
 ( #193, #115, #63, #195 ),
 ( #131, #213, #194, #101 ) ),
 .UNSPECIFIED., .F., .F., .F. ) 
 B_SPLINE_SURFACE_WITH_KNOTS ( ( 4, 4 ),
 ( 4, 4 ),
 ( 0.0000000000000000000, 1.000000000000000000 ),
 ( 0.0000000000000000000, 1.000000000000000000 ),
 .UNSPECIFIED. ) 
 GEOMETRIC_REPRESENTATION_ITEM ( )  RATIONAL_B_SPLINE_SURFACE ( (
 ( 1.000000000000000000, 0.9780460144965011900, 0.9780460144965011900, 1.000000000000000000),
 ( 0.9126198438903762000, 0.8925842010674015500, 0.8925842010674015500, 0.9126198438903762000),
 ( 0.9126198438903762000, 0.8925842010674015500, 0.8925842010674015500, 0.9126198438903762000),
 ( 1.000000000000000000, 0.9780460144965011900, 0.9780460144965011900, 1.000000000000000000) ) ) 
 REPRESENTATION_ITEM ( '' )  SURFACE ( )  );
#183 = AXIS2_PLACEMENT_3D ( 'NONE', #114, #26, #157 ) ;
#184 = VERTEX_POINT ( 'NONE', #117 ) ;
#185 = CARTESIAN_POINT ( 'NONE',  ( 12.69999999999999900, 2.442490654175340100E-015, -3.321565040878709900 ) ) ;
#186 = AXIS2_PLACEMENT_3D ( 'NONE', #43, #162, #105 ) ;
#187 = CALENDAR_DATE ( 2019, 15, 1 ) ;
#188 = ORIENTED_EDGE ( 'NONE', *, *, #178, .F. ) ;
#189 = CARTESIAN_POINT ( 'NONE',  ( 5.329070518200749800E-015, 12.83862458710550800, -3.399961874225459400 ) ) ;
#190 = DIRECTION ( 'NONE',  ( 0.0000000000000000000, 0.0000000000000000000, 1.000000000000000000 ) ) ;
#191 = CARTESIAN_POINT ( 'NONE',  ( 12.69999999999999900, 2.442490654175340100E-015, 2.799999999999999800 ) ) ;
#192 = CIRCLE ( 'NONE', #71, 12.69999999999999900 ) ;
#193 = CARTESIAN_POINT ( 'NONE',  ( -13.38068381940565700, -4.689292653107409900, -2.279710540981187500 ) ) ;
#194 = CARTESIAN_POINT ( 'NONE',  ( -3.910355258428132700, -12.83862458710551000, -3.399961874225462000 ) ) ;
#195 = CARTESIAN_POINT ( 'NONE',  ( -1.734723475976807100E-015, -4.689292653107409900, 1.241832108220026100 ) ) ;
#196 = LOCAL_TIME ( 9, 2, 2.000000000000000000, #60 ) ;
#197 = ADVANCED_FACE ( 'NONE', ( #29 ), #182, .F. ) ;
#198 = DATE_TIME_ROLE ( 'classification_date' ) ;
#199 = PRODUCT_DEFINITION ( 'UNKNOWN', '', #81, #84 ) ;
#200 = CIRCLE ( 'NONE', #132, 12.69999999999999900 ) ;
#201 = EDGE_CURVE ( 'NONE', #41, #184, #72, .T. ) ;
#202 = PERSON_AND_ORGANIZATION ( #45, #219 ) ;
#203 = CARTESIAN_POINT ( 'NONE',  ( 5.329070518200749800E-015, -12.83862458710551200, -3.399961874225459400 ) ) ;
#204 = CARTESIAN_POINT ( 'NONE',  ( 5.329070518200749800E-015, 12.69999999999999600, -3.321565040878709400 ) ) ;
#205 = ORIENTED_EDGE ( 'NONE', *, *, #156, .F. ) ;
#206 = DIRECTION ( 'NONE',  ( -0.0000000000000000000, -0.0000000000000000000, -1.000000000000000000 ) ) ;
#207 = CC_DESIGN_APPROVAL ( #152, ( #11 ) ) ;
#208 = DIRECTION ( 'NONE',  ( 1.000000000000000000, 0.0000000000000000000, 0.0000000000000000000 ) ) ;
#209 = DIRECTION ( 'NONE',  ( -0.0000000000000000000, -0.0000000000000000000, -1.000000000000000000 ) ) ;
#210 = DATE_AND_TIME ( #122, #19 ) ;
#211 = COORDINATED_UNIVERSAL_TIME_OFFSET ( 2, 0, .AHEAD. ) ;
#212 = CARTESIAN_POINT ( 'NONE',  ( -1.734723475976807100E-015, 12.83862458710550800, -3.399961874225461100 ) ) ;
#213 = CARTESIAN_POINT ( 'NONE',  ( -7.691938692870672300, -12.83862458710551000, -4.395203038700845600 ) ) ;
#214 = EDGE_CURVE ( 'NONE', #39, #23, #181, .T. ) ;
#215 = PRODUCT_DEFINITION_SHAPE ( 'NONE', 'NONE',  #199 ) ;
#216 = APPROVAL_ROLE ( '' ) ;
#217 = UNCERTAINTY_MEASURE_WITH_UNIT (LENGTH_MEASURE( 1.000000000000000100E-005 ), #52, 'distance_accuracy_value', 'NONE');
#218 = ORIENTED_EDGE ( 'NONE', *, *, #15, .T. ) ;
#219 = ORGANIZATION ( 'UNSPECIFIED', 'UNSPECIFIED', '' ) ;
#220 = CIRCLE ( 'NONE', #148, 25.94000000000000100 ) ;
#221 = CARTESIAN_POINT ( 'NONE',  ( 13.38068381940565200, -4.689292653107409900, -2.279710540981178200 ) ) ;
#222 = PLANE ( 'NONE',  #27 ) ;
#223 = DATE_AND_TIME ( #88, #196 ) ;
#224 = CARTESIAN_POINT ( 'NONE',  ( 13.38068381940565600, 4.689292653107406400, -2.279710540981176900 ) ) ;
#225 = CC_DESIGN_PERSON_AND_ORGANIZATION_ASSIGNMENT ( #125, #135, ( #81 ) ) ;
#226 = EDGE_CURVE ( 'NONE', #23, #41, #155, .T. ) ;
#227 = ORIENTED_EDGE ( 'NONE', *, *, #156, .T. ) ;
#228 = CARTESIAN_POINT ( 'NONE',  ( -12.69999999999999900, 3.997792089092478900E-015, -3.321565040878709900 ) ) ;
#229 = SHAPE_DEFINITION_REPRESENTATION ( #215, #17 ) ;
#230 = LINE ( 'NONE', #134, #35 ) ;
#231 = APPROVAL ( #48, 'UNSPECIFIED' ) ;
#232 = ADVANCED_FACE ( 'NONE', ( #47 ), #170, .T. ) ;
#233 = CC_DESIGN_DATE_AND_TIME_ASSIGNMENT ( #210, #198, ( #11 ) ) ;
#234 = CYLINDRICAL_SURFACE ( 'NONE', #59, 12.69999999999999900 ) ;
#235 = CC_DESIGN_APPROVAL ( #231, ( #81 ) ) ;
ENDSEC;
END-ISO-10303-21;
