ISO-10303-21;
HEADER;
FILE_DESCRIPTION (( 'STEP AP203' ),
    '1' );
FILE_NAME ('112-0207E BK7 pl-cv 25.4 F-40.STEP',
    '2019-01-15T06:47:55',
    ( '' ),
    ( '' ),
    'SwSTEP 2.0',
    'SolidWorks 2017',
    '' );
FILE_SCHEMA (( 'CONFIG_CONTROL_DESIGN' ));
ENDSEC;

DATA;
#1 = PERSON_AND_ORGANIZATION ( #70, #185 ) ;
#2 = CARTESIAN_POINT ( 'NONE',  ( -12.69999999999999900, 3.997792089092478900E-015, -4.340475326810950400 ) ) ;
#3 = AXIS2_PLACEMENT_3D ( 'NONE', #149, #188, #150 ) ;
#4 = CARTESIAN_POINT ( 'NONE',  ( 12.69999999999999900, 2.442490654175340100E-015, -4.340475326810950400 ) ) ;
#5 = DIRECTION ( 'NONE',  ( 1.000000000000000000, 0.0000000000000000000, 0.0000000000000000000 ) ) ;
#6 = FACE_OUTER_BOUND ( 'NONE', #109, .T. ) ;
#7 = CARTESIAN_POINT ( 'NONE',  ( 12.69999999999999900, 2.442490654175340100E-015, -4.340475326810950400 ) ) ;
#8 = DATE_AND_TIME ( #47, #178 ) ;
#9 = DIRECTION ( 'NONE',  ( 1.000000000000000000, 0.0000000000000000000, 0.0000000000000000000 ) ) ;
#10 = APPROVAL_STATUS ( 'not_yet_approved' ) ;
#11 = EDGE_LOOP ( 'NONE', ( #162, #180, #184 ) ) ;
#12 = DIRECTION ( 'NONE',  ( 1.000000000000000000, 0.0000000000000000000, 0.0000000000000000000 ) ) ;
#13 = CLOSED_SHELL ( 'NONE', ( #18, #217, #31, #123, #216 ) ) ;
#14 = PRODUCT_DEFINITION_FORMATION_WITH_SPECIFIED_SOURCE ( 'ANY', '', #91, .NOT_KNOWN. ) ;
#15 = CARTESIAN_POINT ( 'NONE',  ( -6.938893903907228400E-015, 12.82929916921615300, -4.441364777310473000 ) ) ;
#16 = CARTESIAN_POINT ( 'NONE',  ( 5.057419559607077500, 4.988225096385556300, 1.726869640513387400 ) ) ;
#17 = ORIENTED_EDGE ( 'NONE', *, *, #201, .F. ) ;
#18 = ADVANCED_FACE ( 'NONE', ( #6 ), #183, .F. ) ;
#19 = VERTEX_POINT ( 'NONE', #193 ) ;
#20 = CARTESIAN_POINT ( 'NONE',  ( 4.996003610813200500E-016, 2.442490654175340100E-015, -4.340475326810950400 ) ) ;
#21 = CARTESIAN_POINT ( 'NONE',  ( 4.996003610813200500E-016, 2.442490654175340100E-015, -4.340475326810950400 ) ) ;
#22 = CALENDAR_DATE ( 2019, 15, 1 ) ;
#23 = DIRECTION ( 'NONE',  ( 0.0000000000000000000, 0.0000000000000000000, 1.000000000000000000 ) ) ;
#24 =( LENGTH_UNIT ( ) NAMED_UNIT ( * ) SI_UNIT ( .MILLI., .METRE. ) );
#25 = EDGE_LOOP ( 'NONE', ( #210, #44 ) ) ;
#26 = PERSON_AND_ORGANIZATION_ROLE ( 'creator' ) ;
#27 = CIRCLE ( 'NONE', #68, 12.69999999999999900 ) ;
#28 = COORDINATED_UNIVERSAL_TIME_OFFSET ( 2, 0, .AHEAD. ) ;
#29 = COORDINATED_UNIVERSAL_TIME_OFFSET ( 2, 0, .AHEAD. ) ;
#30 = EDGE_CURVE ( 'NONE', #232, #58, #114, .T. ) ;
#31 = ADVANCED_FACE ( 'NONE', ( #145 ), #146, .F. ) ;
#32 = VECTOR ( 'NONE', #225, 1000.000000000000000 ) ;
#33 = DIRECTION ( 'NONE',  ( 1.000000000000000000, 0.0000000000000000000, 0.0000000000000000000 ) ) ;
#34 = PERSON_AND_ORGANIZATION ( #70, #185 ) ;
#35 = AXIS2_PLACEMENT_3D ( 'NONE', #134, #112, #152 ) ;
#36 = PLANE ( 'NONE',  #87 ) ;
#37 = FACE_OUTER_BOUND ( 'NONE', #46, .T. ) ;
#38 = CARTESIAN_POINT ( 'NONE',  ( 3.669532816841262000, 12.82929916921615800, -4.441364777310473000 ) ) ;
#39 = DIRECTION ( 'NONE',  ( 1.000000000000000000, 0.0000000000000000000, 0.0000000000000000000 ) ) ;
#40 = EDGE_CURVE ( 'NONE', #192, #232, #200, .T. ) ;
#41 = APPLICATION_PROTOCOL_DEFINITION ( 'international standard', 'config_control_design', 1994, #167 ) ;
#42 = CC_DESIGN_PERSON_AND_ORGANIZATION_ASSIGNMENT ( #49, #94, ( #14 ) ) ;
#43 = APPROVAL_STATUS ( 'not_yet_approved' ) ;
#44 = ORIENTED_EDGE ( 'NONE', *, *, #166, .F. ) ;
#45 = CARTESIAN_POINT ( 'NONE',  ( -3.669532816841272600, 12.82929916921615500, -4.441364777310473900 ) ) ;
#46 = EDGE_LOOP ( 'NONE', ( #148, #95, #189, #197, #194 ) ) ;
#47 = CALENDAR_DATE ( 2019, 15, 1 ) ;
#48 = CARTESIAN_POINT ( 'NONE',  ( 3.669532816841260200, -12.82929916921617100, -4.441364777310473000 ) ) ;
#49 = PERSON_AND_ORGANIZATION ( #70, #185 ) ;
#50 = CC_DESIGN_DATE_AND_TIME_ASSIGNMENT ( #154, #226, ( #74 ) ) ;
#51 = AXIS2_PLACEMENT_3D ( 'NONE', #115, #138, #155 ) ;
#52 = ADVANCED_BREP_SHAPE_REPRESENTATION ( '112-0207E BK7 pl-cv 25.4 F-40', ( #227, #208 ), #224 ) ;
#53 = CARTESIAN_POINT ( 'NONE',  ( 4.996003610813200500E-016, 2.442490654175340100E-015, -4.340475326810950400 ) ) ;
#54 = DIRECTION ( 'NONE',  ( 0.0000000000000000000, 0.0000000000000000000, 1.000000000000000000 ) ) ;
#55 = PERSON_AND_ORGANIZATION ( #70, #185 ) ;
#56 = CC_DESIGN_APPROVAL ( #182, ( #63 ) ) ;
#57 =( NAMED_UNIT ( * ) PLANE_ANGLE_UNIT ( ) SI_UNIT ( $, .RADIAN. ) );
#58 = VERTEX_POINT ( 'NONE', #205 ) ;
#59 = MECHANICAL_CONTEXT ( 'NONE', #167, 'mechanical' ) ;
#60 = CARTESIAN_POINT ( 'NONE',  ( -3.552713678800500100E-015, 12.82929916921615600, -4.441364777310473000 ) ) ;
#61 = APPROVAL_ROLE ( '' ) ;
#62 = ORIENTED_EDGE ( 'NONE', *, *, #166, .T. ) ;
#63 = PRODUCT_DEFINITION ( 'UNKNOWN', '', #14, #199 ) ;
#64 = PERSON_AND_ORGANIZATION ( #70, #185 ) ;
#65 = ORIENTED_EDGE ( 'NONE', *, *, #76, .T. ) ;
#66 = CARTESIAN_POINT ( 'NONE',  ( -5.057419559607086300, 4.988225096385552800, 1.726869640513382500 ) ) ;
#67 = LOCAL_TIME ( 8, 47, 55.00000000000000000, #29 ) ;
#68 = AXIS2_PLACEMENT_3D ( 'NONE', #88, #72, #39 ) ;
#69 = ORIENTED_EDGE ( 'NONE', *, *, #76, .F. ) ;
#70 = PERSON ( 'UNSPECIFIED', 'UNSPECIFIED', 'UNSPECIFIED', ('UNSPECIFIED'), ('UNSPECIFIED'), ('UNSPECIFIED') ) ;
#71 = PERSON_AND_ORGANIZATION ( #70, #185 ) ;
#72 = DIRECTION ( 'NONE',  ( -0.0000000000000000000, -0.0000000000000000000, -1.000000000000000000 ) ) ;
#73 = CARTESIAN_POINT ( 'NONE',  ( 4.996003610813200500E-016, 2.442490654175340100E-015, -4.340475326810950400 ) ) ;
#74 = SECURITY_CLASSIFICATION ( '', '', #78 ) ;
#75 = CARTESIAN_POINT ( 'NONE',  ( -3.552713678800500100E-015, -12.69999999999999900, -4.340475326810949500 ) ) ;
#76 = EDGE_CURVE ( 'NONE', #58, #19, #158, .T. ) ;
#77 = APPROVAL_STATUS ( 'not_yet_approved' ) ;
#78 = SECURITY_CLASSIFICATION_LEVEL ( 'unclassified' ) ;
#79 = APPROVAL_PERSON_ORGANIZATION ( #1, #113, #209 ) ;
#80 = APPROVAL_PERSON_ORGANIZATION ( #153, #119, #116 ) ;
#81 = CARTESIAN_POINT ( 'NONE',  ( -7.139517586413066200, 12.82929916921615500, -5.634963031671966300 ) ) ;
#82 = CARTESIAN_POINT ( 'NONE',  ( -10.03256093501669700, -12.82929916921617100, -7.892344540627697700 ) ) ;
#83 = FACE_OUTER_BOUND ( 'NONE', #25, .T. ) ;
#84 = CC_DESIGN_PERSON_AND_ORGANIZATION_ASSIGNMENT ( #55, #26, ( #63 ) ) ;
#85 = EDGE_CURVE ( 'NONE', #19, #104, #86, .T. ) ;
#86 = LINE ( 'NONE', #2, #151 ) ;
#87 = AXIS2_PLACEMENT_3D ( 'NONE', #165, #54, #187 ) ;
#88 = CARTESIAN_POINT ( 'NONE',  ( 4.996003610813200500E-016, 2.442490654175340100E-015, 1.700000000000000200 ) ) ;
#89 = PRODUCT_DEFINITION_SHAPE ( 'NONE', 'NONE',  #63 ) ;
#90 = CC_DESIGN_SECURITY_CLASSIFICATION ( #74, ( #14 ) ) ;
#91 = PRODUCT ( '112-0207E BK7 pl-cv 25.4 F-40', '112-0207E BK7 pl-cv 25.4 F-40', '', ( #59 ) ) ;
#92 = ORIENTED_EDGE ( 'NONE', *, *, #102, .F. ) ;
#93 = CARTESIAN_POINT ( 'NONE',  ( 4.996003610813200500E-016, 2.442490654175340100E-015, 1.700000000000000200 ) ) ;
#94 = PERSON_AND_ORGANIZATION_ROLE ( 'design_supplier' ) ;
#95 = ORIENTED_EDGE ( 'NONE', *, *, #201, .T. ) ;
#96 = CARTESIAN_POINT ( 'NONE',  ( 10.03256093501669200, 12.82929916921615600, -7.892344540627694200 ) ) ;
#97 = UNCERTAINTY_MEASURE_WITH_UNIT (LENGTH_MEASURE( 1.000000000000000100E-005 ), #24, 'distance_accuracy_value', 'NONE');
#98 = EDGE_CURVE ( 'NONE', #120, #104, #139, .T. ) ;
#99 = CIRCLE ( 'NONE', #35, 20.75000000000000000 ) ;
#100 = CARTESIAN_POINT ( 'NONE',  ( -6.938893903907228400E-015, 4.988225096385553700, 1.726869640513383400 ) ) ;
#101 = CARTESIAN_POINT ( 'NONE',  ( -1.040834085586084300E-014, -12.82929916921617100, -4.441364777310476500 ) ) ;
#102 = EDGE_CURVE ( 'NONE', #232, #120, #219, .T. ) ;
#103 = CARTESIAN_POINT ( 'NONE',  ( -10.03256093501670200, 12.82929916921615300, -7.892344540627696000 ) ) ;
#104 = VERTEX_POINT ( 'NONE', #131 ) ;
#105 = LOCAL_TIME ( 8, 47, 55.00000000000000000, #195 ) ;
#106 = CARTESIAN_POINT ( 'NONE',  ( 7.139517586413051100, -12.82929916921617100, -5.634963031671965400 ) ) ;
#107 = DIRECTION ( 'NONE',  ( 1.000000000000000000, 0.0000000000000000000, 0.0000000000000000000 ) ) ;
#108 = DIRECTION ( 'NONE',  ( -0.0000000000000000000, -0.0000000000000000000, -1.000000000000000000 ) ) ;
#109 = EDGE_LOOP ( 'NONE', ( #69, #170, #17 ) ) ;
#110 = APPROVAL_DATE_TIME ( #213, #182 ) ;
#111 = DIRECTION ( 'NONE',  ( 0.0000000000000000000, 0.0000000000000000000, 1.000000000000000000 ) ) ;
#112 = DIRECTION ( 'NONE',  ( 1.000000000000000000, 0.0000000000000000000, 0.0000000000000000000 ) ) ;
#113 = APPROVAL ( #43, 'UNSPECIFIED' ) ;
#114 = CIRCLE ( 'NONE', #51, 12.69999999999999900 ) ;
#115 = CARTESIAN_POINT ( 'NONE',  ( 4.996003610813200500E-016, 2.442490654175340100E-015, -4.340475326810950400 ) ) ;
#116 = APPROVAL_ROLE ( '' ) ;
#117 = SHAPE_DEFINITION_REPRESENTATION ( #89, #52 ) ;
#118 = COORDINATED_UNIVERSAL_TIME_OFFSET ( 2, 0, .AHEAD. ) ;
#119 = APPROVAL ( #10, 'UNSPECIFIED' ) ;
#120 = VERTEX_POINT ( 'NONE', #221 ) ;
#121 = CARTESIAN_POINT ( 'NONE',  ( -13.82706530728872900, -4.988225096385574100, -3.029335965472269800 ) ) ;
#122 = CARTESIAN_POINT ( 'NONE',  ( 9.839818224807562100, -4.988225096385569700, 0.08182994221279241100 ) ) ;
#123 = ADVANCED_FACE ( 'NONE', ( #37 ), #174, .T. ) ;
#124 = APPROVAL_DATE_TIME ( #168, #119 ) ;
#125 = AXIS2_PLACEMENT_3D ( 'NONE', #93, #108, #33 ) ;
#126 = APPROVAL_DATE_TIME ( #8, #113 ) ;
#127 = AXIS2_PLACEMENT_3D ( 'NONE', #73, #137, #186 ) ;
#128 = CARTESIAN_POINT ( 'NONE',  ( 10.03256093501668600, -12.82929916921617100, -7.892344540627692400 ) ) ;
#129 = COORDINATED_UNIVERSAL_TIME_OFFSET ( 2, 0, .AHEAD. ) ;
#130 = AXIS2_PLACEMENT_3D ( 'NONE', #20, #111, #5 ) ;
#131 = CARTESIAN_POINT ( 'NONE',  ( -12.69999999999999900, 3.997792089092478900E-015, 1.700000000000000200 ) ) ;
#132 = CALENDAR_DATE ( 2019, 15, 1 ) ;
#133 = CARTESIAN_POINT ( 'NONE',  ( 0.0000000000000000000, 0.0000000000000000000, 0.0000000000000000000 ) ) ;
#134 = CARTESIAN_POINT ( 'NONE',  ( -3.552713678800500100E-015, -8.881784197001250700E-015, -20.75000000000000000 ) ) ;
#135 = EDGE_LOOP ( 'NONE', ( #203, #65, #235, #62, #92 ) ) ;
#136 = CC_DESIGN_APPROVAL ( #119, ( #14 ) ) ;
#137 = DIRECTION ( 'NONE',  ( 0.0000000000000000000, 0.0000000000000000000, 1.000000000000000000 ) ) ;
#138 = DIRECTION ( 'NONE',  ( 0.0000000000000000000, 0.0000000000000000000, 1.000000000000000000 ) ) ;
#139 = CIRCLE ( 'NONE', #125, 12.69999999999999900 ) ;
#140 = PRODUCT_RELATED_PRODUCT_CATEGORY ( 'detail', '', ( #91 ) ) ;
#141 = DATE_TIME_ROLE ( 'creation_date' ) ;
#142 = PERSON_AND_ORGANIZATION_ROLE ( 'creator' ) ;
#143 = CC_DESIGN_APPROVAL ( #113, ( #74 ) ) ;
#144 = CARTESIAN_POINT ( 'NONE',  ( -9.839818224807572700, -4.988225096385573200, 0.08182994221278547300 ) ) ;
#145 = FACE_OUTER_BOUND ( 'NONE', #11, .T. ) ;
#146 =( BOUNDED_SURFACE ( )  B_SPLINE_SURFACE ( 3, 3, ( 
 ( #60, #38, #211, #96 ),
 ( #156, #16, #160, #172 ),
 ( #234, #175, #122, #215 ),
 ( #177, #48, #106, #128 ) ),
 .UNSPECIFIED., .F., .F., .F. ) 
 B_SPLINE_SURFACE_WITH_KNOTS ( ( 4, 4 ),
 ( 4, 4 ),
 ( 0.0000000000000000000, 1.000000000000000000 ),
 ( 0.0000000000000000000, 1.000000000000000000 ),
 .UNSPECIFIED. ) 
 GEOMETRIC_REPRESENTATION_ITEM ( )  RATIONAL_B_SPLINE_SURFACE ( (
 ( 1.000000000000000000, 0.9637468751056171800, 0.9637468751056171800, 1.000000000000000000),
 ( 0.8573055493233582300, 0.8262255441710910600, 0.8262255441710910600, 0.8573055493233582300),
 ( 0.8573055493233582300, 0.8262255441710910600, 0.8262255441710910600, 0.8573055493233582300),
 ( 1.000000000000000000, 0.9637468751056171800, 0.9637468751056171800, 1.000000000000000000) ) ) 
 REPRESENTATION_ITEM ( '' )  SURFACE ( )  );
#147 = AXIS2_PLACEMENT_3D ( 'NONE', #53, #164, #9 ) ;
#148 = ORIENTED_EDGE ( 'NONE', *, *, #85, .F. ) ;
#149 = CARTESIAN_POINT ( 'NONE',  ( 4.996003610813200500E-016, 2.442490654175340100E-015, -4.340475326810950400 ) ) ;
#150 = DIRECTION ( 'NONE',  ( 1.000000000000000000, 0.0000000000000000000, 0.0000000000000000000 ) ) ;
#151 = VECTOR ( 'NONE', #223, 1000.000000000000000 ) ;
#152 = DIRECTION ( 'NONE',  ( 0.0000000000000000000, 1.000000000000000000, -3.344045254895050000E-016 ) ) ;
#153 = PERSON_AND_ORGANIZATION ( #70, #185 ) ;
#154 = DATE_AND_TIME ( #202, #105 ) ;
#155 = DIRECTION ( 'NONE',  ( 1.000000000000000000, 0.0000000000000000000, 0.0000000000000000000 ) ) ;
#156 = CARTESIAN_POINT ( 'NONE',  ( -3.552713678800500900E-015, 4.988225096385556300, 1.726869640513388100 ) ) ;
#157 = CC_DESIGN_PERSON_AND_ORGANIZATION_ASSIGNMENT ( #181, #191, ( #91 ) ) ;
#158 = CIRCLE ( 'NONE', #127, 12.69999999999999900 ) ;
#159 = PERSON_AND_ORGANIZATION_ROLE ( 'classification_officer' ) ;
#160 = CARTESIAN_POINT ( 'NONE',  ( 9.839818224807562100, 4.988225096385555400, 0.08182994221279504800 ) ) ;
#161 = CARTESIAN_POINT ( 'NONE',  ( -7.139517586413062700, -12.82929916921617100, -5.634963031671969000 ) ) ;
#162 = ORIENTED_EDGE ( 'NONE', *, *, #233, .F. ) ;
#163 = CC_DESIGN_PERSON_AND_ORGANIZATION_ASSIGNMENT ( #71, #142, ( #14 ) ) ;
#164 = DIRECTION ( 'NONE',  ( 0.0000000000000000000, 0.0000000000000000000, 1.000000000000000000 ) ) ;
#165 = CARTESIAN_POINT ( 'NONE',  ( 0.0000000000000000000, 26.11199999999999800, 1.700000000000000000 ) ) ;
#166 = EDGE_CURVE ( 'NONE', #104, #120, #27, .T. ) ;
#167 = APPLICATION_CONTEXT ( 'configuration controlled 3d designs of mechanical parts and assemblies' ) ;
#168 = DATE_AND_TIME ( #222, #67 ) ;
#169 = CC_DESIGN_DATE_AND_TIME_ASSIGNMENT ( #206, #141, ( #63 ) ) ;
#170 = ORIENTED_EDGE ( 'NONE', *, *, #233, .T. ) ;
#171 = CARTESIAN_POINT ( 'NONE',  ( -5.057419559607089900, -4.988225096385573200, 1.726869640513377200 ) ) ;
#172 = CARTESIAN_POINT ( 'NONE',  ( 13.82706530728872500, 4.988225096385553700, -3.029335965472260000 ) ) ;
#173 = CARTESIAN_POINT ( 'NONE',  ( -3.669532816841273500, -12.82929916921617100, -4.441364777310478300 ) ) ;
#174 = CYLINDRICAL_SURFACE ( 'NONE', #147, 12.69999999999999900 ) ;
#175 = CARTESIAN_POINT ( 'NONE',  ( 5.057419559607073900, -4.988225096385569700, 1.726869640513385200 ) ) ;
#176 = LOCAL_TIME ( 8, 47, 55.00000000000000000, #118 ) ;
#177 = CARTESIAN_POINT ( 'NONE',  ( -3.552713678800500100E-015, -12.82929916921616900, -4.441364777310473000 ) ) ;
#178 = LOCAL_TIME ( 8, 47, 55.00000000000000000, #129 ) ;
#179 = CC_DESIGN_PERSON_AND_ORGANIZATION_ASSIGNMENT ( #64, #159, ( #74 ) ) ;
#180 = ORIENTED_EDGE ( 'NONE', *, *, #30, .F. ) ;
#181 = PERSON_AND_ORGANIZATION ( #70, #185 ) ;
#182 = APPROVAL ( #77, 'UNSPECIFIED' ) ;
#183 =( BOUNDED_SURFACE ( )  B_SPLINE_SURFACE ( 3, 3, ( 
 ( #103, #81, #45, #15 ),
 ( #214, #198, #66, #100 ),
 ( #121, #144, #171, #196 ),
 ( #82, #161, #173, #101 ) ),
 .UNSPECIFIED., .F., .F., .F. ) 
 B_SPLINE_SURFACE_WITH_KNOTS ( ( 4, 4 ),
 ( 4, 4 ),
 ( 0.0000000000000000000, 1.000000000000000000 ),
 ( 0.0000000000000000000, 1.000000000000000000 ),
 .UNSPECIFIED. ) 
 GEOMETRIC_REPRESENTATION_ITEM ( )  RATIONAL_B_SPLINE_SURFACE ( (
 ( 1.000000000000000000, 0.9637468751056171800, 0.9637468751056171800, 1.000000000000000000),
 ( 0.8573055493233582300, 0.8262255441710910600, 0.8262255441710910600, 0.8573055493233582300),
 ( 0.8573055493233582300, 0.8262255441710910600, 0.8262255441710910600, 0.8573055493233582300),
 ( 1.000000000000000000, 0.9637468751056171800, 0.9637468751056171800, 1.000000000000000000) ) ) 
 REPRESENTATION_ITEM ( '' )  SURFACE ( )  );
#184 = ORIENTED_EDGE ( 'NONE', *, *, #40, .F. ) ;
#185 = ORGANIZATION ( 'UNSPECIFIED', 'UNSPECIFIED', '' ) ;
#186 = DIRECTION ( 'NONE',  ( 1.000000000000000000, 0.0000000000000000000, 0.0000000000000000000 ) ) ;
#187 = DIRECTION ( 'NONE',  ( 1.000000000000000000, 0.0000000000000000000, -0.0000000000000000000 ) ) ;
#188 = DIRECTION ( 'NONE',  ( 0.0000000000000000000, 0.0000000000000000000, 1.000000000000000000 ) ) ;
#189 = ORIENTED_EDGE ( 'NONE', *, *, #40, .T. ) ;
#190 =( NAMED_UNIT ( * ) SI_UNIT ( $, .STERADIAN. ) SOLID_ANGLE_UNIT ( ) );
#191 = PERSON_AND_ORGANIZATION_ROLE ( 'design_owner' ) ;
#192 = VERTEX_POINT ( 'NONE', #75 ) ;
#193 = CARTESIAN_POINT ( 'NONE',  ( -12.69999999999999900, 3.997792089092478900E-015, -4.340475326810950400 ) ) ;
#194 = ORIENTED_EDGE ( 'NONE', *, *, #98, .T. ) ;
#195 = COORDINATED_UNIVERSAL_TIME_OFFSET ( 2, 0, .AHEAD. ) ;
#196 = CARTESIAN_POINT ( 'NONE',  ( -1.214306433183765000E-014, -4.988225096385572300, 1.726869640513379000 ) ) ;
#197 = ORIENTED_EDGE ( 'NONE', *, *, #102, .T. ) ;
#198 = CARTESIAN_POINT ( 'NONE',  ( -9.839818224807574500, 4.988225096385552800, 0.08182994221278938600 ) ) ;
#199 = DESIGN_CONTEXT ( 'detailed design', #231, 'design' ) ;
#200 = CIRCLE ( 'NONE', #230, 12.69999999999999900 ) ;
#201 = EDGE_CURVE ( 'NONE', #19, #192, #228, .T. ) ;
#202 = CALENDAR_DATE ( 2019, 15, 1 ) ;
#203 = ORIENTED_EDGE ( 'NONE', *, *, #30, .T. ) ;
#204 = FACE_OUTER_BOUND ( 'NONE', #135, .T. ) ;
#205 = CARTESIAN_POINT ( 'NONE',  ( -3.552713678800500100E-015, 12.69999999999999200, -4.340475326810949500 ) ) ;
#206 = DATE_AND_TIME ( #132, #176 ) ;
#207 = DIRECTION ( 'NONE',  ( 0.0000000000000000000, 0.0000000000000000000, 1.000000000000000000 ) ) ;
#208 = AXIS2_PLACEMENT_3D ( 'NONE', #133, #23, #12 ) ;
#209 = APPROVAL_ROLE ( '' ) ;
#210 = ORIENTED_EDGE ( 'NONE', *, *, #98, .F. ) ;
#211 = CARTESIAN_POINT ( 'NONE',  ( 7.139517586413056400, 12.82929916921615600, -5.634963031671965400 ) ) ;
#212 = APPLICATION_PROTOCOL_DEFINITION ( 'international standard', 'config_control_design', 1994, #231 ) ;
#213 = DATE_AND_TIME ( #22, #220 ) ;
#214 = CARTESIAN_POINT ( 'NONE',  ( -13.82706530728873400, 4.988225096385553700, -3.029335965472266200 ) ) ;
#215 = CARTESIAN_POINT ( 'NONE',  ( 13.82706530728871800, -4.988225096385571400, -3.029335965472260900 ) ) ;
#216 = ADVANCED_FACE ( 'NONE', ( #83 ), #36, .T. ) ;
#217 = ADVANCED_FACE ( 'NONE', ( #204 ), #218, .T. ) ;
#218 = CYLINDRICAL_SURFACE ( 'NONE', #130, 12.69999999999999900 ) ;
#219 = LINE ( 'NONE', #4, #32 ) ;
#220 = LOCAL_TIME ( 8, 47, 55.00000000000000000, #28 ) ;
#221 = CARTESIAN_POINT ( 'NONE',  ( 12.69999999999999900, 2.442490654175340100E-015, 1.700000000000000200 ) ) ;
#222 = CALENDAR_DATE ( 2019, 15, 1 ) ;
#223 = DIRECTION ( 'NONE',  ( 0.0000000000000000000, 0.0000000000000000000, 1.000000000000000000 ) ) ;
#224 =( GEOMETRIC_REPRESENTATION_CONTEXT ( 3 ) GLOBAL_UNCERTAINTY_ASSIGNED_CONTEXT ( ( #97 ) ) GLOBAL_UNIT_ASSIGNED_CONTEXT ( ( #24, #57, #190 ) ) REPRESENTATION_CONTEXT ( 'NONE', 'WORKASPACE' ) );
#225 = DIRECTION ( 'NONE',  ( 0.0000000000000000000, 0.0000000000000000000, 1.000000000000000000 ) ) ;
#226 = DATE_TIME_ROLE ( 'classification_date' ) ;
#227 = MANIFOLD_SOLID_BREP ( 'Imported1', #13 ) ;
#228 = CIRCLE ( 'NONE', #3, 12.69999999999999900 ) ;
#229 = APPROVAL_PERSON_ORGANIZATION ( #34, #182, #61 ) ;
#230 = AXIS2_PLACEMENT_3D ( 'NONE', #21, #207, #107 ) ;
#231 = APPLICATION_CONTEXT ( 'configuration controlled 3d designs of mechanical parts and assemblies' ) ;
#232 = VERTEX_POINT ( 'NONE', #7 ) ;
#233 = EDGE_CURVE ( 'NONE', #58, #192, #99, .T. ) ;
#234 = CARTESIAN_POINT ( 'NONE',  ( -3.552713678800500900E-015, -4.988225096385568800, 1.726869640513385200 ) ) ;
#235 = ORIENTED_EDGE ( 'NONE', *, *, #85, .T. ) ;
ENDSEC;
END-ISO-10303-21;
