ISO-10303-21;
HEADER;
FILE_DESCRIPTION (( 'STEP AP203' ),
    '1' );
FILE_NAME ('112-0205E BK7 pl-cv 25.4 F-30.STEP',
    '2019-01-14T14:29:12',
    ( '' ),
    ( '' ),
    'SwSTEP 2.0',
    'SolidWorks 2017',
    '' );
FILE_SCHEMA (( 'CONFIG_CONTROL_DESIGN' ));
ENDSEC;

DATA;
#1 = APPROVAL_STATUS ( 'not_yet_approved' ) ;
#2 = ORIENTED_EDGE ( 'NONE', *, *, #177, .T. ) ;
#3 = DIRECTION ( 'NONE',  ( 1.000000000000000000, 0.0000000000000000000, 0.0000000000000000000 ) ) ;
#4 = AXIS2_PLACEMENT_3D ( 'NONE', #119, #117, #85 ) ;
#5 = DIRECTION ( 'NONE',  ( 0.0000000000000000000, 0.0000000000000000000, 1.000000000000000000 ) ) ;
#6 = CARTESIAN_POINT ( 'NONE',  ( -6.843636205691245700E-015, -12.80216968358301000, -6.715903019937644400 ) ) ;
#7 = CARTESIAN_POINT ( 'NONE',  ( 5.559198448314963200, -12.80216968358301300, -8.077103439322677000 ) ) ;
#8 = CIRCLE ( 'NONE', #95, 12.69999999999999900 ) ;
#9 = AXIS2_PLACEMENT_3D ( 'NONE', #234, #34, #14 ) ;
#10 = CALENDAR_DATE ( 2019, 14, 1 ) ;
#11 = DIRECTION ( 'NONE',  ( 0.0000000000000000000, 0.0000000000000000000, 1.000000000000000000 ) ) ;
#12 = EDGE_LOOP ( 'NONE', ( #226, #164, #96, #26, #171 ) ) ;
#13 = APPROVAL_ROLE ( '' ) ;
#14 = DIRECTION ( 'NONE',  ( 1.000000000000000000, 0.0000000000000000000, 0.0000000000000000000 ) ) ;
#15 = PERSON_AND_ORGANIZATION_ROLE ( 'creator' ) ;
#16 = CIRCLE ( 'NONE', #113, 12.69999999999999900 ) ;
#17 = CARTESIAN_POINT ( 'NONE',  ( -11.75628805419324300, -5.991355816663561200, 0.2644193411945935400 ) ) ;
#18 = AXIS2_PLACEMENT_3D ( 'NONE', #74, #42, #136 ) ;
#19 = CIRCLE ( 'NONE', #9, 12.69999999999999900 ) ;
#20 = EDGE_LOOP ( 'NONE', ( #80, #2, #105 ) ) ;
#21 = CARTESIAN_POINT ( 'NONE',  ( 4.996003610813200500E-016, 2.442490654175340100E-015, -6.569805341373300000 ) ) ;
#22 = CARTESIAN_POINT ( 'NONE',  ( 15.32696644939349200, 5.991355816663562100, -4.841477106206696100 ) ) ;
#23 = APPROVAL_PERSON_ORGANIZATION ( #158, #228, #13 ) ;
#24 = CARTESIAN_POINT ( 'NONE',  ( 11.75628805419323100, 5.991355816663563900, 0.2644193411945978700 ) ) ;
#25 = DATE_AND_TIME ( #10, #193 ) ;
#26 = ORIENTED_EDGE ( 'NONE', *, *, #175, .T. ) ;
#27 = COORDINATED_UNIVERSAL_TIME_OFFSET ( 2, 0, .AHEAD. ) ;
#28 = DATE_AND_TIME ( #132, #144 ) ;
#29 = VERTEX_POINT ( 'NONE', #217 ) ;
#30 = APPROVAL_STATUS ( 'not_yet_approved' ) ;
#31 = APPROVAL_STATUS ( 'not_yet_approved' ) ;
#32 = CARTESIAN_POINT ( 'NONE',  ( 12.69999999999999900, 2.442490654175340100E-015, 1.399999999999999200 ) ) ;
#33 = AXIS2_PLACEMENT_3D ( 'NONE', #195, #100, #152 ) ;
#34 = DIRECTION ( 'NONE',  ( 0.0000000000000000000, 0.0000000000000000000, 1.000000000000000000 ) ) ;
#35 = APPROVAL_ROLE ( '' ) ;
#36 = CARTESIAN_POINT ( 'NONE',  ( -6.230563596781208500, 5.991355816663568300, 3.143011350197192600 ) ) ;
#37 = CARTESIAN_POINT ( 'NONE',  ( -6.938893903907228400E-015, -12.80216968358301000, -6.715903019937644400 ) ) ;
#38 = CARTESIAN_POINT ( 'NONE',  ( -8.673617379884035500E-015, -5.991355816663563000, 3.143011350197194800 ) ) ;
#39 = CC_DESIGN_APPROVAL ( #148, ( #135 ) ) ;
#40 = CARTESIAN_POINT ( 'NONE',  ( -15.32696644939350400, 5.991355816663569200, -4.841477106206702400 ) ) ;
#41 = VERTEX_POINT ( 'NONE', #92 ) ;
#42 = DIRECTION ( 'NONE',  ( 0.0000000000000000000, 0.0000000000000000000, 1.000000000000000000 ) ) ;
#43 = CIRCLE ( 'NONE', #218, 15.56000000000000000 ) ;
#44 = APPROVAL_PERSON_ORGANIZATION ( #147, #78, #47 ) ;
#45 = CYLINDRICAL_SURFACE ( 'NONE', #18, 12.69999999999999900 ) ;
#46 = CARTESIAN_POINT ( 'NONE',  ( 0.0000000000000000000, 0.0000000000000000000, 0.0000000000000000000 ) ) ;
#47 = APPROVAL_ROLE ( '' ) ;
#48 = APPROVAL_DATE_TIME ( #65, #78 ) ;
#49 = PERSON_AND_ORGANIZATION_ROLE ( 'design_owner' ) ;
#50 = ADVANCED_FACE ( 'NONE', ( #91 ), #231, .F. ) ;
#51 = DIRECTION ( 'NONE',  ( 0.0000000000000000000, 0.0000000000000000000, 1.000000000000000000 ) ) ;
#52 = PRODUCT ( '112-0205E BK7 pl-cv 25.4 F-30', '112-0205E BK7 pl-cv 25.4 F-30', '', ( #64 ) ) ;
#53 = VECTOR ( 'NONE', #102, 1000.000000000000000 ) ;
#54 = CARTESIAN_POINT ( 'NONE',  ( 4.996003610813200500E-016, 2.442490654175340100E-015, -6.569805341373300000 ) ) ;
#55 = CIRCLE ( 'NONE', #4, 12.69999999999999900 ) ;
#56 = CC_DESIGN_PERSON_AND_ORGANIZATION_ASSIGNMENT ( #75, #169, ( #156 ) ) ;
#57 = CARTESIAN_POINT ( 'NONE',  ( 4.996003610813200500E-016, 2.442490654175340100E-015, 1.399999999999999200 ) ) ;
#58 = DIRECTION ( 'NONE',  ( 0.0000000000000000000, 0.0000000000000000000, 1.000000000000000000 ) ) ;
#59 = EDGE_CURVE ( 'NONE', #202, #41, #198, .T. ) ;
#60 = PLANE ( 'NONE',  #232 ) ;
#61 = ORIENTED_EDGE ( 'NONE', *, *, #211, .T. ) ;
#62 = CYLINDRICAL_SURFACE ( 'NONE', #33, 12.69999999999999900 ) ;
#63 = CC_DESIGN_PERSON_AND_ORGANIZATION_ASSIGNMENT ( #83, #49, ( #52 ) ) ;
#64 = MECHANICAL_CONTEXT ( 'NONE', #118, 'mechanical' ) ;
#65 = DATE_AND_TIME ( #111, #201 ) ;
#66 = ORIENTED_EDGE ( 'NONE', *, *, #127, .F. ) ;
#67 = PERSON_AND_ORGANIZATION_ROLE ( 'classification_officer' ) ;
#68 = CARTESIAN_POINT ( 'NONE',  ( -12.69999999999999900, 3.997792089092478900E-015, -6.569805341373300000 ) ) ;
#69 = AXIS2_PLACEMENT_3D ( 'NONE', #141, #122, #140 ) ;
#70 = CARTESIAN_POINT ( 'NONE',  ( -8.665664666244640300E-016, 12.80216968358301200, -6.715903019937646200 ) ) ;
#71 = CC_DESIGN_APPROVAL ( #228, ( #150 ) ) ;
#72 = PERSON_AND_ORGANIZATION ( #86, #104 ) ;
#73 = EDGE_CURVE ( 'NONE', #29, #202, #93, .T. ) ;
#74 = CARTESIAN_POINT ( 'NONE',  ( 4.996003610813200500E-016, 2.442490654175340100E-015, -6.569805341373300000 ) ) ;
#75 = PERSON_AND_ORGANIZATION ( #86, #104 ) ;
#76 = DIRECTION ( 'NONE',  ( 1.000000000000000000, 0.0000000000000000000, 0.0000000000000000000 ) ) ;
#77 =( BOUNDED_SURFACE ( )  B_SPLINE_SURFACE ( 3, 3, ( 
 ( #70, #197, #225, #108 ),
 ( #107, #128, #24, #22 ),
 ( #204, #106, #203, #130 ),
 ( #6, #146, #7, #94 ) ),
 .UNSPECIFIED., .F., .F., .F. ) 
 B_SPLINE_SURFACE_WITH_KNOTS ( ( 4, 4 ),
 ( 4, 4 ),
 ( 0.0000000000000000000, 1.000000000000000000 ),
 ( 0.0000000000000000000, 1.000000000000000000 ),
 .UNSPECIFIED. ) 
 GEOMETRIC_REPRESENTATION_ITEM ( )  RATIONAL_B_SPLINE_SURFACE ( (
 ( 1.000000000000000000, 0.9245826236614935700, 0.9245826236614935700, 1.000000000000000000),
 ( 0.7122577969178386400, 0.6585411825976504900, 0.6585411825976504900, 0.7122577969178386400),
 ( 0.7122577969178386400, 0.6585411825976504900, 0.6585411825976504900, 0.7122577969178386400),
 ( 1.000000000000000000, 0.9245826236614935700, 0.9245826236614935700, 1.000000000000000000) ) ) 
 REPRESENTATION_ITEM ( '' )  SURFACE ( )  );
#78 = APPROVAL ( #30, 'UNSPECIFIED' ) ;
#79 = APPROVAL_PERSON_ORGANIZATION ( #166, #148, #35 ) ;
#80 = ORIENTED_EDGE ( 'NONE', *, *, #73, .F. ) ;
#81 = LOCAL_TIME ( 16, 29, 12.00000000000000000, #230 ) ;
#82 =( GEOMETRIC_REPRESENTATION_CONTEXT ( 3 ) GLOBAL_UNCERTAINTY_ASSIGNED_CONTEXT ( ( #153 ) ) GLOBAL_UNIT_ASSIGNED_CONTEXT ( ( #174, #101, #196 ) ) REPRESENTATION_CONTEXT ( 'NONE', 'WORKASPACE' ) );
#83 = PERSON_AND_ORGANIZATION ( #86, #104 ) ;
#84 = CC_DESIGN_SECURITY_CLASSIFICATION ( #150, ( #156 ) ) ;
#85 = DIRECTION ( 'NONE',  ( 1.000000000000000000, 0.0000000000000000000, 0.0000000000000000000 ) ) ;
#86 = PERSON ( 'UNSPECIFIED', 'UNSPECIFIED', 'UNSPECIFIED', ('UNSPECIFIED'), ('UNSPECIFIED'), ('UNSPECIFIED') ) ;
#87 = CARTESIAN_POINT ( 'NONE',  ( -3.552713678800500100E-015, 0.0000000000000000000, -15.56000000000000000 ) ) ;
#88 = CARTESIAN_POINT ( 'NONE',  ( -15.32696644939350400, -5.991355816663561200, -4.841477106206701500 ) ) ;
#89 = CARTESIAN_POINT ( 'NONE',  ( -12.69999999999999900, 3.997792089092478900E-015, -6.569805341373300000 ) ) ;
#90 = FACE_OUTER_BOUND ( 'NONE', #109, .T. ) ;
#91 = FACE_OUTER_BOUND ( 'NONE', #20, .T. ) ;
#92 = CARTESIAN_POINT ( 'NONE',  ( -12.69999999999999900, 3.997792089092478900E-015, 1.399999999999999200 ) ) ;
#93 = CIRCLE ( 'NONE', #131, 12.69999999999999900 ) ;
#94 = CARTESIAN_POINT ( 'NONE',  ( 7.247665905264435400, -12.80216968358301200, -10.49152978519006800 ) ) ;
#95 = AXIS2_PLACEMENT_3D ( 'NONE', #57, #184, #76 ) ;
#96 = ORIENTED_EDGE ( 'NONE', *, *, #115, .T. ) ;
#97 = APPLICATION_PROTOCOL_DEFINITION ( 'international standard', 'config_control_design', 1994, #118 ) ;
#98 = DATE_TIME_ROLE ( 'classification_date' ) ;
#99 = ADVANCED_FACE ( 'NONE', ( #229 ), #77, .F. ) ;
#100 = DIRECTION ( 'NONE',  ( 0.0000000000000000000, 0.0000000000000000000, 1.000000000000000000 ) ) ;
#101 =( NAMED_UNIT ( * ) PLANE_ANGLE_UNIT ( ) SI_UNIT ( $, .RADIAN. ) );
#102 = DIRECTION ( 'NONE',  ( 0.0000000000000000000, 0.0000000000000000000, 1.000000000000000000 ) ) ;
#103 = CARTESIAN_POINT ( 'NONE',  ( -3.469446951953614200E-015, 12.80216968358301200, -6.715903019937645300 ) ) ;
#104 = ORGANIZATION ( 'UNSPECIFIED', 'UNSPECIFIED', '' ) ;
#105 = ORIENTED_EDGE ( 'NONE', *, *, #190, .F. ) ;
#106 = CARTESIAN_POINT ( 'NONE',  ( 6.230563596781195200, -5.991355816663565600, 3.143011350197195200 ) ) ;
#107 = CARTESIAN_POINT ( 'NONE',  ( -2.793566108890294800E-015, 5.991355816663565600, 3.143011350197193900 ) ) ;
#108 = CARTESIAN_POINT ( 'NONE',  ( 7.247665905264439900, 12.80216968358301000, -10.49152978519006900 ) ) ;
#109 = EDGE_LOOP ( 'NONE', ( #179, #133 ) ) ;
#110 = EDGE_CURVE ( 'NONE', #162, #41, #8, .T. ) ;
#111 = CALENDAR_DATE ( 2019, 14, 1 ) ;
#112 = ORIENTED_EDGE ( 'NONE', *, *, #59, .T. ) ;
#113 = AXIS2_PLACEMENT_3D ( 'NONE', #21, #160, #185 ) ;
#114 = ORIENTED_EDGE ( 'NONE', *, *, #115, .F. ) ;
#115 = EDGE_CURVE ( 'NONE', #221, #149, #16, .T. ) ;
#116 = PRODUCT_RELATED_PRODUCT_CATEGORY ( 'detail', '', ( #52 ) ) ;
#117 = DIRECTION ( 'NONE',  ( 0.0000000000000000000, 0.0000000000000000000, 1.000000000000000000 ) ) ;
#118 = APPLICATION_CONTEXT ( 'configuration controlled 3d designs of mechanical parts and assemblies' ) ;
#119 = CARTESIAN_POINT ( 'NONE',  ( 4.996003610813200500E-016, 2.442490654175340100E-015, -6.569805341373300000 ) ) ;
#120 = DATE_AND_TIME ( #170, #81 ) ;
#121 = ADVANCED_FACE ( 'NONE', ( #90 ), #60, .T. ) ;
#122 = DIRECTION ( 'NONE',  ( -0.0000000000000000000, -0.0000000000000000000, -1.000000000000000000 ) ) ;
#123 = CC_DESIGN_PERSON_AND_ORGANIZATION_ASSIGNMENT ( #187, #15, ( #156 ) ) ;
#124 = CARTESIAN_POINT ( 'NONE',  ( -6.230563596781210300, -5.991355816663562100, 3.143011350197193000 ) ) ;
#125 = CIRCLE ( 'NONE', #69, 12.69999999999999900 ) ;
#126 = EDGE_LOOP ( 'NONE', ( #209, #183, #112, #61, #138 ) ) ;
#127 = EDGE_CURVE ( 'NONE', #149, #29, #55, .T. ) ;
#128 = CARTESIAN_POINT ( 'NONE',  ( 6.230563596781197900, 5.991355816663564800, 3.143011350197193900 ) ) ;
#129 = PERSON_AND_ORGANIZATION ( #86, #104 ) ;
#130 = CARTESIAN_POINT ( 'NONE',  ( 15.32696644939349200, -5.991355816663567400, -4.841477106206695200 ) ) ;
#131 = AXIS2_PLACEMENT_3D ( 'NONE', #54, #5, #145 ) ;
#132 = CALENDAR_DATE ( 2019, 14, 1 ) ;
#133 = ORIENTED_EDGE ( 'NONE', *, *, #211, .F. ) ;
#134 = VECTOR ( 'NONE', #11, 1000.000000000000000 ) ;
#135 = PRODUCT_DEFINITION ( 'UNKNOWN', '', #156, #223 ) ;
#136 = DIRECTION ( 'NONE',  ( 1.000000000000000000, 0.0000000000000000000, 0.0000000000000000000 ) ) ;
#137 = CARTESIAN_POINT ( 'NONE',  ( -6.824780955136940200E-015, -12.69999999999999900, -6.569805341373299100 ) ) ;
#138 = ORIENTED_EDGE ( 'NONE', *, *, #175, .F. ) ;
#139 = ADVANCED_FACE ( 'NONE', ( #151 ), #45, .T. ) ;
#140 = DIRECTION ( 'NONE',  ( 1.000000000000000000, 0.0000000000000000000, 0.0000000000000000000 ) ) ;
#141 = CARTESIAN_POINT ( 'NONE',  ( 4.996003610813200500E-016, 2.442490654175340100E-015, 1.399999999999999200 ) ) ;
#142 = CARTESIAN_POINT ( 'NONE',  ( -5.559198448314980100, -12.80216968358300800, -8.077103439322680600 ) ) ;
#143 = CARTESIAN_POINT ( 'NONE',  ( -2.946247941500508700, 12.80216968358301300, -6.715903019937645300 ) ) ;
#144 = LOCAL_TIME ( 16, 29, 12.00000000000000000, #182 ) ;
#145 = DIRECTION ( 'NONE',  ( 1.000000000000000000, 0.0000000000000000000, 0.0000000000000000000 ) ) ;
#146 = CARTESIAN_POINT ( 'NONE',  ( 2.946247941500498500, -12.80216968358301000, -6.715903019937645300 ) ) ;
#147 = PERSON_AND_ORGANIZATION ( #86, #104 ) ;
#148 = APPROVAL ( #31, 'UNSPECIFIED' ) ;
#149 = VERTEX_POINT ( 'NONE', #235 ) ;
#150 = SECURITY_CLASSIFICATION ( '', '', #154 ) ;
#151 = FACE_OUTER_BOUND ( 'NONE', #12, .T. ) ;
#152 = DIRECTION ( 'NONE',  ( 1.000000000000000000, 0.0000000000000000000, 0.0000000000000000000 ) ) ;
#153 = UNCERTAINTY_MEASURE_WITH_UNIT (LENGTH_MEASURE( 1.000000000000000100E-005 ), #174, 'distance_accuracy_value', 'NONE');
#154 = SECURITY_CLASSIFICATION_LEVEL ( 'unclassified' ) ;
#155 = CARTESIAN_POINT ( 'NONE',  ( -7.247665905264443400, 12.80216968358301300, -10.49152978519007300 ) ) ;
#156 = PRODUCT_DEFINITION_FORMATION_WITH_SPECIFIED_SOURCE ( 'ANY', '', #52, .NOT_KNOWN. ) ;
#157 = COORDINATED_UNIVERSAL_TIME_OFFSET ( 2, 0, .AHEAD. ) ;
#158 = PERSON_AND_ORGANIZATION ( #86, #104 ) ;
#159 = ORIENTED_EDGE ( 'NONE', *, *, #177, .F. ) ;
#160 = DIRECTION ( 'NONE',  ( 0.0000000000000000000, 0.0000000000000000000, 1.000000000000000000 ) ) ;
#161 = COORDINATED_UNIVERSAL_TIME_OFFSET ( 2, 0, .AHEAD. ) ;
#162 = VERTEX_POINT ( 'NONE', #32 ) ;
#163 = CALENDAR_DATE ( 2019, 14, 1 ) ;
#164 = ORIENTED_EDGE ( 'NONE', *, *, #190, .T. ) ;
#165 = CC_DESIGN_PERSON_AND_ORGANIZATION_ASSIGNMENT ( #129, #67, ( #150 ) ) ;
#166 = PERSON_AND_ORGANIZATION ( #86, #104 ) ;
#167 = CC_DESIGN_APPROVAL ( #78, ( #156 ) ) ;
#168 = APPLICATION_CONTEXT ( 'configuration controlled 3d designs of mechanical parts and assemblies' ) ;
#169 = PERSON_AND_ORGANIZATION_ROLE ( 'design_supplier' ) ;
#170 = CALENDAR_DATE ( 2019, 14, 1 ) ;
#171 = ORIENTED_EDGE ( 'NONE', *, *, #110, .T. ) ;
#172 = ADVANCED_FACE ( 'NONE', ( #189 ), #62, .T. ) ;
#173 = MANIFOLD_SOLID_BREP ( 'Imported1', #188 ) ;
#174 =( LENGTH_UNIT ( ) NAMED_UNIT ( * ) SI_UNIT ( .MILLI., .METRE. ) );
#175 = EDGE_CURVE ( 'NONE', #149, #162, #206, .T. ) ;
#176 = CARTESIAN_POINT ( 'NONE',  ( -2.946247941500513200, -12.80216968358301000, -6.715903019937645300 ) ) ;
#177 = EDGE_CURVE ( 'NONE', #29, #221, #43, .T. ) ;
#178 = SHAPE_DEFINITION_REPRESENTATION ( #207, #205 ) ;
#179 = ORIENTED_EDGE ( 'NONE', *, *, #110, .F. ) ;
#180 = CC_DESIGN_DATE_AND_TIME_ASSIGNMENT ( #214, #98, ( #150 ) ) ;
#181 = DIRECTION ( 'NONE',  ( 1.000000000000000000, 0.0000000000000000000, -0.0000000000000000000 ) ) ;
#182 = COORDINATED_UNIVERSAL_TIME_OFFSET ( 2, 0, .AHEAD. ) ;
#183 = ORIENTED_EDGE ( 'NONE', *, *, #73, .T. ) ;
#184 = DIRECTION ( 'NONE',  ( -0.0000000000000000000, -0.0000000000000000000, -1.000000000000000000 ) ) ;
#185 = DIRECTION ( 'NONE',  ( 1.000000000000000000, 0.0000000000000000000, 0.0000000000000000000 ) ) ;
#186 = AXIS2_PLACEMENT_3D ( 'NONE', #46, #51, #3 ) ;
#187 = PERSON_AND_ORGANIZATION ( #86, #104 ) ;
#188 = CLOSED_SHELL ( 'NONE', ( #50, #172, #99, #139, #121 ) ) ;
#189 = FACE_OUTER_BOUND ( 'NONE', #126, .T. ) ;
#190 = EDGE_CURVE ( 'NONE', #202, #221, #19, .T. ) ;
#191 = CARTESIAN_POINT ( 'NONE',  ( 12.69999999999999900, 2.442490654175340100E-015, -6.569805341373300000 ) ) ;
#192 = DIRECTION ( 'NONE',  ( 2.334397171259000300E-016, 1.000000000000000000, 0.0000000000000000000 ) ) ;
#193 = LOCAL_TIME ( 16, 29, 12.00000000000000000, #161 ) ;
#194 = CC_DESIGN_PERSON_AND_ORGANIZATION_ASSIGNMENT ( #72, #210, ( #135 ) ) ;
#195 = CARTESIAN_POINT ( 'NONE',  ( 4.996003610813200500E-016, 2.442490654175340100E-015, -6.569805341373300000 ) ) ;
#196 =( NAMED_UNIT ( * ) SI_UNIT ( $, .STERADIAN. ) SOLID_ANGLE_UNIT ( ) );
#197 = CARTESIAN_POINT ( 'NONE',  ( 2.946247941500503800, 12.80216968358301300, -6.715903019937645300 ) ) ;
#198 = LINE ( 'NONE', #89, #53 ) ;
#199 = CARTESIAN_POINT ( 'NONE',  ( -6.938893903907228400E-015, 5.991355816663565600, 3.143011350197194800 ) ) ;
#200 = CC_DESIGN_DATE_AND_TIME_ASSIGNMENT ( #25, #215, ( #135 ) ) ;
#201 = LOCAL_TIME ( 16, 29, 12.00000000000000000, #157 ) ;
#202 = VERTEX_POINT ( 'NONE', #68 ) ;
#203 = CARTESIAN_POINT ( 'NONE',  ( 11.75628805419322700, -5.991355816663567400, 0.2644193411945995900 ) ) ;
#204 = CARTESIAN_POINT ( 'NONE',  ( -5.590806922975411000E-015, -5.991355816663563000, 3.143011350197195200 ) ) ;
#205 = ADVANCED_BREP_SHAPE_REPRESENTATION ( '112-0205E BK7 pl-cv 25.4 F-30', ( #173, #186 ), #82 ) ;
#206 = LINE ( 'NONE', #191, #134 ) ;
#207 = PRODUCT_DEFINITION_SHAPE ( 'NONE', 'NONE',  #135 ) ;
#208 = APPROVAL_DATE_TIME ( #120, #228 ) ;
#209 = ORIENTED_EDGE ( 'NONE', *, *, #127, .T. ) ;
#210 = PERSON_AND_ORGANIZATION_ROLE ( 'creator' ) ;
#211 = EDGE_CURVE ( 'NONE', #41, #162, #125, .T. ) ;
#212 = APPLICATION_PROTOCOL_DEFINITION ( 'international standard', 'config_control_design', 1994, #168 ) ;
#213 = DIRECTION ( 'NONE',  ( 1.000000000000000000, -2.334397171258999800E-016, 3.419090247868619700E-017 ) ) ;
#214 = DATE_AND_TIME ( #163, #224 ) ;
#215 = DATE_TIME_ROLE ( 'creation_date' ) ;
#216 = CARTESIAN_POINT ( 'NONE',  ( -7.247665905264450500, -12.80216968358300800, -10.49152978519007100 ) ) ;
#217 = CARTESIAN_POINT ( 'NONE',  ( -8.954121401390810100E-016, 12.69999999999999900, -6.569805341373299100 ) ) ;
#218 = AXIS2_PLACEMENT_3D ( 'NONE', #87, #213, #192 ) ;
#219 = CARTESIAN_POINT ( 'NONE',  ( -5.559198448314974800, 12.80216968358301700, -8.077103439322685900 ) ) ;
#220 = APPROVAL_DATE_TIME ( #28, #148 ) ;
#221 = VERTEX_POINT ( 'NONE', #137 ) ;
#222 = CARTESIAN_POINT ( 'NONE',  ( -11.75628805419324200, 5.991355816663570100, 0.2644193411945926500 ) ) ;
#223 = DESIGN_CONTEXT ( 'detailed design', #168, 'design' ) ;
#224 = LOCAL_TIME ( 16, 29, 12.00000000000000000, #27 ) ;
#225 = CARTESIAN_POINT ( 'NONE',  ( 5.559198448314968600, 12.80216968358301000, -8.077103439322680600 ) ) ;
#226 = ORIENTED_EDGE ( 'NONE', *, *, #59, .F. ) ;
#227 = CARTESIAN_POINT ( 'NONE',  ( 0.0000000000000000000, 26.11199999999999800, 1.399999999999999900 ) ) ;
#228 = APPROVAL ( #1, 'UNSPECIFIED' ) ;
#229 = FACE_OUTER_BOUND ( 'NONE', #233, .T. ) ;
#230 = COORDINATED_UNIVERSAL_TIME_OFFSET ( 2, 0, .AHEAD. ) ;
#231 =( BOUNDED_SURFACE ( )  B_SPLINE_SURFACE ( 3, 3, ( 
 ( #155, #219, #143, #103 ),
 ( #40, #222, #36, #199 ),
 ( #88, #17, #124, #38 ),
 ( #216, #142, #176, #37 ) ),
 .UNSPECIFIED., .F., .F., .T. ) 
 B_SPLINE_SURFACE_WITH_KNOTS ( ( 4, 4 ),
 ( 4, 4 ),
 ( 0.0000000000000000000, 1.000000000000000000 ),
 ( 0.0000000000000000000, 1.000000000000000000 ),
 .UNSPECIFIED. ) 
 GEOMETRIC_REPRESENTATION_ITEM ( )  RATIONAL_B_SPLINE_SURFACE ( (
 ( 1.000000000000000000, 0.9245826236614935700, 0.9245826236614935700, 1.000000000000000000),
 ( 0.7122577969178386400, 0.6585411825976504900, 0.6585411825976504900, 0.7122577969178386400),
 ( 0.7122577969178386400, 0.6585411825976504900, 0.6585411825976504900, 0.7122577969178386400),
 ( 1.000000000000000000, 0.9245826236614935700, 0.9245826236614935700, 1.000000000000000000) ) ) 
 REPRESENTATION_ITEM ( '' )  SURFACE ( )  );
#232 = AXIS2_PLACEMENT_3D ( 'NONE', #227, #58, #181 ) ;
#233 = EDGE_LOOP ( 'NONE', ( #159, #66, #114 ) ) ;
#234 = CARTESIAN_POINT ( 'NONE',  ( 4.996003610813200500E-016, 2.442490654175340100E-015, -6.569805341373300000 ) ) ;
#235 = CARTESIAN_POINT ( 'NONE',  ( 12.69999999999999900, 2.442490654175340100E-015, -6.569805341373300000 ) ) ;
ENDSEC;
END-ISO-10303-21;
