ISO-10303-21;
HEADER;
FILE_DESCRIPTION (( 'STEP AP203' ),
    '1' );
FILE_NAME ('112-0127E BK7 pl-cv 12.7 F-300.STEP',
    '2019-01-14T14:01:39',
    ( '' ),
    ( '' ),
    'SwSTEP 2.0',
    'SolidWorks 2017',
    '' );
FILE_SCHEMA (( 'CONFIG_CONTROL_DESIGN' ));
ENDSEC;

DATA;
#1 = CARTESIAN_POINT ( 'NONE',  ( 2.128290487406883100, -6.426156904780488500, -0.1327542295961881300 ) ) ;
#2 = DIRECTION ( 'NONE',  ( 0.0000000000000000000, 0.0000000000000000000, 1.000000000000000000 ) ) ;
#3 = MECHANICAL_CONTEXT ( 'NONE', #98, 'mechanical' ) ;
#4 = AXIS2_PLACEMENT_3D ( 'NONE', #218, #222, #111 ) ;
#5 = DIRECTION ( 'NONE',  ( 0.0000000000000000000, 0.0000000000000000000, 1.000000000000000000 ) ) ;
#6 = ORIENTED_EDGE ( 'NONE', *, *, #133, .T. ) ;
#7 = PERSON_AND_ORGANIZATION_ROLE ( 'classification_officer' ) ;
#8 = APPLICATION_PROTOCOL_DEFINITION ( 'international standard', 'config_control_design', 1994, #167 ) ;
#9 = CC_DESIGN_APPROVAL ( #227, ( #107 ) ) ;
#10 = LINE ( 'NONE', #86, #114 ) ;
#11 = LINE ( 'NONE', #203, #102 ) ;
#12 = AXIS2_PLACEMENT_3D ( 'NONE', #72, #157, #71 ) ;
#13 = ADVANCED_FACE ( 'NONE', ( #173 ), #119, .T. ) ;
#14 = CALENDAR_DATE ( 2019, 14, 1 ) ;
#15 = FACE_OUTER_BOUND ( 'NONE', #155, .T. ) ;
#16 = CARTESIAN_POINT ( 'NONE',  ( 6.382628486806251700, 6.426156904780443200, -0.2638272615339919400 ) ) ;
#17 = ORIENTED_EDGE ( 'NONE', *, *, #142, .T. ) ;
#18 = PLANE ( 'NONE',  #174 ) ;
#19 = DIRECTION ( 'NONE',  ( 0.0000000000000000000, 0.0000000000000000000, 1.000000000000000000 ) ) ;
#20 = APPROVAL_PERSON_ORGANIZATION ( #224, #227, #188 ) ;
#21 = EDGE_CURVE ( 'NONE', #141, #235, #11, .T. ) ;
#22 = CARTESIAN_POINT ( 'NONE',  ( 2.498001805406600200E-016, 1.221245327087670000E-015, -0.1296250084923730200 ) ) ;
#23 = CARTESIAN_POINT ( 'NONE',  ( -2.128290487406997200, 6.426156904780443200, -0.1327542295961837100 ) ) ;
#24 = DATE_AND_TIME ( #169, #150 ) ;
#25 = DIRECTION ( 'NONE',  ( 0.0000000000000000000, 0.0000000000000000000, 1.000000000000000000 ) ) ;
#26 = DIRECTION ( 'NONE',  ( 1.000000000000000000, 0.0000000000000000000, 0.0000000000000000000 ) ) ;
#27 = APPROVAL_DATE_TIME ( #24, #101 ) ;
#28 = CARTESIAN_POINT ( 'NONE',  ( 2.498001805406600200E-016, 1.221245327087670000E-015, -0.1296250084923730200 ) ) ;
#29 = CIRCLE ( 'NONE', #219, 6.349999999999999600 ) ;
#30 = DATE_AND_TIME ( #14, #151 ) ;
#31 = ORIENTED_EDGE ( 'NONE', *, *, #116, .T. ) ;
#32 = COORDINATED_UNIVERSAL_TIME_OFFSET ( 2, 0, .AHEAD. ) ;
#33 = LOCAL_TIME ( 16, 1, 39.00000000000000000, #77 ) ;
#34 =( BOUNDED_SURFACE ( )  B_SPLINE_SURFACE ( 3, 3, ( 
 ( #106, #122, #156, #16 ),
 ( #67, #84, #232, #159 ),
 ( #144, #39, #56, #91 ),
 ( #109, #1, #179, #90 ) ),
 .UNSPECIFIED., .F., .F., .F. ) 
 B_SPLINE_SURFACE_WITH_KNOTS ( ( 4, 4 ),
 ( 4, 4 ),
 ( 0.0000000000000000000, 1.000000000000000000 ),
 ( 0.0000000000000000000, 1.000000000000000000 ),
 .UNSPECIFIED. ) 
 GEOMETRIC_REPRESENTATION_ITEM ( )  RATIONAL_B_SPLINE_SURFACE ( (
 ( 1.000000000000000000, 0.9998594700258655000, 0.9998594700258655000, 1.000000000000000000),
 ( 0.9994312158114988500, 0.9992907657685916600, 0.9992907657685916600, 0.9994312158114988500),
 ( 0.9994312158114988500, 0.9992907657685916600, 0.9992907657685916600, 0.9994312158114988500),
 ( 1.000000000000000000, 0.9998594700258655000, 0.9998594700258655000, 1.000000000000000000) ) ) 
 REPRESENTATION_ITEM ( '' )  SURFACE ( )  );
#35 = APPROVAL ( #223, 'UNSPECIFIED' ) ;
#36 = ORIENTED_EDGE ( 'NONE', *, *, #142, .F. ) ;
#37 = PERSON_AND_ORGANIZATION ( #87, #228 ) ;
#38 = PERSON_AND_ORGANIZATION ( #87, #228 ) ;
#39 = CARTESIAN_POINT ( 'NONE',  ( 2.130713975488340900, -2.143271360455007100, 0.04427659369180637200 ) ) ;
#40 = CARTESIAN_POINT ( 'NONE',  ( -4.260978807207034300, -2.143271360455007100, 0.0005296842639794703300 ) ) ;
#41 = CC_DESIGN_PERSON_AND_ORGANIZATION_ASSIGNMENT ( #81, #43, ( #162 ) ) ;
#42 = CARTESIAN_POINT ( 'NONE',  ( -2.130713975488454100, -2.143271360455007100, 0.04427659369181086900 ) ) ;
#43 = PERSON_AND_ORGANIZATION_ROLE ( 'design_owner' ) ;
#44 = ORIENTED_EDGE ( 'NONE', *, *, #208, .T. ) ;
#45 = CARTESIAN_POINT ( 'NONE',  ( -6.349999999999999600, 1.998896044546239400E-015, 2.899999999999999900 ) ) ;
#46 = CARTESIAN_POINT ( 'NONE',  ( -6.389896396970713400, -2.143271360455007500, -0.08694569133553699300 ) ) ;
#47 = SHAPE_DEFINITION_REPRESENTATION ( #49, #65 ) ;
#48 = EDGE_LOOP ( 'NONE', ( #36, #132, #55 ) ) ;
#49 = PRODUCT_DEFINITION_SHAPE ( 'NONE', 'NONE',  #52 ) ;
#50 = EDGE_LOOP ( 'NONE', ( #31, #17, #59, #79, #186 ) ) ;
#51 = CARTESIAN_POINT ( 'NONE',  ( 2.498001805406600200E-016, 1.221245327087670000E-015, 2.899999999999999900 ) ) ;
#52 = PRODUCT_DEFINITION ( 'UNKNOWN', '', #192, #176 ) ;
#53 = DIRECTION ( 'NONE',  ( 0.0000000000000000000, 0.0000000000000000000, 1.000000000000000000 ) ) ;
#54 = DIRECTION ( 'NONE',  ( 0.0000000000000000000, 0.0000000000000000000, 1.000000000000000000 ) ) ;
#55 = ORIENTED_EDGE ( 'NONE', *, *, #118, .F. ) ;
#56 = CARTESIAN_POINT ( 'NONE',  ( 4.260978807206928600, -2.143271360455007100, 0.0005296842639709051300 ) ) ;
#57 = CARTESIAN_POINT ( 'NONE',  ( -2.130713975488455000, 2.143271360454960500, 0.04427659369181189500 ) ) ;
#58 = PRODUCT_RELATED_PRODUCT_CATEGORY ( 'detail', '', ( #162 ) ) ;
#59 = ORIENTED_EDGE ( 'NONE', *, *, #21, .T. ) ;
#60 = APPROVAL_ROLE ( '' ) ;
#61 = CC_DESIGN_PERSON_AND_ORGANIZATION_ASSIGNMENT ( #37, #185, ( #192 ) ) ;
#62 = APPROVAL_STATUS ( 'not_yet_approved' ) ;
#63 = CIRCLE ( 'NONE', #191, 6.349999999999999600 ) ;
#64 = EDGE_LOOP ( 'NONE', ( #229, #89, #199 ) ) ;
#65 = ADVANCED_BREP_SHAPE_REPRESENTATION ( '112-0127E BK7 pl-cv 12.7 F-300', ( #74, #4 ), #165 ) ;
#66 = APPROVAL_DATE_TIME ( #206, #35 ) ;
#67 = CARTESIAN_POINT ( 'NONE',  ( -4.263256414560599900E-014, 2.143271360454960900, 0.04427659369180743400 ) ) ;
#68 = EDGE_CURVE ( 'NONE', #235, #221, #190, .T. ) ;
#69 = CIRCLE ( 'NONE', #12, 6.349999999999999600 ) ;
#70 = CARTESIAN_POINT ( 'NONE',  ( -4.263256414560599900E-014, 6.349999999999925000, -0.1296250084923704100 ) ) ;
#71 = DIRECTION ( 'NONE',  ( 1.000000000000000000, 0.0000000000000000000, 0.0000000000000000000 ) ) ;
#72 = CARTESIAN_POINT ( 'NONE',  ( 2.498001805406600200E-016, 1.221245327087670000E-015, 2.899999999999999900 ) ) ;
#73 = DIRECTION ( 'NONE',  ( 1.000000000000000000, 0.0000000000000000000, 0.0000000000000000000 ) ) ;
#74 = MANIFOLD_SOLID_BREP ( 'Imported1', #76 ) ;
#75 = DATE_TIME_ROLE ( 'classification_date' ) ;
#76 = CLOSED_SHELL ( 'NONE', ( #207, #230, #104, #13, #136 ) ) ;
#77 = COORDINATED_UNIVERSAL_TIME_OFFSET ( 2, 0, .AHEAD. ) ;
#78 = AXIS2_PLACEMENT_3D ( 'NONE', #211, #19, #161 ) ;
#79 = ORIENTED_EDGE ( 'NONE', *, *, #68, .T. ) ;
#80 = PERSON_AND_ORGANIZATION ( #87, #228 ) ;
#81 = PERSON_AND_ORGANIZATION ( #87, #228 ) ;
#82 = DIRECTION ( 'NONE',  ( 1.000000000000000000, 0.0000000000000000000, 0.0000000000000000000 ) ) ;
#83 = CC_DESIGN_DATE_AND_TIME_ASSIGNMENT ( #180, #96, ( #52 ) ) ;
#84 = CARTESIAN_POINT ( 'NONE',  ( 2.130713975488340900, 2.143271360454960500, 0.04427659369180744100 ) ) ;
#85 = ORIENTED_EDGE ( 'NONE', *, *, #133, .F. ) ;
#86 = CARTESIAN_POINT ( 'NONE',  ( 6.349999999999999600, 1.221245327087670000E-015, -0.1296250084923730200 ) ) ;
#87 = PERSON ( 'UNSPECIFIED', 'UNSPECIFIED', 'UNSPECIFIED', ('UNSPECIFIED'), ('UNSPECIFIED'), ('UNSPECIFIED') ) ;
#88 = CARTESIAN_POINT ( 'NONE',  ( -6.382628486806348500, 6.426156904780443200, -0.2638272615339831700 ) ) ;
#89 = ORIENTED_EDGE ( 'NONE', *, *, #116, .F. ) ;
#90 = CARTESIAN_POINT ( 'NONE',  ( 6.382628486806251700, -6.426156904780489400, -0.2638272615339919400 ) ) ;
#91 = CARTESIAN_POINT ( 'NONE',  ( 6.389896396970617500, -2.143271360455007500, -0.08694569133554577700 ) ) ;
#92 = DIRECTION ( 'NONE',  ( 1.000000000000000000, 0.0000000000000000000, 0.0000000000000000000 ) ) ;
#93 = CARTESIAN_POINT ( 'NONE',  ( -2.128290487406997200, -6.426156904780488500, -0.1327542295961837100 ) ) ;
#94 = FACE_OUTER_BOUND ( 'NONE', #50, .T. ) ;
#95 = ORIENTED_EDGE ( 'NONE', *, *, #21, .F. ) ;
#96 = DATE_TIME_ROLE ( 'creation_date' ) ;
#97 = CC_DESIGN_PERSON_AND_ORGANIZATION_ASSIGNMENT ( #204, #220, ( #192 ) ) ;
#98 = APPLICATION_CONTEXT ( 'configuration controlled 3d designs of mechanical parts and assemblies' ) ;
#99 = CARTESIAN_POINT ( 'NONE',  ( 2.498001805406600200E-016, 1.221245327087670000E-015, -0.1296250084923730200 ) ) ;
#100 = ORIENTED_EDGE ( 'NONE', *, *, #68, .F. ) ;
#101 = APPROVAL ( #128, 'UNSPECIFIED' ) ;
#102 = VECTOR ( 'NONE', #135, 1000.000000000000000 ) ;
#103 = LOCAL_TIME ( 16, 1, 39.00000000000000000, #32 ) ;
#104 = ADVANCED_FACE ( 'NONE', ( #115 ), #34, .F. ) ;
#105 = EDGE_LOOP ( 'NONE', ( #95, #160, #44, #212, #6 ) ) ;
#106 = CARTESIAN_POINT ( 'NONE',  ( -4.263256414560599900E-014, 6.426156904780443200, -0.1327542295961881000 ) ) ;
#107 = SECURITY_CLASSIFICATION ( '', '', #112 ) ;
#108 = CIRCLE ( 'NONE', #197, 6.349999999999999600 ) ;
#109 = CARTESIAN_POINT ( 'NONE',  ( -4.263256414560599900E-014, -6.426156904780489400, -0.1327542295961881000 ) ) ;
#110 = DIRECTION ( 'NONE',  ( 1.000000000000000000, 0.0000000000000000000, 0.0000000000000000000 ) ) ;
#111 = DIRECTION ( 'NONE',  ( 1.000000000000000000, 0.0000000000000000000, 0.0000000000000000000 ) ) ;
#112 = SECURITY_CLASSIFICATION_LEVEL ( 'unclassified' ) ;
#113 =( NAMED_UNIT ( * ) PLANE_ANGLE_UNIT ( ) SI_UNIT ( $, .RADIAN. ) );
#114 = VECTOR ( 'NONE', #2, 1000.000000000000000 ) ;
#115 = FACE_OUTER_BOUND ( 'NONE', #64, .T. ) ;
#116 = EDGE_CURVE ( 'NONE', #138, #205, #29, .T. ) ;
#117 = COORDINATED_UNIVERSAL_TIME_OFFSET ( 2, 0, .AHEAD. ) ;
#118 = EDGE_CURVE ( 'NONE', #141, #171, #63, .T. ) ;
#119 = CYLINDRICAL_SURFACE ( 'NONE', #123, 6.349999999999999600 ) ;
#120 = COORDINATED_UNIVERSAL_TIME_OFFSET ( 2, 0, .AHEAD. ) ;
#121 = UNCERTAINTY_MEASURE_WITH_UNIT (LENGTH_MEASURE( 1.000000000000000100E-005 ), #183, 'distance_accuracy_value', 'NONE');
#122 = CARTESIAN_POINT ( 'NONE',  ( 2.128290487406883100, 6.426156904780443200, -0.1327542295961881300 ) ) ;
#123 = AXIS2_PLACEMENT_3D ( 'NONE', #231, #53, #177 ) ;
#124 = AXIS2_PLACEMENT_3D ( 'NONE', #51, #137, #82 ) ;
#125 = CARTESIAN_POINT ( 'NONE',  ( -4.256132341903193800, 6.426156904780443200, -0.1764513810016720100 ) ) ;
#126 = CALENDAR_DATE ( 2019, 14, 1 ) ;
#127 = AXIS2_PLACEMENT_3D ( 'NONE', #172, #26, #198 ) ;
#128 = APPROVAL_STATUS ( 'not_yet_approved' ) ;
#129 = CARTESIAN_POINT ( 'NONE',  ( -8.066464163292153000E-014, -6.426156904780489400, -0.1327542295961831600 ) ) ;
#130 = CARTESIAN_POINT ( 'NONE',  ( -8.066464163292153000E-014, 2.143271360454960900, 0.04427659369181240900 ) ) ;
#131 = CARTESIAN_POINT ( 'NONE',  ( -4.260978807207035100, 2.143271360454960500, 0.0005296842639805138700 ) ) ;
#132 = ORIENTED_EDGE ( 'NONE', *, *, #234, .T. ) ;
#133 = EDGE_CURVE ( 'NONE', #221, #235, #69, .T. ) ;
#134 = PERSON_AND_ORGANIZATION_ROLE ( 'creator' ) ;
#135 = DIRECTION ( 'NONE',  ( 0.0000000000000000000, 0.0000000000000000000, 1.000000000000000000 ) ) ;
#136 = ADVANCED_FACE ( 'NONE', ( #15 ), #18, .T. ) ;
#137 = DIRECTION ( 'NONE',  ( -0.0000000000000000000, -0.0000000000000000000, -1.000000000000000000 ) ) ;
#138 = VERTEX_POINT ( 'NONE', #209 ) ;
#139 = APPROVAL_PERSON_ORGANIZATION ( #80, #101, #60 ) ;
#140 =( BOUNDED_SURFACE ( )  B_SPLINE_SURFACE ( 3, 3, ( 
 ( #88, #125, #23, #149 ),
 ( #182, #131, #57, #130 ),
 ( #46, #40, #42, #145 ),
 ( #166, #148, #93, #129 ) ),
 .UNSPECIFIED., .F., .F., .F. ) 
 B_SPLINE_SURFACE_WITH_KNOTS ( ( 4, 4 ),
 ( 4, 4 ),
 ( 0.0000000000000000000, 1.000000000000000000 ),
 ( 0.0000000000000000000, 1.000000000000000000 ),
 .UNSPECIFIED. ) 
 GEOMETRIC_REPRESENTATION_ITEM ( )  RATIONAL_B_SPLINE_SURFACE ( (
 ( 1.000000000000000000, 0.9998594700258655000, 0.9998594700258655000, 1.000000000000000000),
 ( 0.9994312158114988500, 0.9992907657685916600, 0.9992907657685916600, 0.9994312158114988500),
 ( 0.9994312158114988500, 0.9992907657685916600, 0.9992907657685916600, 0.9994312158114988500),
 ( 1.000000000000000000, 0.9998594700258655000, 0.9998594700258655000, 1.000000000000000000) ) ) 
 REPRESENTATION_ITEM ( '' )  SURFACE ( )  );
#141 = VERTEX_POINT ( 'NONE', #195 ) ;
#142 = EDGE_CURVE ( 'NONE', #205, #141, #152, .T. ) ;
#143 = CARTESIAN_POINT ( 'NONE',  ( -4.263256414560599900E-014, -6.349999999999966800, -0.1296250084923704100 ) ) ;
#144 = CARTESIAN_POINT ( 'NONE',  ( -4.263256414560599900E-014, -2.143271360455007500, 0.04427659369180637900 ) ) ;
#145 = CARTESIAN_POINT ( 'NONE',  ( -7.979727989493312600E-014, -2.143271360455007500, 0.04427659369181136800 ) ) ;
#146 = AXIS2_PLACEMENT_3D ( 'NONE', #28, #5, #73 ) ;
#147 = APPLICATION_PROTOCOL_DEFINITION ( 'international standard', 'config_control_design', 1994, #98 ) ;
#148 = CARTESIAN_POINT ( 'NONE',  ( -4.256132341903193800, -6.426156904780488500, -0.1764513810016720100 ) ) ;
#149 = CARTESIAN_POINT ( 'NONE',  ( -8.066464163292153000E-014, 6.426156904780443200, -0.1327542295961831600 ) ) ;
#150 = LOCAL_TIME ( 16, 1, 39.00000000000000000, #210 ) ;
#151 = LOCAL_TIME ( 16, 1, 39.00000000000000000, #120 ) ;
#152 = CIRCLE ( 'NONE', #78, 6.349999999999999600 ) ;
#153 = CC_DESIGN_APPROVAL ( #35, ( #52 ) ) ;
#154 = DATE_AND_TIME ( #158, #175 ) ;
#155 = EDGE_LOOP ( 'NONE', ( #85, #100 ) ) ;
#156 = CARTESIAN_POINT ( 'NONE',  ( 4.256132341903088100, 6.426156904780443200, -0.1764513810016805600 ) ) ;
#157 = DIRECTION ( 'NONE',  ( -0.0000000000000000000, -0.0000000000000000000, -1.000000000000000000 ) ) ;
#158 = CALENDAR_DATE ( 2019, 14, 1 ) ;
#159 = CARTESIAN_POINT ( 'NONE',  ( 6.389896396970617500, 2.143271360454960900, -0.08694569133554472300 ) ) ;
#160 = ORIENTED_EDGE ( 'NONE', *, *, #118, .T. ) ;
#161 = DIRECTION ( 'NONE',  ( 1.000000000000000000, 0.0000000000000000000, 0.0000000000000000000 ) ) ;
#162 = PRODUCT ( '112-0127E BK7 pl-cv 12.7 F-300', '112-0127E BK7 pl-cv 12.7 F-300', '', ( #3 ) ) ;
#163 = DIRECTION ( 'NONE',  ( 0.0000000000000000000, 0.0000000000000000000, 1.000000000000000000 ) ) ;
#164 = CARTESIAN_POINT ( 'NONE',  ( 2.498001805406600200E-016, 1.221245327087670000E-015, -0.1296250084923730200 ) ) ;
#165 =( GEOMETRIC_REPRESENTATION_CONTEXT ( 3 ) GLOBAL_UNCERTAINTY_ASSIGNED_CONTEXT ( ( #121 ) ) GLOBAL_UNIT_ASSIGNED_CONTEXT ( ( #183, #113, #187 ) ) REPRESENTATION_CONTEXT ( 'NONE', 'WORKASPACE' ) );
#166 = CARTESIAN_POINT ( 'NONE',  ( -6.382628486806348500, -6.426156904780489400, -0.2638272615339831700 ) ) ;
#167 = APPLICATION_CONTEXT ( 'configuration controlled 3d designs of mechanical parts and assemblies' ) ;
#168 = CARTESIAN_POINT ( 'NONE',  ( 6.349999999999999600, 1.221245327087670000E-015, 2.899999999999999900 ) ) ;
#169 = CALENDAR_DATE ( 2019, 14, 1 ) ;
#170 = CC_DESIGN_PERSON_AND_ORGANIZATION_ASSIGNMENT ( #215, #7, ( #107 ) ) ;
#171 = VERTEX_POINT ( 'NONE', #143 ) ;
#172 = CARTESIAN_POINT ( 'NONE',  ( -4.263256414560599900E-014, -4.263256414560599900E-014, -155.5999999999999900 ) ) ;
#173 = FACE_OUTER_BOUND ( 'NONE', #105, .T. ) ;
#174 = AXIS2_PLACEMENT_3D ( 'NONE', #214, #54, #193 ) ;
#175 = LOCAL_TIME ( 16, 1, 39.00000000000000000, #117 ) ;
#176 = DESIGN_CONTEXT ( 'detailed design', #167, 'design' ) ;
#177 = DIRECTION ( 'NONE',  ( 1.000000000000000000, 0.0000000000000000000, 0.0000000000000000000 ) ) ;
#178 = DIRECTION ( 'NONE',  ( 1.000000000000000000, 0.0000000000000000000, 0.0000000000000000000 ) ) ;
#179 = CARTESIAN_POINT ( 'NONE',  ( 4.256132341903088100, -6.426156904780488500, -0.1764513810016805600 ) ) ;
#180 = DATE_AND_TIME ( #126, #103 ) ;
#181 = DIRECTION ( 'NONE',  ( 0.0000000000000000000, 0.0000000000000000000, 1.000000000000000000 ) ) ;
#182 = CARTESIAN_POINT ( 'NONE',  ( -6.389896396970714300, 2.143271360454960900, -0.08694569133553596600 ) ) ;
#183 =( LENGTH_UNIT ( ) NAMED_UNIT ( * ) SI_UNIT ( .MILLI., .METRE. ) );
#184 = CC_DESIGN_PERSON_AND_ORGANIZATION_ASSIGNMENT ( #201, #134, ( #52 ) ) ;
#185 = PERSON_AND_ORGANIZATION_ROLE ( 'creator' ) ;
#186 = ORIENTED_EDGE ( 'NONE', *, *, #189, .F. ) ;
#187 =( NAMED_UNIT ( * ) SI_UNIT ( $, .STERADIAN. ) SOLID_ANGLE_UNIT ( ) );
#188 = APPROVAL_ROLE ( '' ) ;
#189 = EDGE_CURVE ( 'NONE', #138, #221, #10, .T. ) ;
#190 = CIRCLE ( 'NONE', #124, 6.349999999999999600 ) ;
#191 = AXIS2_PLACEMENT_3D ( 'NONE', #22, #163, #178 ) ;
#192 = PRODUCT_DEFINITION_FORMATION_WITH_SPECIFIED_SOURCE ( 'ANY', '', #162, .NOT_KNOWN. ) ;
#193 = DIRECTION ( 'NONE',  ( 1.000000000000000000, 0.0000000000000000000, -0.0000000000000000000 ) ) ;
#194 = FACE_OUTER_BOUND ( 'NONE', #48, .T. ) ;
#195 = CARTESIAN_POINT ( 'NONE',  ( -6.349999999999999600, 1.998896044546239400E-015, -0.1296250084923730200 ) ) ;
#196 = APPROVAL_ROLE ( '' ) ;
#197 = AXIS2_PLACEMENT_3D ( 'NONE', #99, #25, #92 ) ;
#198 = DIRECTION ( 'NONE',  ( 0.0000000000000000000, 1.000000000000000000, 7.135109412758075500E-016 ) ) ;
#199 = ORIENTED_EDGE ( 'NONE', *, *, #208, .F. ) ;
#200 = APPROVAL_DATE_TIME ( #154, #227 ) ;
#201 = PERSON_AND_ORGANIZATION ( #87, #228 ) ;
#202 = CC_DESIGN_APPROVAL ( #101, ( #192 ) ) ;
#203 = CARTESIAN_POINT ( 'NONE',  ( -6.349999999999999600, 1.998896044546239400E-015, -0.1296250084923730200 ) ) ;
#204 = PERSON_AND_ORGANIZATION ( #87, #228 ) ;
#205 = VERTEX_POINT ( 'NONE', #70 ) ;
#206 = DATE_AND_TIME ( #216, #33 ) ;
#207 = ADVANCED_FACE ( 'NONE', ( #194 ), #140, .F. ) ;
#208 = EDGE_CURVE ( 'NONE', #171, #138, #108, .T. ) ;
#209 = CARTESIAN_POINT ( 'NONE',  ( 6.349999999999999600, 1.221245327087670000E-015, -0.1296250084923730200 ) ) ;
#210 = COORDINATED_UNIVERSAL_TIME_OFFSET ( 2, 0, .AHEAD. ) ;
#211 = CARTESIAN_POINT ( 'NONE',  ( 2.498001805406600200E-016, 1.221245327087670000E-015, -0.1296250084923730200 ) ) ;
#212 = ORIENTED_EDGE ( 'NONE', *, *, #189, .T. ) ;
#213 = CC_DESIGN_DATE_AND_TIME_ASSIGNMENT ( #30, #75, ( #107 ) ) ;
#214 = CARTESIAN_POINT ( 'NONE',  ( 0.0000000000000000000, 13.15799999999999900, 2.899999999999999900 ) ) ;
#215 = PERSON_AND_ORGANIZATION ( #87, #228 ) ;
#216 = CALENDAR_DATE ( 2019, 14, 1 ) ;
#217 = CIRCLE ( 'NONE', #127, 155.5999999999999900 ) ;
#218 = CARTESIAN_POINT ( 'NONE',  ( 0.0000000000000000000, 0.0000000000000000000, 0.0000000000000000000 ) ) ;
#219 = AXIS2_PLACEMENT_3D ( 'NONE', #164, #181, #110 ) ;
#220 = PERSON_AND_ORGANIZATION_ROLE ( 'design_supplier' ) ;
#221 = VERTEX_POINT ( 'NONE', #168 ) ;
#222 = DIRECTION ( 'NONE',  ( 0.0000000000000000000, 0.0000000000000000000, 1.000000000000000000 ) ) ;
#223 = APPROVAL_STATUS ( 'not_yet_approved' ) ;
#224 = PERSON_AND_ORGANIZATION ( #87, #228 ) ;
#225 = APPROVAL_PERSON_ORGANIZATION ( #38, #35, #196 ) ;
#226 = CC_DESIGN_SECURITY_CLASSIFICATION ( #107, ( #192 ) ) ;
#227 = APPROVAL ( #62, 'UNSPECIFIED' ) ;
#228 = ORGANIZATION ( 'UNSPECIFIED', 'UNSPECIFIED', '' ) ;
#229 = ORIENTED_EDGE ( 'NONE', *, *, #234, .F. ) ;
#230 = ADVANCED_FACE ( 'NONE', ( #94 ), #233, .T. ) ;
#231 = CARTESIAN_POINT ( 'NONE',  ( 2.498001805406600200E-016, 1.221245327087670000E-015, -0.1296250084923730200 ) ) ;
#232 = CARTESIAN_POINT ( 'NONE',  ( 4.260978807206928600, 2.143271360454960500, 0.0005296842639719622300 ) ) ;
#233 = CYLINDRICAL_SURFACE ( 'NONE', #146, 6.349999999999999600 ) ;
#234 = EDGE_CURVE ( 'NONE', #205, #171, #217, .T. ) ;
#235 = VERTEX_POINT ( 'NONE', #45 ) ;
ENDSEC;
END-ISO-10303-21;
