ISO-10303-21;
HEADER;
FILE_DESCRIPTION (( 'STEP AP214' ),
    '1' );
FILE_NAME ('112-0125E BK7 pl-cv 12.7 F-250.STEP',
    '2019-01-14T13:38:49',
    ( '' ),
    ( '' ),
    'SwSTEP 2.0',
    'SolidWorks 2017',
    '' );
FILE_SCHEMA (( 'AUTOMOTIVE_DESIGN' ));
ENDSEC;

DATA;
#1 =( BOUNDED_SURFACE ( )  B_SPLINE_SURFACE ( 3, 3, ( 
 ( #191, #123, #125, #61 ),
 ( #105, #176, #16, #140 ),
 ( #60, #156, #29, #108 ),
 ( #17, #174, #138, #155 ) ),
 .UNSPECIFIED., .F., .F., .F. ) 
 B_SPLINE_SURFACE_WITH_KNOTS ( ( 4, 4 ),
 ( 4, 4 ),
 ( 0.0000000000000000000, 1.000000000000000000 ),
 ( 0.0000000000000000000, 1.000000000000000000 ),
 .UNSPECIFIED. ) 
 GEOMETRIC_REPRESENTATION_ITEM ( )  RATIONAL_B_SPLINE_SURFACE ( (
 ( 1.000000000000000000, 0.9997976945634113900, 0.9997976945634113900, 1.000000000000000000),
 ( 0.9991812229570113900, 0.9989790831634699500, 0.9989790831634699500, 0.9991812229570113900),
 ( 0.9991812229570113900, 0.9989790831634699500, 0.9989790831634699500, 0.9991812229570113900),
 ( 1.000000000000000000, 0.9997976945634113900, 0.9997976945634113900, 1.000000000000000000) ) ) 
 REPRESENTATION_ITEM ( '' )  SURFACE ( )  );
#2 = EDGE_LOOP ( 'NONE', ( #117, #39, #26 ) ) ;
#3 = EDGE_CURVE ( 'NONE', #56, #133, #63, .T. ) ;
#4 = ORIENTED_EDGE ( 'NONE', *, *, #177, .T. ) ;
#5 = DIRECTION ( 'NONE',  ( 1.000000000000000000, 0.0000000000000000000, 0.0000000000000000000 ) ) ;
#6 = CARTESIAN_POINT ( 'NONE',  ( 2.498001805406600200E-016, 1.221245327087670000E-015, -0.1555385205527199900 ) ) ;
#7 = CYLINDRICAL_SURFACE ( 'NONE', #30, 6.349999999999999600 ) ;
#8 = CARTESIAN_POINT ( 'NONE',  ( 0.0000000000000000000, 13.15799999999999900, 3.299999999999999800 ) ) ;
#9 = CARTESIAN_POINT ( 'NONE',  ( 6.718533253245262000E-014, -6.426137956652305600, -0.1592930737134290500 ) ) ;
#10 = CARTESIAN_POINT ( 'NONE',  ( 7.006481469315690400E-014, 6.426137956652319800, -0.1592930737134290500 ) ) ;
#11 =( GEOMETRIC_REPRESENTATION_CONTEXT ( 3 ) GLOBAL_UNCERTAINTY_ASSIGNED_CONTEXT ( ( #38 ) ) GLOBAL_UNIT_ASSIGNED_CONTEXT ( ( #146, #12, #188 ) ) REPRESENTATION_CONTEXT ( 'NONE', 'WORKASPACE' ) );
#12 =( NAMED_UNIT ( * ) PLANE_ANGLE_UNIT ( ) SI_UNIT ( $, .RADIAN. ) );
#13 = PRESENTATION_STYLE_ASSIGNMENT (( #170 ) ) ;
#14 = PRODUCT_RELATED_PRODUCT_CATEGORY ( 'part', '', ( #65 ) ) ;
#15 = DIRECTION ( 'NONE',  ( 0.0000000000000000000, 0.0000000000000000000, 1.000000000000000000 ) ) ;
#16 = CARTESIAN_POINT ( 'NONE',  ( -2.131306672945636900, 2.143801280824247700, 0.05314120203405822700 ) ) ;
#17 = CARTESIAN_POINT ( 'NONE',  ( -6.380223647484454500, -6.426137956652303800, -0.3165099513459945800 ) ) ;
#18 =( GEOMETRIC_REPRESENTATION_CONTEXT ( 3 ) GLOBAL_UNCERTAINTY_ASSIGNED_CONTEXT ( ( #132 ) ) GLOBAL_UNIT_ASSIGNED_CONTEXT ( ( #134, #85, #145 ) ) REPRESENTATION_CONTEXT ( 'NONE', 'WORKASPACE' ) );
#19 = CARTESIAN_POINT ( 'NONE',  ( 2.127817257697117300, -6.426137956652305600, -0.1592930737134299100 ) ) ;
#20 = CARTESIAN_POINT ( 'NONE',  ( 6.349999999999999600, 1.221245327087670000E-015, -0.1555385205527199900 ) ) ;
#21 = DIRECTION ( 'NONE',  ( 0.0000000000000000000, 0.0000000000000000000, 1.000000000000000000 ) ) ;
#22 = CARTESIAN_POINT ( 'NONE',  ( 4.261966583500891300, 2.143801280824245900, 0.0006390145023573551800 ) ) ;
#23 = CIRCLE ( 'NONE', #147, 6.349999999999999600 ) ;
#24 = COLOUR_RGB ( '',0.7921568627450980000, 0.8196078431372548800, 0.9333333333333333500 ) ;
#25 = CIRCLE ( 'NONE', #189, 6.349999999999999600 ) ;
#26 = ORIENTED_EDGE ( 'NONE', *, *, #52, .F. ) ;
#27 = CARTESIAN_POINT ( 'NONE',  ( 1.421085471520200100E-014, 1.421085471520200100E-014, -129.6999999999999900 ) ) ;
#28 = CIRCLE ( 'NONE', #116, 6.349999999999999600 ) ;
#29 = CARTESIAN_POINT ( 'NONE',  ( -2.131306672945638700, -2.143801280824231300, 0.05314120203405876100 ) ) ;
#30 = AXIS2_PLACEMENT_3D ( 'NONE', #128, #178, #110 ) ;
#31 = DIRECTION ( 'NONE',  ( 1.000000000000000000, -2.240445334451200100E-016, -4.200549787686929800E-016 ) ) ;
#32 = CARTESIAN_POINT ( 'NONE',  ( 6.720396794417647800E-014, -6.349999999999938400, -0.1555385205527213300 ) ) ;
#33 = PLANE ( 'NONE',  #42 ) ;
#34 = DIRECTION ( 'NONE',  ( 1.000000000000000000, 0.0000000000000000000, 0.0000000000000000000 ) ) ;
#35 = SURFACE_STYLE_FILL_AREA ( #187 ) ;
#36 = CARTESIAN_POINT ( 'NONE',  ( 2.131306672945710600, 2.143801280824246400, 0.05314120203405615900 ) ) ;
#37 = DIRECTION ( 'NONE',  ( 0.0000000000000000000, 0.0000000000000000000, 1.000000000000000000 ) ) ;
#38 = UNCERTAINTY_MEASURE_WITH_UNIT (LENGTH_MEASURE( 1.000000000000000100E-005 ), #146, 'distance_accuracy_value', 'NONE');
#39 = ORIENTED_EDGE ( 'NONE', *, *, #3, .T. ) ;
#40 = PRODUCT_CONTEXT ( 'NONE', #131, 'mechanical' ) ;
#41 =( LENGTH_UNIT ( ) NAMED_UNIT ( * ) SI_UNIT ( .MILLI., .METRE. ) );
#42 = AXIS2_PLACEMENT_3D ( 'NONE', #8, #160, #112 ) ;
#43 = ORIENTED_EDGE ( 'NONE', *, *, #165, .T. ) ;
#44 = ORIENTED_EDGE ( 'NONE', *, *, #177, .F. ) ;
#45 = CARTESIAN_POINT ( 'NONE',  ( 6.349999999999999600, 1.221245327087670000E-015, 3.299999999999999800 ) ) ;
#46 = CARTESIAN_POINT ( 'NONE',  ( 4.254988811895217700, -6.426137956652305600, -0.2117093036792453400 ) ) ;
#47 = AXIS2_PLACEMENT_3D ( 'NONE', #86, #51, #166 ) ;
#48 = DIRECTION ( 'NONE',  ( 1.000000000000000000, 0.0000000000000000000, 0.0000000000000000000 ) ) ;
#49 = DIRECTION ( 'NONE',  ( 0.0000000000000000000, 0.0000000000000000000, 1.000000000000000000 ) ) ;
#50 = EDGE_LOOP ( 'NONE', ( #74, #124, #70 ) ) ;
#51 = DIRECTION ( 'NONE',  ( 0.0000000000000000000, 0.0000000000000000000, 1.000000000000000000 ) ) ;
#52 = EDGE_CURVE ( 'NONE', #167, #133, #23, .T. ) ;
#53 = ORIENTED_EDGE ( 'NONE', *, *, #130, .T. ) ;
#54 = AXIS2_PLACEMENT_3D ( 'NONE', #111, #198, #34 ) ;
#55 = EDGE_LOOP ( 'NONE', ( #122, #171 ) ) ;
#56 = VERTEX_POINT ( 'NONE', #77 ) ;
#57 = CARTESIAN_POINT ( 'NONE',  ( -6.349999999999999600, 1.998896044546239400E-015, 3.299999999999999800 ) ) ;
#58 = LINE ( 'NONE', #142, #137 ) ;
#59 = CYLINDRICAL_SURFACE ( 'NONE', #69, 6.349999999999999600 ) ;
#60 = CARTESIAN_POINT ( 'NONE',  ( -6.390686599415320600, -2.143801280824230800, -0.1043334961271096100 ) ) ;
#61 = CARTESIAN_POINT ( 'NONE',  ( 3.642919299551294900E-014, 6.426137956652319800, -0.1592930737134282400 ) ) ;
#62 = CARTESIAN_POINT ( 'NONE',  ( 2.498001805406600200E-016, 1.221245327087670000E-015, -0.1555385205527199900 ) ) ;
#63 = CIRCLE ( 'NONE', #73, 129.6999999999999900 ) ;
#64 = CARTESIAN_POINT ( 'NONE',  ( -6.349999999999999600, 1.998896044546239400E-015, -0.1555385205527199900 ) ) ;
#65 = PRODUCT ( '112-0125E BK7 pl-cv 12.7 F-250', '112-0125E BK7 pl-cv 12.7 F-250', '', ( #40 ) ) ;
#66 = CARTESIAN_POINT ( 'NONE',  ( 2.498001805406600200E-016, 1.221245327087670000E-015, -0.1555385205527199900 ) ) ;
#67 = SURFACE_STYLE_FILL_AREA ( #115 ) ;
#68 = APPLICATION_CONTEXT ( 'automotive_design' ) ;
#69 = AXIS2_PLACEMENT_3D ( 'NONE', #104, #15, #144 ) ;
#70 = ORIENTED_EDGE ( 'NONE', *, *, #139, .F. ) ;
#71 = SURFACE_SIDE_STYLE ('',( #35 ) ) ;
#72 = MECHANICAL_DESIGN_GEOMETRIC_PRESENTATION_REPRESENTATION (  '', ( #192 ), #163 ) ;
#73 = AXIS2_PLACEMENT_3D ( 'NONE', #27, #31, #194 ) ;
#74 = ORIENTED_EDGE ( 'NONE', *, *, #3, .F. ) ;
#75 =( BOUNDED_SURFACE ( )  B_SPLINE_SURFACE ( 3, 3, ( 
 ( #10, #126, #109, #164 ),
 ( #141, #36, #22, #183 ),
 ( #159, #199, #195, #81 ),
 ( #9, #19, #46, #197 ) ),
 .UNSPECIFIED., .F., .F., .T. ) 
 B_SPLINE_SURFACE_WITH_KNOTS ( ( 4, 4 ),
 ( 4, 4 ),
 ( 0.0000000000000000000, 1.000000000000000000 ),
 ( 0.0000000000000000000, 1.000000000000000000 ),
 .UNSPECIFIED. ) 
 GEOMETRIC_REPRESENTATION_ITEM ( )  RATIONAL_B_SPLINE_SURFACE ( (
 ( 1.000000000000000000, 0.9997976945634113900, 0.9997976945634113900, 1.000000000000000000),
 ( 0.9991812229570113900, 0.9989790831634699500, 0.9989790831634699500, 0.9991812229570113900),
 ( 0.9991812229570113900, 0.9989790831634699500, 0.9989790831634699500, 0.9991812229570113900),
 ( 1.000000000000000000, 0.9997976945634113900, 0.9997976945634113900, 1.000000000000000000) ) ) 
 REPRESENTATION_ITEM ( '' )  SURFACE ( )  );
#76 = FACE_OUTER_BOUND ( 'NONE', #100, .T. ) ;
#77 = CARTESIAN_POINT ( 'NONE',  ( 7.004933351892946700E-014, 6.349999999999952600, -0.1555385205527213300 ) ) ;
#78 = FILL_AREA_STYLE_COLOUR ( '', #79 ) ;
#79 = COLOUR_RGB ( '',0.7921568627450980000, 0.8196078431372548800, 0.9333333333333333500 ) ;
#80 = DIRECTION ( 'NONE',  ( 1.000000000000000000, 0.0000000000000000000, 0.0000000000000000000 ) ) ;
#81 = CARTESIAN_POINT ( 'NONE',  ( 6.390686599415326800, -2.143801280824233900, -0.1043334961271160900 ) ) ;
#82 = PRODUCT_DEFINITION ( 'UNKNOWN', '', #95, #89 ) ;
#83 =( NAMED_UNIT ( * ) PLANE_ANGLE_UNIT ( ) SI_UNIT ( $, .RADIAN. ) );
#84 = EDGE_LOOP ( 'NONE', ( #53, #114, #121, #173, #44 ) ) ;
#85 =( NAMED_UNIT ( * ) PLANE_ANGLE_UNIT ( ) SI_UNIT ( $, .RADIAN. ) );
#86 = CARTESIAN_POINT ( 'NONE',  ( 0.0000000000000000000, 0.0000000000000000000, 0.0000000000000000000 ) ) ;
#87 = STYLED_ITEM ( 'NONE', ( #154 ), #169 ) ;
#88 = ADVANCED_FACE ( 'NONE', ( #148 ), #1, .F. ) ;
#89 = PRODUCT_DEFINITION_CONTEXT ( 'detailed design', #68, 'design' ) ;
#90 = VERTEX_POINT ( 'NONE', #57 ) ;
#91 = ORIENTED_EDGE ( 'NONE', *, *, #172, .F. ) ;
#92 = VERTEX_POINT ( 'NONE', #45 ) ;
#93 = DIRECTION ( 'NONE',  ( -0.0000000000000000000, -0.0000000000000000000, -1.000000000000000000 ) ) ;
#94 = DIRECTION ( 'NONE',  ( -0.0000000000000000000, -0.0000000000000000000, -1.000000000000000000 ) ) ;
#95 = PRODUCT_DEFINITION_FORMATION_WITH_SPECIFIED_SOURCE ( 'ANY', '', #65, .NOT_KNOWN. ) ;
#96 = CIRCLE ( 'NONE', #107, 6.349999999999999600 ) ;
#97 = EDGE_CURVE ( 'NONE', #56, #167, #103, .T. ) ;
#98 = DIRECTION ( 'NONE',  ( 1.000000000000000000, 0.0000000000000000000, 0.0000000000000000000 ) ) ;
#99 =( NAMED_UNIT ( * ) SI_UNIT ( $, .STERADIAN. ) SOLID_ANGLE_UNIT ( ) );
#100 = EDGE_LOOP ( 'NONE', ( #91, #127, #152, #4, #43 ) ) ;
#101 = FACE_OUTER_BOUND ( 'NONE', #84, .T. ) ;
#102 = VECTOR ( 'NONE', #21, 1000.000000000000000 ) ;
#103 = CIRCLE ( 'NONE', #158, 6.349999999999999600 ) ;
#104 = CARTESIAN_POINT ( 'NONE',  ( 2.498001805406600200E-016, 1.221245327087670000E-015, -0.1555385205527199900 ) ) ;
#105 = CARTESIAN_POINT ( 'NONE',  ( -6.390686599415318800, 2.143801280824249000, -0.1043334961271100400 ) ) ;
#106 = PRODUCT_DEFINITION_SHAPE ( 'NONE', 'NONE',  #82 ) ;
#107 = AXIS2_PLACEMENT_3D ( 'NONE', #129, #93, #98 ) ;
#108 = CARTESIAN_POINT ( 'NONE',  ( 3.469446951953614200E-014, -2.143801280824232200, 0.05314120203405841400 ) ) ;
#109 = CARTESIAN_POINT ( 'NONE',  ( 4.254988811895220400, 6.426137956652318900, -0.2117093036792453400 ) ) ;
#110 = DIRECTION ( 'NONE',  ( 1.000000000000000000, 0.0000000000000000000, 0.0000000000000000000 ) ) ;
#111 = CARTESIAN_POINT ( 'NONE',  ( 2.498001805406600200E-016, 1.221245327087670000E-015, -0.1555385205527199900 ) ) ;
#112 = DIRECTION ( 'NONE',  ( 1.000000000000000000, 0.0000000000000000000, -0.0000000000000000000 ) ) ;
#113 = SURFACE_SIDE_STYLE ('',( #67 ) ) ;
#114 = ORIENTED_EDGE ( 'NONE', *, *, #97, .T. ) ;
#115 = FILL_AREA_STYLE ('',( #200 ) ) ;
#116 = AXIS2_PLACEMENT_3D ( 'NONE', #6, #37, #80 ) ;
#117 = ORIENTED_EDGE ( 'NONE', *, *, #97, .F. ) ;
#118 = MECHANICAL_DESIGN_GEOMETRIC_PRESENTATION_REPRESENTATION (  '', ( #87 ), #18 ) ;
#119 = ADVANCED_FACE ( 'NONE', ( #101 ), #59, .T. ) ;
#120 = EDGE_CURVE ( 'NONE', #90, #92, #96, .T. ) ;
#121 = ORIENTED_EDGE ( 'NONE', *, *, #172, .T. ) ;
#122 = ORIENTED_EDGE ( 'NONE', *, *, #165, .F. ) ;
#123 = CARTESIAN_POINT ( 'NONE',  ( -4.254988811895177700, 6.426137956652320700, -0.2117093036792368800 ) ) ;
#124 = ORIENTED_EDGE ( 'NONE', *, *, #130, .F. ) ;
#125 = CARTESIAN_POINT ( 'NONE',  ( -2.127817257697045800, 6.426137956652320700, -0.1592930737134278200 ) ) ;
#126 = CARTESIAN_POINT ( 'NONE',  ( 2.127817257697120400, 6.426137956652318900, -0.1592930737134299100 ) ) ;
#127 = ORIENTED_EDGE ( 'NONE', *, *, #52, .T. ) ;
#128 = CARTESIAN_POINT ( 'NONE',  ( 2.498001805406600200E-016, 1.221245327087670000E-015, -0.1555385205527199900 ) ) ;
#129 = CARTESIAN_POINT ( 'NONE',  ( 2.498001805406600200E-016, 1.221245327087670000E-015, 3.299999999999999800 ) ) ;
#130 = EDGE_CURVE ( 'NONE', #179, #56, #28, .T. ) ;
#131 = APPLICATION_CONTEXT ( 'automotive_design' ) ;
#132 = UNCERTAINTY_MEASURE_WITH_UNIT (LENGTH_MEASURE( 1.000000000000000100E-005 ), #134, 'distance_accuracy_value', 'NONE');
#133 = VERTEX_POINT ( 'NONE', #32 ) ;
#134 =( LENGTH_UNIT ( ) NAMED_UNIT ( * ) SI_UNIT ( .MILLI., .METRE. ) );
#135 = CLOSED_SHELL ( 'NONE', ( #88, #119, #151, #150, #136 ) ) ;
#136 = ADVANCED_FACE ( 'NONE', ( #180 ), #33, .T. ) ;
#137 = VECTOR ( 'NONE', #181, 1000.000000000000000 ) ;
#138 = CARTESIAN_POINT ( 'NONE',  ( -2.127817257697049300, -6.426137956652303800, -0.1592930737134278200 ) ) ;
#139 = EDGE_CURVE ( 'NONE', #133, #179, #161, .T. ) ;
#140 = CARTESIAN_POINT ( 'NONE',  ( 3.642919299551296200E-014, 2.143801280824248100, 0.05314120203405786600 ) ) ;
#141 = CARTESIAN_POINT ( 'NONE',  ( 6.919461464575491900E-014, 2.143801280824247700, 0.05314120203405705400 ) ) ;
#142 = CARTESIAN_POINT ( 'NONE',  ( 6.349999999999999600, 1.221245327087670000E-015, -0.1555385205527199900 ) ) ;
#143 = FACE_OUTER_BOUND ( 'NONE', #50, .T. ) ;
#144 = DIRECTION ( 'NONE',  ( 1.000000000000000000, 0.0000000000000000000, 0.0000000000000000000 ) ) ;
#145 =( NAMED_UNIT ( * ) SI_UNIT ( $, .STERADIAN. ) SOLID_ANGLE_UNIT ( ) );
#146 =( LENGTH_UNIT ( ) NAMED_UNIT ( * ) SI_UNIT ( .MILLI., .METRE. ) );
#147 = AXIS2_PLACEMENT_3D ( 'NONE', #62, #193, #5 ) ;
#148 = FACE_OUTER_BOUND ( 'NONE', #2, .T. ) ;
#149 = SURFACE_STYLE_USAGE ( .BOTH. , #71 ) ;
#150 = ADVANCED_FACE ( 'NONE', ( #143 ), #75, .F. ) ;
#151 = ADVANCED_FACE ( 'NONE', ( #76 ), #7, .T. ) ;
#152 = ORIENTED_EDGE ( 'NONE', *, *, #139, .T. ) ;
#153 = PRESENTATION_LAYER_ASSIGNMENT (  '', '', ( #87 ) ) ;
#154 = PRESENTATION_STYLE_ASSIGNMENT (( #149 ) ) ;
#155 = CARTESIAN_POINT ( 'NONE',  ( 3.295974604355933500E-014, -6.426137956652305600, -0.1592930737134281800 ) ) ;
#156 = CARTESIAN_POINT ( 'NONE',  ( -4.261966583500851300, -2.143801280824230800, 0.0006390145023662319800 ) ) ;
#157 = UNCERTAINTY_MEASURE_WITH_UNIT (LENGTH_MEASURE( 1.000000000000000100E-005 ), #41, 'distance_accuracy_value', 'NONE');
#158 = AXIS2_PLACEMENT_3D ( 'NONE', #66, #49, #162 ) ;
#159 = CARTESIAN_POINT ( 'NONE',  ( 6.823400073023229800E-014, -2.143801280824232600, 0.05314120203405748400 ) ) ;
#160 = DIRECTION ( 'NONE',  ( 0.0000000000000000000, 0.0000000000000000000, 1.000000000000000000 ) ) ;
#161 = CIRCLE ( 'NONE', #54, 6.349999999999999600 ) ;
#162 = DIRECTION ( 'NONE',  ( 1.000000000000000000, 0.0000000000000000000, 0.0000000000000000000 ) ) ;
#163 =( GEOMETRIC_REPRESENTATION_CONTEXT ( 3 ) GLOBAL_UNCERTAINTY_ASSIGNED_CONTEXT ( ( #157 ) ) GLOBAL_UNIT_ASSIGNED_CONTEXT ( ( #41, #83, #99 ) ) REPRESENTATION_CONTEXT ( 'NONE', 'WORKASPACE' ) );
#164 = CARTESIAN_POINT ( 'NONE',  ( 6.380223647484460700, 6.426137956652318000, -0.3165099513460010700 ) ) ;
#165 = EDGE_CURVE ( 'NONE', #92, #90, #25, .T. ) ;
#166 = DIRECTION ( 'NONE',  ( 1.000000000000000000, 0.0000000000000000000, 0.0000000000000000000 ) ) ;
#167 = VERTEX_POINT ( 'NONE', #64 ) ;
#168 = APPLICATION_PROTOCOL_DEFINITION ( 'draft international standard', 'automotive_design', 1998, #68 ) ;
#169 = ADVANCED_BREP_SHAPE_REPRESENTATION ( '112-0125E BK7 pl-cv 12.7 F-250', ( #184, #47 ), #11 ) ;
#170 = SURFACE_STYLE_USAGE ( .BOTH. , #113 ) ;
#171 = ORIENTED_EDGE ( 'NONE', *, *, #120, .F. ) ;
#172 = EDGE_CURVE ( 'NONE', #167, #90, #190, .T. ) ;
#173 = ORIENTED_EDGE ( 'NONE', *, *, #120, .T. ) ;
#174 = CARTESIAN_POINT ( 'NONE',  ( -4.254988811895181300, -6.426137956652303800, -0.2117093036792368800 ) ) ;
#175 = PRESENTATION_LAYER_ASSIGNMENT (  '', '', ( #192 ) ) ;
#176 = CARTESIAN_POINT ( 'NONE',  ( -4.261966583500849600, 2.143801280824248100, 0.0006390145023657847500 ) ) ;
#177 = EDGE_CURVE ( 'NONE', #179, #92, #58, .T. ) ;
#178 = DIRECTION ( 'NONE',  ( 0.0000000000000000000, 0.0000000000000000000, 1.000000000000000000 ) ) ;
#179 = VERTEX_POINT ( 'NONE', #20 ) ;
#180 = FACE_OUTER_BOUND ( 'NONE', #55, .T. ) ;
#181 = DIRECTION ( 'NONE',  ( 0.0000000000000000000, 0.0000000000000000000, 1.000000000000000000 ) ) ;
#182 = CARTESIAN_POINT ( 'NONE',  ( -6.349999999999999600, 1.998896044546239400E-015, -0.1555385205527199900 ) ) ;
#183 = CARTESIAN_POINT ( 'NONE',  ( 6.390686599415327700, 2.143801280824246400, -0.1043334961271165200 ) ) ;
#184 = MANIFOLD_SOLID_BREP ( 'Imported1', #135 ) ;
#185 = SHAPE_DEFINITION_REPRESENTATION ( #106, #169 ) ;
#186 = APPLICATION_PROTOCOL_DEFINITION ( 'draft international standard', 'automotive_design', 1998, #131 ) ;
#187 = FILL_AREA_STYLE ('',( #78 ) ) ;
#188 =( NAMED_UNIT ( * ) SI_UNIT ( $, .STERADIAN. ) SOLID_ANGLE_UNIT ( ) );
#189 = AXIS2_PLACEMENT_3D ( 'NONE', #196, #94, #48 ) ;
#190 = LINE ( 'NONE', #182, #102 ) ;
#191 = CARTESIAN_POINT ( 'NONE',  ( -6.380223647484450900, 6.426137956652321600, -0.3165099513459945800 ) ) ;
#192 = STYLED_ITEM ( 'NONE', ( #13 ), #184 ) ;
#193 = DIRECTION ( 'NONE',  ( 0.0000000000000000000, 0.0000000000000000000, 1.000000000000000000 ) ) ;
#194 = DIRECTION ( 'NONE',  ( 2.240445334451199600E-016, 1.000000000000000000, 0.0000000000000000000 ) ) ;
#195 = CARTESIAN_POINT ( 'NONE',  ( 4.261966583500889500, -2.143801280824233000, 0.0006390145023577886500 ) ) ;
#196 = CARTESIAN_POINT ( 'NONE',  ( 2.498001805406600200E-016, 1.221245327087670000E-015, 3.299999999999999800 ) ) ;
#197 = CARTESIAN_POINT ( 'NONE',  ( 6.380223647484458000, -6.426137956652307400, -0.3165099513460010700 ) ) ;
#198 = DIRECTION ( 'NONE',  ( 0.0000000000000000000, 0.0000000000000000000, 1.000000000000000000 ) ) ;
#199 = CARTESIAN_POINT ( 'NONE',  ( 2.131306672945709300, -2.143801280824232600, 0.05314120203405658900 ) ) ;
#200 = FILL_AREA_STYLE_COLOUR ( '', #24 ) ;
ENDSEC;
END-ISO-10303-21;
