ISO-10303-21;
HEADER;
FILE_DESCRIPTION (( 'STEP AP203' ),
    '1' );
FILE_NAME ('112-0123E BK7 pl-cv 12.7 F-200.STEP',
    '2019-01-14T12:32:09',
    ( '' ),
    ( '' ),
    'SwSTEP 2.0',
    'SolidWorks 2017',
    '' );
FILE_SCHEMA (( 'CONFIG_CONTROL_DESIGN' ));
ENDSEC;

DATA;
#1 = CARTESIAN_POINT ( 'NONE',  ( -6.375774834132748500, 6.426102892568205300, -0.3958631182731237000 ) ) ;
#2 = FACE_OUTER_BOUND ( 'NONE', #10, .T. ) ;
#3 = EDGE_CURVE ( 'NONE', #19, #45, #167, .T. ) ;
#4 = PLANE ( 'NONE',  #48 ) ;
#5 = ORIENTED_EDGE ( 'NONE', *, *, #165, .F. ) ;
#6 = DATE_AND_TIME ( #103, #159 ) ;
#7 = CARTESIAN_POINT ( 'NONE',  ( -6.375774834132748500, -6.426102892568201800, -0.3958631182731237000 ) ) ;
#8 = DIRECTION ( 'NONE',  ( 0.0000000000000000000, 0.0000000000000000000, 1.000000000000000000 ) ) ;
#9 = APPROVAL_PERSON_ORGANIZATION ( #201, #97, #14 ) ;
#10 = EDGE_LOOP ( 'NONE', ( #175, #188, #177 ) ) ;
#11 = LINE ( 'NONE', #221, #162 ) ;
#12 = SECURITY_CLASSIFICATION_LEVEL ( 'unclassified' ) ;
#13 = DATE_AND_TIME ( #215, #106 ) ;
#14 = APPROVAL_ROLE ( '' ) ;
#15 = PERSON_AND_ORGANIZATION_ROLE ( 'classification_officer' ) ;
#16 = VERTEX_POINT ( 'NONE', #223 ) ;
#17 = CARTESIAN_POINT ( 'NONE',  ( 6.392149475974816800, -2.144782301332757200, -0.1305513269616614700 ) ) ;
#18 = CARTESIAN_POINT ( 'NONE',  ( 6.375774834132747600, -6.426102892568201800, -0.3958631182731225400 ) ) ;
#19 = VERTEX_POINT ( 'NONE', #47 ) ;
#20 = AXIS2_PLACEMENT_3D ( 'NONE', #100, #122, #85 ) ;
#21 =( NAMED_UNIT ( * ) SI_UNIT ( $, .STERADIAN. ) SOLID_ANGLE_UNIT ( ) );
#22 = COORDINATED_UNIVERSAL_TIME_OFFSET ( 2, 0, .AHEAD. ) ;
#23 = CARTESIAN_POINT ( 'NONE',  ( 2.498001805406600200E-016, 1.221245327087670000E-015, -0.1946015900619800000 ) ) ;
#24 = EDGE_LOOP ( 'NONE', ( #148, #67, #5 ) ) ;
#25 = CARTESIAN_POINT ( 'NONE',  ( -4.252872796205364700, 6.426102892568205300, -0.2648408204512761000 ) ) ;
#26 = DIRECTION ( 'NONE',  ( 0.0000000000000000000, 0.0000000000000000000, 1.000000000000000000 ) ) ;
#27 = CARTESIAN_POINT ( 'NONE',  ( -2.126941443755039400, -6.426102892568201800, -0.1992985453039434500 ) ) ;
#28 = APPROVAL ( #69, 'UNSPECIFIED' ) ;
#29 = CARTESIAN_POINT ( 'NONE',  ( 6.349999999999999600, 1.221245327087670000E-015, -0.1946015900619800000 ) ) ;
#30 = PERSON_AND_ORGANIZATION ( #36, #182 ) ;
#31 = CARTESIAN_POINT ( 'NONE',  ( -2.602085213965210600E-015, -6.426102892568201800, -0.1992985453039435300 ) ) ;
#32 = APPROVAL_DATE_TIME ( #78, #185 ) ;
#33 = CC_DESIGN_PERSON_AND_ORGANIZATION_ASSIGNMENT ( #173, #150, ( #74 ) ) ;
#34 = PERSON_AND_ORGANIZATION ( #36, #182 ) ;
#35 = APPROVAL_ROLE ( '' ) ;
#36 = PERSON ( 'UNSPECIFIED', 'UNSPECIFIED', 'UNSPECIFIED', ('UNSPECIFIED'), ('UNSPECIFIED'), ('UNSPECIFIED') ) ;
#37 = COORDINATED_UNIVERSAL_TIME_OFFSET ( 2, 0, .AHEAD. ) ;
#38 = CC_DESIGN_DATE_AND_TIME_ASSIGNMENT ( #13, #88, ( #154 ) ) ;
#39 = CARTESIAN_POINT ( 'NONE',  ( -7.105427357601000300E-015, 7.105427357601000300E-015, -103.7000000000000000 ) ) ;
#40 = CARTESIAN_POINT ( 'NONE',  ( 2.498001805406600200E-016, 1.221245327087670000E-015, 3.299999999999999800 ) ) ;
#41 = ORIENTED_EDGE ( 'NONE', *, *, #231, .F. ) ;
#42 = VECTOR ( 'NONE', #204, 1000.000000000000000 ) ;
#43 = CARTESIAN_POINT ( 'NONE',  ( 2.132403980508089000, 2.144782301332760700, 0.06651807476401400100 ) ) ;
#44 = SHAPE_DEFINITION_REPRESENTATION ( #164, #113 ) ;
#45 = VERTEX_POINT ( 'NONE', #158 ) ;
#46 = COORDINATED_UNIVERSAL_TIME_OFFSET ( 2, 0, .AHEAD. ) ;
#47 = CARTESIAN_POINT ( 'NONE',  ( 2.220806717590880800E-014, 6.349999999999881500, -0.1946015900619839600 ) ) ;
#48 = AXIS2_PLACEMENT_3D ( 'NONE', #79, #186, #224 ) ;
#49 = CARTESIAN_POINT ( 'NONE',  ( 2.220673696343753500E-014, 6.426102892568205300, -0.1992985453039414200 ) ) ;
#50 = AXIS2_PLACEMENT_3D ( 'NONE', #218, #93, #132 ) ;
#51 = DATE_AND_TIME ( #101, #196 ) ;
#52 = VERTEX_POINT ( 'NONE', #189 ) ;
#53 = CC_DESIGN_SECURITY_CLASSIFICATION ( #160, ( #74 ) ) ;
#54 = CALENDAR_DATE ( 2019, 14, 1 ) ;
#55 = AXIS2_PLACEMENT_3D ( 'NONE', #141, #58, #174 ) ;
#56 = ORIENTED_EDGE ( 'NONE', *, *, #231, .T. ) ;
#57 = AXIS2_PLACEMENT_3D ( 'NONE', #40, #76, #115 ) ;
#58 = DIRECTION ( 'NONE',  ( 0.0000000000000000000, 0.0000000000000000000, 1.000000000000000000 ) ) ;
#59 = ORIENTED_EDGE ( 'NONE', *, *, #165, .T. ) ;
#60 = CARTESIAN_POINT ( 'NONE',  ( -4.263795275535237300, -2.144782301332757600, 0.0008074700710215984500 ) ) ;
#61 = CIRCLE ( 'NONE', #80, 6.349999999999999600 ) ;
#62 = DIRECTION ( 'NONE',  ( 1.000000000000000000, 0.0000000000000000000, 0.0000000000000000000 ) ) ;
#63 = CARTESIAN_POINT ( 'NONE',  ( 4.252872796205371000, 6.426102892568205300, -0.2648408204512751100 ) ) ;
#64 = COORDINATED_UNIVERSAL_TIME_OFFSET ( 2, 0, .AHEAD. ) ;
#65 = ADVANCED_FACE ( 'NONE', ( #119 ), #4, .T. ) ;
#66 = LOCAL_TIME ( 14, 32, 9.000000000000000000, #95 ) ;
#67 = ORIENTED_EDGE ( 'NONE', *, *, #229, .T. ) ;
#68 = AXIS2_PLACEMENT_3D ( 'NONE', #226, #8, #84 ) ;
#69 = APPROVAL_STATUS ( 'not_yet_approved' ) ;
#70 = CIRCLE ( 'NONE', #20, 6.349999999999999600 ) ;
#71 = PERSON_AND_ORGANIZATION_ROLE ( 'design_supplier' ) ;
#72 = CC_DESIGN_PERSON_AND_ORGANIZATION_ASSIGNMENT ( #34, #107, ( #133 ) ) ;
#73 = ORIENTED_EDGE ( 'NONE', *, *, #207, .F. ) ;
#74 = PRODUCT_DEFINITION_FORMATION_WITH_SPECIFIED_SOURCE ( 'ANY', '', #133, .NOT_KNOWN. ) ;
#75 = CARTESIAN_POINT ( 'NONE',  ( 6.392149475974816800, 2.144782301332760300, -0.1305513269616619100 ) ) ;
#76 = DIRECTION ( 'NONE',  ( -0.0000000000000000000, -0.0000000000000000000, -1.000000000000000000 ) ) ;
#77 = EDGE_LOOP ( 'NONE', ( #128, #109, #144, #56, #73 ) ) ;
#78 = DATE_AND_TIME ( #146, #220 ) ;
#79 = CARTESIAN_POINT ( 'NONE',  ( 0.0000000000000000000, 13.15799999999999900, 3.299999999999999800 ) ) ;
#80 = AXIS2_PLACEMENT_3D ( 'NONE', #23, #156, #171 ) ;
#81 = EDGE_CURVE ( 'NONE', #194, #16, #114, .T. ) ;
#82 = CARTESIAN_POINT ( 'NONE',  ( -4.263795275535237300, 2.144782301332761200, 0.0008074700710211647700 ) ) ;
#83 = ORIENTED_EDGE ( 'NONE', *, *, #81, .T. ) ;
#84 = DIRECTION ( 'NONE',  ( 1.000000000000000000, 0.0000000000000000000, 0.0000000000000000000 ) ) ;
#85 = DIRECTION ( 'NONE',  ( 1.000000000000000000, 0.0000000000000000000, 0.0000000000000000000 ) ) ;
#86 = CC_DESIGN_PERSON_AND_ORGANIZATION_ASSIGNMENT ( #127, #71, ( #74 ) ) ;
#87 = PERSON_AND_ORGANIZATION ( #36, #182 ) ;
#88 = DATE_TIME_ROLE ( 'creation_date' ) ;
#89 = EDGE_LOOP ( 'NONE', ( #166, #41 ) ) ;
#90 = APPROVAL_DATE_TIME ( #51, #97 ) ;
#91 = EDGE_CURVE ( 'NONE', #45, #16, #11, .T. ) ;
#92 = CARTESIAN_POINT ( 'NONE',  ( 2.132403980508089000, -2.144782301332757200, 0.06651807476401443200 ) ) ;
#93 = DIRECTION ( 'NONE',  ( 0.0000000000000000000, 0.0000000000000000000, 1.000000000000000000 ) ) ;
#94 = CARTESIAN_POINT ( 'NONE',  ( 2.126941443755051300, -6.426102892568201800, -0.1992985453039420300 ) ) ;
#95 = COORDINATED_UNIVERSAL_TIME_OFFSET ( 2, 0, .AHEAD. ) ;
#96 = CYLINDRICAL_SURFACE ( 'NONE', #227, 6.349999999999999600 ) ;
#97 = APPROVAL ( #234, 'UNSPECIFIED' ) ;
#98 = ORIENTED_EDGE ( 'NONE', *, *, #91, .F. ) ;
#99 = MECHANICAL_CONTEXT ( 'NONE', #168, 'mechanical' ) ;
#100 = CARTESIAN_POINT ( 'NONE',  ( 2.498001805406600200E-016, 1.221245327087670000E-015, -0.1946015900619800000 ) ) ;
#101 = CALENDAR_DATE ( 2019, 14, 1 ) ;
#102 = EDGE_CURVE ( 'NONE', #52, #211, #198, .T. ) ;
#103 = CALENDAR_DATE ( 2019, 14, 1 ) ;
#104 = FACE_OUTER_BOUND ( 'NONE', #24, .T. ) ;
#105 =( GEOMETRIC_REPRESENTATION_CONTEXT ( 3 ) GLOBAL_UNCERTAINTY_ASSIGNED_CONTEXT ( ( #151 ) ) GLOBAL_UNIT_ASSIGNED_CONTEXT ( ( #137, #134, #21 ) ) REPRESENTATION_CONTEXT ( 'NONE', 'WORKASPACE' ) );
#106 = LOCAL_TIME ( 14, 32, 9.000000000000000000, #64 ) ;
#107 = PERSON_AND_ORGANIZATION_ROLE ( 'design_owner' ) ;
#108 = APPROVAL_PERSON_ORGANIZATION ( #140, #28, #35 ) ;
#109 = ORIENTED_EDGE ( 'NONE', *, *, #3, .T. ) ;
#110 = CC_DESIGN_APPROVAL ( #97, ( #74 ) ) ;
#111 = CARTESIAN_POINT ( 'NONE',  ( 4.252872796205371000, -6.426102892568201800, -0.2648408204512751100 ) ) ;
#112 = FACE_OUTER_BOUND ( 'NONE', #183, .T. ) ;
#113 = ADVANCED_BREP_SHAPE_REPRESENTATION ( '112-0123E BK7 pl-cv 12.7 F-200', ( #199, #50 ), #105 ) ;
#114 = CIRCLE ( 'NONE', #118, 6.349999999999999600 ) ;
#115 = DIRECTION ( 'NONE',  ( 1.000000000000000000, 0.0000000000000000000, 0.0000000000000000000 ) ) ;
#116 = DIRECTION ( 'NONE',  ( 0.0000000000000000000, 0.0000000000000000000, 1.000000000000000000 ) ) ;
#117 = DIRECTION ( 'NONE',  ( 1.000000000000000000, 0.0000000000000000000, 0.0000000000000000000 ) ) ;
#118 = AXIS2_PLACEMENT_3D ( 'NONE', #172, #120, #117 ) ;
#119 = FACE_OUTER_BOUND ( 'NONE', #89, .T. ) ;
#120 = DIRECTION ( 'NONE',  ( -0.0000000000000000000, -0.0000000000000000000, -1.000000000000000000 ) ) ;
#121 = CARTESIAN_POINT ( 'NONE',  ( -2.602085213965210600E-015, 2.144782301332760300, 0.06651807476401243300 ) ) ;
#122 = DIRECTION ( 'NONE',  ( 0.0000000000000000000, 0.0000000000000000000, 1.000000000000000000 ) ) ;
#123 = CARTESIAN_POINT ( 'NONE',  ( -4.252872796205364700, -6.426102892568201800, -0.2648408204512761000 ) ) ;
#124 =( BOUNDED_SURFACE ( )  B_SPLINE_SURFACE ( 3, 3, ( 
 ( #1, #25, #139, #187 ),
 ( #184, #82, #161, #121 ),
 ( #209, #60, #191, #145 ),
 ( #7, #123, #27, #31 ) ),
 .UNSPECIFIED., .F., .F., .F. ) 
 B_SPLINE_SURFACE_WITH_KNOTS ( ( 4, 4 ),
 ( 4, 4 ),
 ( 0.0000000000000000000, 1.000000000000000000 ),
 ( 0.0000000000000000000, 1.000000000000000000 ),
 .UNSPECIFIED. ) 
 GEOMETRIC_REPRESENTATION_ITEM ( )  RATIONAL_B_SPLINE_SURFACE ( (
 ( 1.000000000000000000, 0.9996833978645166500, 0.9996833978645166500, 1.000000000000000000),
 ( 0.9987187493069500400, 0.9984025528181722500, 0.9984025528181722500, 0.9987187493069500400),
 ( 0.9987187493069500400, 0.9984025528181722500, 0.9984025528181722500, 0.9987187493069500400),
 ( 1.000000000000000000, 0.9996833978645166500, 0.9996833978645166500, 1.000000000000000000) ) ) 
 REPRESENTATION_ITEM ( '' )  SURFACE ( )  );
#125 = EDGE_CURVE ( 'NONE', #211, #19, #61, .T. ) ;
#126 = APPROVAL_DATE_TIME ( #202, #28 ) ;
#127 = PERSON_AND_ORGANIZATION ( #36, #182 ) ;
#128 = ORIENTED_EDGE ( 'NONE', *, *, #125, .T. ) ;
#129 = APPROVAL_PERSON_ORGANIZATION ( #87, #185, #230 ) ;
#130 = DESIGN_CONTEXT ( 'detailed design', #131, 'design' ) ;
#131 = APPLICATION_CONTEXT ( 'configuration controlled 3d designs of mechanical parts and assemblies' ) ;
#132 = DIRECTION ( 'NONE',  ( 1.000000000000000000, 0.0000000000000000000, 0.0000000000000000000 ) ) ;
#133 = PRODUCT ( '112-0123E BK7 pl-cv 12.7 F-200', '112-0123E BK7 pl-cv 12.7 F-200', '', ( #99 ) ) ;
#134 =( NAMED_UNIT ( * ) PLANE_ANGLE_UNIT ( ) SI_UNIT ( $, .RADIAN. ) );
#135 = CARTESIAN_POINT ( 'NONE',  ( 2.228201819667734700E-014, -2.144782301332757200, 0.06651807476401501400 ) ) ;
#136 = DIRECTION ( 'NONE',  ( 1.000000000000000000, 0.0000000000000000000, -2.832073977186420200E-016 ) ) ;
#137 =( LENGTH_UNIT ( ) NAMED_UNIT ( * ) SI_UNIT ( .MILLI., .METRE. ) );
#138 = AXIS2_PLACEMENT_3D ( 'NONE', #39, #136, #170 ) ;
#139 = CARTESIAN_POINT ( 'NONE',  ( -2.126941443755039400, 6.426102892568205300, -0.1992985453039434500 ) ) ;
#140 = PERSON_AND_ORGANIZATION ( #36, #182 ) ;
#141 = CARTESIAN_POINT ( 'NONE',  ( 2.498001805406600200E-016, 1.221245327087670000E-015, -0.1946015900619800000 ) ) ;
#142 = CYLINDRICAL_SURFACE ( 'NONE', #68, 6.349999999999999600 ) ;
#143 = CARTESIAN_POINT ( 'NONE',  ( 2.498001805406600200E-016, 1.221245327087670000E-015, -0.1946015900619800000 ) ) ;
#144 = ORIENTED_EDGE ( 'NONE', *, *, #91, .T. ) ;
#145 = CARTESIAN_POINT ( 'NONE',  ( -2.602085213965210600E-015, -2.144782301332757200, 0.06651807476401287700 ) ) ;
#146 = CALENDAR_DATE ( 2019, 14, 1 ) ;
#147 = ADVANCED_FACE ( 'NONE', ( #104 ), #124, .F. ) ;
#148 = ORIENTED_EDGE ( 'NONE', *, *, #3, .F. ) ;
#149 = APPROVAL_STATUS ( 'not_yet_approved' ) ;
#150 = PERSON_AND_ORGANIZATION_ROLE ( 'creator' ) ;
#151 = UNCERTAINTY_MEASURE_WITH_UNIT (LENGTH_MEASURE( 1.000000000000000100E-005 ), #137, 'distance_accuracy_value', 'NONE');
#152 = PERSON_AND_ORGANIZATION_ROLE ( 'creator' ) ;
#153 = CARTESIAN_POINT ( 'NONE',  ( 4.263795275535243500, -2.144782301332757200, 0.0008074700710225741300 ) ) ;
#154 = PRODUCT_DEFINITION ( 'UNKNOWN', '', #74, #130 ) ;
#155 = CARTESIAN_POINT ( 'NONE',  ( 4.263795275535243500, 2.144782301332760700, 0.0008074700710221405500 ) ) ;
#156 = DIRECTION ( 'NONE',  ( 0.0000000000000000000, 0.0000000000000000000, 1.000000000000000000 ) ) ;
#157 = DIRECTION ( 'NONE',  ( 1.000000000000000000, 0.0000000000000000000, 0.0000000000000000000 ) ) ;
#158 = CARTESIAN_POINT ( 'NONE',  ( -6.349999999999999600, 1.998896044546239400E-015, -0.1946015900619800000 ) ) ;
#159 = LOCAL_TIME ( 14, 32, 9.000000000000000000, #46 ) ;
#160 = SECURITY_CLASSIFICATION ( '', '', #12 ) ;
#161 = CARTESIAN_POINT ( 'NONE',  ( -2.132403980508076600, 2.144782301332761200, 0.06651807476401254400 ) ) ;
#162 = VECTOR ( 'NONE', #26, 1000.000000000000000 ) ;
#163 = CARTESIAN_POINT ( 'NONE',  ( 6.349999999999999600, 1.221245327087670000E-015, 3.299999999999999800 ) ) ;
#164 = PRODUCT_DEFINITION_SHAPE ( 'NONE', 'NONE',  #154 ) ;
#165 = EDGE_CURVE ( 'NONE', #45, #52, #70, .T. ) ;
#166 = ORIENTED_EDGE ( 'NONE', *, *, #81, .F. ) ;
#167 = CIRCLE ( 'NONE', #55, 6.349999999999999600 ) ;
#168 = APPLICATION_CONTEXT ( 'configuration controlled 3d designs of mechanical parts and assemblies' ) ;
#169 = CC_DESIGN_PERSON_AND_ORGANIZATION_ASSIGNMENT ( #212, #15, ( #160 ) ) ;
#170 = DIRECTION ( 'NONE',  ( 0.0000000000000000000, 1.000000000000000000, 0.0000000000000000000 ) ) ;
#171 = DIRECTION ( 'NONE',  ( 1.000000000000000000, 0.0000000000000000000, 0.0000000000000000000 ) ) ;
#172 = CARTESIAN_POINT ( 'NONE',  ( 2.498001805406600200E-016, 1.221245327087670000E-015, 3.299999999999999800 ) ) ;
#173 = PERSON_AND_ORGANIZATION ( #36, #182 ) ;
#174 = DIRECTION ( 'NONE',  ( 1.000000000000000000, 0.0000000000000000000, 0.0000000000000000000 ) ) ;
#175 = ORIENTED_EDGE ( 'NONE', *, *, #229, .F. ) ;
#176 = CARTESIAN_POINT ( 'NONE',  ( 2.126941443755051300, 6.426102892568205300, -0.1992985453039420300 ) ) ;
#177 = ORIENTED_EDGE ( 'NONE', *, *, #102, .F. ) ;
#178 = CIRCLE ( 'NONE', #57, 6.349999999999999600 ) ;
#179 = ADVANCED_FACE ( 'NONE', ( #208 ), #96, .T. ) ;
#180 = ADVANCED_FACE ( 'NONE', ( #112 ), #142, .T. ) ;
#181 = DATE_TIME_ROLE ( 'classification_date' ) ;
#182 = ORGANIZATION ( 'UNSPECIFIED', 'UNSPECIFIED', '' ) ;
#183 = EDGE_LOOP ( 'NONE', ( #98, #59, #232, #228, #83 ) ) ;
#184 = CARTESIAN_POINT ( 'NONE',  ( -6.392149475974817600, 2.144782301332760300, -0.1305513269616630800 ) ) ;
#185 = APPROVAL ( #149, 'UNSPECIFIED' ) ;
#186 = DIRECTION ( 'NONE',  ( 0.0000000000000000000, 0.0000000000000000000, 1.000000000000000000 ) ) ;
#187 = CARTESIAN_POINT ( 'NONE',  ( -2.602085213965210600E-015, 6.426102892568205300, -0.1992985453039435300 ) ) ;
#188 = ORIENTED_EDGE ( 'NONE', *, *, #125, .F. ) ;
#189 = CARTESIAN_POINT ( 'NONE',  ( 2.220806717590880800E-014, -6.349999999999873500, -0.1946015900619839600 ) ) ;
#190 = CC_DESIGN_DATE_AND_TIME_ASSIGNMENT ( #6, #181, ( #160 ) ) ;
#191 = CARTESIAN_POINT ( 'NONE',  ( -2.132403980508076600, -2.144782301332757600, 0.06651807476401297400 ) ) ;
#192 = CARTESIAN_POINT ( 'NONE',  ( 6.375774834132747600, 6.426102892568205300, -0.3958631182731225400 ) ) ;
#193 = AXIS2_PLACEMENT_3D ( 'NONE', #200, #116, #157 ) ;
#194 = VERTEX_POINT ( 'NONE', #163 ) ;
#195 = APPLICATION_PROTOCOL_DEFINITION ( 'international standard', 'config_control_design', 1994, #131 ) ;
#196 = LOCAL_TIME ( 14, 32, 9.000000000000000000, #37 ) ;
#197 = CARTESIAN_POINT ( 'NONE',  ( 2.228201819667734700E-014, 2.144782301332760300, 0.06651807476401458400 ) ) ;
#198 = CIRCLE ( 'NONE', #193, 6.349999999999999600 ) ;
#199 = MANIFOLD_SOLID_BREP ( 'Imported1', #222 ) ;
#200 = CARTESIAN_POINT ( 'NONE',  ( 2.498001805406600200E-016, 1.221245327087670000E-015, -0.1946015900619800000 ) ) ;
#201 = PERSON_AND_ORGANIZATION ( #36, #182 ) ;
#202 = DATE_AND_TIME ( #54, #66 ) ;
#203 = CC_DESIGN_PERSON_AND_ORGANIZATION_ASSIGNMENT ( #30, #152, ( #154 ) ) ;
#204 = DIRECTION ( 'NONE',  ( 0.0000000000000000000, 0.0000000000000000000, 1.000000000000000000 ) ) ;
#205 = DIRECTION ( 'NONE',  ( 0.0000000000000000000, 0.0000000000000000000, 1.000000000000000000 ) ) ;
#206 = CARTESIAN_POINT ( 'NONE',  ( 6.349999999999999600, 1.221245327087670000E-015, -0.1946015900619800000 ) ) ;
#207 = EDGE_CURVE ( 'NONE', #211, #194, #233, .T. ) ;
#208 = FACE_OUTER_BOUND ( 'NONE', #77, .T. ) ;
#209 = CARTESIAN_POINT ( 'NONE',  ( -6.392149475974817600, -2.144782301332757200, -0.1305513269616626300 ) ) ;
#210 = ADVANCED_FACE ( 'NONE', ( #2 ), #219, .F. ) ;
#211 = VERTEX_POINT ( 'NONE', #29 ) ;
#212 = PERSON_AND_ORGANIZATION ( #36, #182 ) ;
#213 = CC_DESIGN_APPROVAL ( #28, ( #160 ) ) ;
#214 = APPLICATION_PROTOCOL_DEFINITION ( 'international standard', 'config_control_design', 1994, #168 ) ;
#215 = CALENDAR_DATE ( 2019, 14, 1 ) ;
#216 = CARTESIAN_POINT ( 'NONE',  ( 2.220673696343753500E-014, -6.426102892568201800, -0.1992985453039414200 ) ) ;
#217 = CC_DESIGN_APPROVAL ( #185, ( #154 ) ) ;
#218 = CARTESIAN_POINT ( 'NONE',  ( 0.0000000000000000000, 0.0000000000000000000, 0.0000000000000000000 ) ) ;
#219 =( BOUNDED_SURFACE ( )  B_SPLINE_SURFACE ( 3, 3, ( 
 ( #49, #176, #63, #192 ),
 ( #197, #43, #155, #75 ),
 ( #135, #92, #153, #17 ),
 ( #216, #94, #111, #18 ) ),
 .UNSPECIFIED., .F., .F., .F. ) 
 B_SPLINE_SURFACE_WITH_KNOTS ( ( 4, 4 ),
 ( 4, 4 ),
 ( 0.0000000000000000000, 1.000000000000000000 ),
 ( 0.0000000000000000000, 1.000000000000000000 ),
 .UNSPECIFIED. ) 
 GEOMETRIC_REPRESENTATION_ITEM ( )  RATIONAL_B_SPLINE_SURFACE ( (
 ( 1.000000000000000000, 0.9996833978645168800, 0.9996833978645168800, 1.000000000000000000),
 ( 0.9987187493069500400, 0.9984025528181724700, 0.9984025528181724700, 0.9987187493069500400),
 ( 0.9987187493069500400, 0.9984025528181724700, 0.9984025528181724700, 0.9987187493069500400),
 ( 1.000000000000000000, 0.9996833978645168800, 0.9996833978645168800, 1.000000000000000000) ) ) 
 REPRESENTATION_ITEM ( '' )  SURFACE ( )  );
#220 = LOCAL_TIME ( 14, 32, 9.000000000000000000, #22 ) ;
#221 = CARTESIAN_POINT ( 'NONE',  ( -6.349999999999999600, 1.998896044546239400E-015, -0.1946015900619800000 ) ) ;
#222 = CLOSED_SHELL ( 'NONE', ( #147, #179, #180, #210, #65 ) ) ;
#223 = CARTESIAN_POINT ( 'NONE',  ( -6.349999999999999600, 1.998896044546239400E-015, 3.299999999999999800 ) ) ;
#224 = DIRECTION ( 'NONE',  ( 1.000000000000000000, 0.0000000000000000000, -0.0000000000000000000 ) ) ;
#225 = CIRCLE ( 'NONE', #138, 103.6999999999999900 ) ;
#226 = CARTESIAN_POINT ( 'NONE',  ( 2.498001805406600200E-016, 1.221245327087670000E-015, -0.1946015900619800000 ) ) ;
#227 = AXIS2_PLACEMENT_3D ( 'NONE', #143, #205, #62 ) ;
#228 = ORIENTED_EDGE ( 'NONE', *, *, #207, .T. ) ;
#229 = EDGE_CURVE ( 'NONE', #19, #52, #225, .T. ) ;
#230 = APPROVAL_ROLE ( '' ) ;
#231 = EDGE_CURVE ( 'NONE', #16, #194, #178, .T. ) ;
#232 = ORIENTED_EDGE ( 'NONE', *, *, #102, .T. ) ;
#233 = LINE ( 'NONE', #206, #42 ) ;
#234 = APPROVAL_STATUS ( 'not_yet_approved' ) ;
#235 = PRODUCT_RELATED_PRODUCT_CATEGORY ( 'detail', '', ( #133 ) ) ;
ENDSEC;
END-ISO-10303-21;
