ISO-10303-21;
HEADER;
FILE_DESCRIPTION (( 'STEP AP203' ),
    '1' );
FILE_NAME ('112-0121E BK7 pl-cv 12.7 F-150.STEP',
    '2019-01-14T12:06:33',
    ( '' ),
    ( '' ),
    'SwSTEP 2.0',
    'SolidWorks 2017',
    '' );
FILE_SCHEMA (( 'CONFIG_CONTROL_DESIGN' ));
ENDSEC;

DATA;
#1 = ORIENTED_EDGE ( 'NONE', *, *, #113, .F. ) ;
#2 = LOCAL_TIME ( 14, 6, 33.00000000000000000, #101 ) ;
#3 = CIRCLE ( 'NONE', #91, 6.349999999999999600 ) ;
#4 = CC_DESIGN_APPROVAL ( #147, ( #170 ) ) ;
#5 = EDGE_LOOP ( 'NONE', ( #89, #1 ) ) ;
#6 = CIRCLE ( 'NONE', #140, 6.349999999999999600 ) ;
#7 = CARTESIAN_POINT ( 'NONE',  ( 0.0000000000000000000, 13.15799999999999900, 3.200000000000000200 ) ) ;
#8 = CARTESIAN_POINT ( 'NONE',  ( 6.366192523862381800, 6.426027318755846100, -0.5275707832128181400 ) ) ;
#9 = ADVANCED_FACE ( 'NONE', ( #128 ), #157, .F. ) ;
#10 =( GEOMETRIC_REPRESENTATION_CONTEXT ( 3 ) GLOBAL_UNCERTAINTY_ASSIGNED_CONTEXT ( ( #143 ) ) GLOBAL_UNIT_ASSIGNED_CONTEXT ( ( #116, #156, #82 ) ) REPRESENTATION_CONTEXT ( 'NONE', 'WORKASPACE' ) );
#11 = DIRECTION ( 'NONE',  ( 1.000000000000000000, 0.0000000000000000000, -0.0000000000000000000 ) ) ;
#12 = PERSON_AND_ORGANIZATION ( #49, #221 ) ;
#13 = ADVANCED_FACE ( 'NONE', ( #219 ), #231, .T. ) ;
#14 = DIRECTION ( 'NONE',  ( 1.000000000000000000, 0.0000000000000000000, 0.0000000000000000000 ) ) ;
#15 =( BOUNDED_SURFACE ( )  B_SPLINE_SURFACE ( 3, 3, ( 
 ( #48, #142, #224, #222 ),
 ( #174, #35, #192, #137 ),
 ( #227, #160, #162, #86 ),
 ( #176, #120, #16, #193 ) ),
 .UNSPECIFIED., .F., .F., .F. ) 
 B_SPLINE_SURFACE_WITH_KNOTS ( ( 4, 4 ),
 ( 4, 4 ),
 ( 0.0000000000000000000, 1.000000000000000000 ),
 ( 0.0000000000000000000, 1.000000000000000000 ),
 .UNSPECIFIED. ) 
 GEOMETRIC_REPRESENTATION_ITEM ( )  RATIONAL_B_SPLINE_SURFACE ( (
 ( 1.000000000000000000, 0.9994371447557917100, 0.9994371447557917100, 1.000000000000000000),
 ( 0.9977226201484235000, 0.9971610467394077500, 0.9971610467394077500, 0.9977226201484235000),
 ( 0.9977226201484235000, 0.9971610467394077500, 0.9971610467394077500, 0.9977226201484235000),
 ( 1.000000000000000000, 0.9994371447557917100, 0.9994371447557917100, 1.000000000000000000) ) ) 
 REPRESENTATION_ITEM ( '' )  SURFACE ( )  );
#16 = CARTESIAN_POINT ( 'NONE',  ( -2.125053408414104200, -6.426027318755815000, -0.2658043893767447800 ) ) ;
#17 = COORDINATED_UNIVERSAL_TIME_OFFSET ( 2, 0, .AHEAD. ) ;
#18 = DIRECTION ( 'NONE',  ( 0.0000000000000000000, 1.000000000000000000, 3.567096210722132400E-016 ) ) ;
#19 = PRODUCT_DEFINITION_SHAPE ( 'NONE', 'NONE',  #170 ) ;
#20 = DIRECTION ( 'NONE',  ( -0.0000000000000000000, -0.0000000000000000000, -1.000000000000000000 ) ) ;
#21 = APPLICATION_PROTOCOL_DEFINITION ( 'international standard', 'config_control_design', 1994, #180 ) ;
#22 = APPROVAL_ROLE ( '' ) ;
#23 = APPROVAL_STATUS ( 'not_yet_approved' ) ;
#24 = APPROVAL_ROLE ( '' ) ;
#25 = APPROVAL_PERSON_ORGANIZATION ( #41, #98, #24 ) ;
#26 = CC_DESIGN_APPROVAL ( #185, ( #28 ) ) ;
#27 = VERTEX_POINT ( 'NONE', #218 ) ;
#28 = PRODUCT_DEFINITION_FORMATION_WITH_SPECIFIED_SOURCE ( 'ANY', '', #197, .NOT_KNOWN. ) ;
#29 = EDGE_CURVE ( 'NONE', #225, #178, #216, .T. ) ;
#30 = CARTESIAN_POINT ( 'NONE',  ( 2.498001805406600200E-016, 1.221245327087670000E-015, -0.2595415874283820100 ) ) ;
#31 = AXIS2_PLACEMENT_3D ( 'NONE', #66, #189, #85 ) ;
#32 = PERSON_AND_ORGANIZATION ( #49, #221 ) ;
#33 = CARTESIAN_POINT ( 'NONE',  ( 2.498001805406600200E-016, 1.221245327087670000E-015, -0.2595415874283820100 ) ) ;
#34 = CARTESIAN_POINT ( 'NONE',  ( 6.395304997956780600, -2.146898409432951300, -0.1741597435540908300 ) ) ;
#35 = CARTESIAN_POINT ( 'NONE',  ( -4.267740121528486700, 2.146898409432983300, 0.001099856171409848300 ) ) ;
#36 = PERSON_AND_ORGANIZATION ( #49, #221 ) ;
#37 = DIRECTION ( 'NONE',  ( -0.0000000000000000000, -0.0000000000000000000, -1.000000000000000000 ) ) ;
#38 = CC_DESIGN_PERSON_AND_ORGANIZATION_ASSIGNMENT ( #32, #109, ( #28 ) ) ;
#39 = ORIENTED_EDGE ( 'NONE', *, *, #29, .T. ) ;
#40 = EDGE_LOOP ( 'NONE', ( #139, #39, #132, #226, #100 ) ) ;
#41 = PERSON_AND_ORGANIZATION ( #49, #221 ) ;
#42 = CC_DESIGN_PERSON_AND_ORGANIZATION_ASSIGNMENT ( #211, #200, ( #28 ) ) ;
#43 = DIRECTION ( 'NONE',  ( 0.0000000000000000000, 0.0000000000000000000, 1.000000000000000000 ) ) ;
#44 = CARTESIAN_POINT ( 'NONE',  ( 2.131628207280299900E-014, 6.426027318755846100, -0.2658043893767475500 ) ) ;
#45 = ADVANCED_FACE ( 'NONE', ( #93 ), #81, .T. ) ;
#46 = DIRECTION ( 'NONE',  ( 0.0000000000000000000, 0.0000000000000000000, 1.000000000000000000 ) ) ;
#47 = CYLINDRICAL_SURFACE ( 'NONE', #31, 6.349999999999999600 ) ;
#48 = CARTESIAN_POINT ( 'NONE',  ( -6.366192523862461700, 6.426027318755846100, -0.5275707832128329100 ) ) ;
#49 = PERSON ( 'UNSPECIFIED', 'UNSPECIFIED', 'UNSPECIFIED', ('UNSPECIFIED'), ('UNSPECIFIED'), ('UNSPECIFIED') ) ;
#50 = AXIS2_PLACEMENT_3D ( 'NONE', #30, #220, #114 ) ;
#51 = DIRECTION ( 'NONE',  ( 1.000000000000000000, 0.0000000000000000000, 0.0000000000000000000 ) ) ;
#52 = DIRECTION ( 'NONE',  ( 1.000000000000000000, 0.0000000000000000000, 0.0000000000000000000 ) ) ;
#53 = APPROVAL_DATE_TIME ( #96, #98 ) ;
#54 = CC_DESIGN_DATE_AND_TIME_ASSIGNMENT ( #83, #144, ( #79 ) ) ;
#55 = APPROVAL_ROLE ( '' ) ;
#56 = CALENDAR_DATE ( 2019, 14, 1 ) ;
#57 = CIRCLE ( 'NONE', #228, 77.81000000000000200 ) ;
#58 = EDGE_CURVE ( 'NONE', #225, #71, #57, .T. ) ;
#59 = VECTOR ( 'NONE', #121, 1000.000000000000000 ) ;
#60 = ORIENTED_EDGE ( 'NONE', *, *, #214, .F. ) ;
#61 = CARTESIAN_POINT ( 'NONE',  ( 2.131628207280299900E-014, 2.131628207280299900E-014, -77.81000000000000200 ) ) ;
#62 = PERSON_AND_ORGANIZATION ( #49, #221 ) ;
#63 = CARTESIAN_POINT ( 'NONE',  ( 4.267740121528438700, -2.146898409432951300, 0.001099856171432942000 ) ) ;
#64 = CARTESIAN_POINT ( 'NONE',  ( 6.395304997956778900, 2.146898409432983700, -0.1741597435541052400 ) ) ;
#65 = CARTESIAN_POINT ( 'NONE',  ( 2.125053408414090800, 6.426027318755846100, -0.2658043893767475000 ) ) ;
#66 = CARTESIAN_POINT ( 'NONE',  ( 2.498001805406600200E-016, 1.221245327087670000E-015, -0.2595415874283820100 ) ) ;
#67 = CARTESIAN_POINT ( 'NONE',  ( 0.0000000000000000000, 0.0000000000000000000, 0.0000000000000000000 ) ) ;
#68 = LOCAL_TIME ( 14, 6, 33.00000000000000000, #179 ) ;
#69 = DIRECTION ( 'NONE',  ( 0.0000000000000000000, 0.0000000000000000000, 1.000000000000000000 ) ) ;
#70 = AXIS2_PLACEMENT_3D ( 'NONE', #177, #105, #52 ) ;
#71 = VERTEX_POINT ( 'NONE', #115 ) ;
#72 = DIRECTION ( 'NONE',  ( 1.000000000000000000, 0.0000000000000000000, 0.0000000000000000000 ) ) ;
#73 = PERSON_AND_ORGANIZATION_ROLE ( 'classification_officer' ) ;
#74 = ADVANCED_BREP_SHAPE_REPRESENTATION ( '112-0121E BK7 pl-cv 12.7 F-150', ( #173, #130 ), #10 ) ;
#75 = FACE_OUTER_BOUND ( 'NONE', #40, .T. ) ;
#76 = DESIGN_CONTEXT ( 'detailed design', #180, 'design' ) ;
#77 = CC_DESIGN_PERSON_AND_ORGANIZATION_ASSIGNMENT ( #155, #229, ( #197 ) ) ;
#78 = CALENDAR_DATE ( 2019, 14, 1 ) ;
#79 = SECURITY_CLASSIFICATION ( '', '', #212 ) ;
#80 = CARTESIAN_POINT ( 'NONE',  ( 4.248312670645438200, 6.426027318755846100, -0.3531089938432405700 ) ) ;
#81 = PLANE ( 'NONE',  #159 ) ;
#82 =( NAMED_UNIT ( * ) SI_UNIT ( $, .STERADIAN. ) SOLID_ANGLE_UNIT ( ) );
#83 = DATE_AND_TIME ( #151, #68 ) ;
#84 = AXIS2_PLACEMENT_3D ( 'NONE', #33, #150, #188 ) ;
#85 = DIRECTION ( 'NONE',  ( 1.000000000000000000, 0.0000000000000000000, 0.0000000000000000000 ) ) ;
#86 = CARTESIAN_POINT ( 'NONE',  ( 0.0000000000000000000, -2.146898409432951300, 0.08880370288928071700 ) ) ;
#87 = APPLICATION_CONTEXT ( 'configuration controlled 3d designs of mechanical parts and assemblies' ) ;
#88 = CC_DESIGN_DATE_AND_TIME_ASSIGNMENT ( #175, #90, ( #170 ) ) ;
#89 = ORIENTED_EDGE ( 'NONE', *, *, #232, .F. ) ;
#90 = DATE_TIME_ROLE ( 'creation_date' ) ;
#91 = AXIS2_PLACEMENT_3D ( 'NONE', #138, #69, #14 ) ;
#92 = APPROVAL_PERSON_ORGANIZATION ( #141, #185, #22 ) ;
#93 = FACE_OUTER_BOUND ( 'NONE', #5, .T. ) ;
#94 = ORIENTED_EDGE ( 'NONE', *, *, #235, .F. ) ;
#95 = CARTESIAN_POINT ( 'NONE',  ( 4.248312670645439000, -6.426027318755815000, -0.3531089938432266900 ) ) ;
#96 = DATE_AND_TIME ( #234, #206 ) ;
#97 = CARTESIAN_POINT ( 'NONE',  ( 6.349999999999999600, 1.221245327087670000E-015, 3.200000000000000200 ) ) ;
#98 = APPROVAL ( #163, 'UNSPECIFIED' ) ;
#99 = CARTESIAN_POINT ( 'NONE',  ( 4.267740121528437800, 2.146898409432983300, 0.001099856171418440800 ) ) ;
#100 = ORIENTED_EDGE ( 'NONE', *, *, #205, .F. ) ;
#101 = COORDINATED_UNIVERSAL_TIME_OFFSET ( 2, 0, .AHEAD. ) ;
#102 = CIRCLE ( 'NONE', #223, 6.349999999999999600 ) ;
#103 = DIRECTION ( 'NONE',  ( 1.000000000000000000, 0.0000000000000000000, 0.0000000000000000000 ) ) ;
#104 = CARTESIAN_POINT ( 'NONE',  ( -6.349999999999999600, 1.998896044546239400E-015, -0.2595415874283820100 ) ) ;
#105 = DIRECTION ( 'NONE',  ( 0.0000000000000000000, 0.0000000000000000000, 1.000000000000000000 ) ) ;
#106 = CARTESIAN_POINT ( 'NONE',  ( 2.498001805406600200E-016, 1.221245327087670000E-015, 3.200000000000000200 ) ) ;
#107 = CIRCLE ( 'NONE', #125, 6.349999999999999600 ) ;
#108 = MECHANICAL_CONTEXT ( 'NONE', #87, 'mechanical' ) ;
#109 = PERSON_AND_ORGANIZATION_ROLE ( 'creator' ) ;
#110 = CC_DESIGN_APPROVAL ( #98, ( #79 ) ) ;
#111 = ORIENTED_EDGE ( 'NONE', *, *, #58, .T. ) ;
#112 = ORIENTED_EDGE ( 'NONE', *, *, #214, .T. ) ;
#113 = EDGE_CURVE ( 'NONE', #27, #204, #102, .T. ) ;
#114 = DIRECTION ( 'NONE',  ( 1.000000000000000000, 0.0000000000000000000, 0.0000000000000000000 ) ) ;
#115 = CARTESIAN_POINT ( 'NONE',  ( 2.131628207280299900E-014, -6.350000000000003200, -0.2595415874283839000 ) ) ;
#116 =( LENGTH_UNIT ( ) NAMED_UNIT ( * ) SI_UNIT ( .MILLI., .METRE. ) );
#117 = CARTESIAN_POINT ( 'NONE',  ( 6.349999999999999600, 1.221245327087670000E-015, -0.2595415874283820100 ) ) ;
#118 = EDGE_LOOP ( 'NONE', ( #183, #126, #203 ) ) ;
#119 = SHAPE_DEFINITION_REPRESENTATION ( #19, #74 ) ;
#120 = CARTESIAN_POINT ( 'NONE',  ( -4.248312670645486100, -6.426027318755815000, -0.3531089938432351300 ) ) ;
#121 = DIRECTION ( 'NONE',  ( 0.0000000000000000000, 0.0000000000000000000, 1.000000000000000000 ) ) ;
#122 = CC_DESIGN_SECURITY_CLASSIFICATION ( #79, ( #28 ) ) ;
#123 = CLOSED_SHELL ( 'NONE', ( #171, #208, #13, #9, #45 ) ) ;
#124 = FACE_OUTER_BOUND ( 'NONE', #181, .T. ) ;
#125 = AXIS2_PLACEMENT_3D ( 'NONE', #210, #136, #103 ) ;
#126 = ORIENTED_EDGE ( 'NONE', *, *, #198, .F. ) ;
#127 = COORDINATED_UNIVERSAL_TIME_OFFSET ( 2, 0, .AHEAD. ) ;
#128 = FACE_OUTER_BOUND ( 'NONE', #118, .T. ) ;
#129 = APPROVAL_DATE_TIME ( #168, #185 ) ;
#130 = AXIS2_PLACEMENT_3D ( 'NONE', #67, #213, #72 ) ;
#131 = CARTESIAN_POINT ( 'NONE',  ( 2.134771236153321100, -2.146898409432951300, 0.08880370288929134700 ) ) ;
#132 = ORIENTED_EDGE ( 'NONE', *, *, #235, .T. ) ;
#133 = CARTESIAN_POINT ( 'NONE',  ( 2.131628207280299900E-014, -6.426027318755815000, -0.2658043893767336700 ) ) ;
#134 = PRODUCT_RELATED_PRODUCT_CATEGORY ( 'detail', '', ( #197 ) ) ;
#135 = CARTESIAN_POINT ( 'NONE',  ( -6.349999999999999600, 1.998896044546239400E-015, -0.2595415874283820100 ) ) ;
#136 = DIRECTION ( 'NONE',  ( 0.0000000000000000000, 0.0000000000000000000, 1.000000000000000000 ) ) ;
#137 = CARTESIAN_POINT ( 'NONE',  ( 8.673617379884034500E-016, 2.146898409432983700, 0.08880370288926603400 ) ) ;
#138 = CARTESIAN_POINT ( 'NONE',  ( 2.498001805406600200E-016, 1.221245327087670000E-015, -0.2595415874283820100 ) ) ;
#139 = ORIENTED_EDGE ( 'NONE', *, *, #198, .T. ) ;
#140 = AXIS2_PLACEMENT_3D ( 'NONE', #106, #20, #194 ) ;
#141 = PERSON_AND_ORGANIZATION ( #49, #221 ) ;
#142 = CARTESIAN_POINT ( 'NONE',  ( -4.248312670645484300, 6.426027318755846100, -0.3531089938432491200 ) ) ;
#143 = UNCERTAINTY_MEASURE_WITH_UNIT (LENGTH_MEASURE( 1.000000000000000100E-005 ), #116, 'distance_accuracy_value', 'NONE');
#144 = DATE_TIME_ROLE ( 'classification_date' ) ;
#145 = CIRCLE ( 'NONE', #70, 6.349999999999999600 ) ;
#146 = APPROVAL_DATE_TIME ( #191, #147 ) ;
#147 = APPROVAL ( #164, 'UNSPECIFIED' ) ;
#148 = APPROVAL_PERSON_ORGANIZATION ( #62, #147, #55 ) ;
#149 = LOCAL_TIME ( 14, 6, 33.00000000000000000, #17 ) ;
#150 = DIRECTION ( 'NONE',  ( 0.0000000000000000000, 0.0000000000000000000, 1.000000000000000000 ) ) ;
#151 = CALENDAR_DATE ( 2019, 14, 1 ) ;
#152 = CC_DESIGN_PERSON_AND_ORGANIZATION_ASSIGNMENT ( #12, #233, ( #170 ) ) ;
#153 = CARTESIAN_POINT ( 'NONE',  ( 2.125053408414091300, -6.426027318755815000, -0.2658043893767335600 ) ) ;
#154 = ORIENTED_EDGE ( 'NONE', *, *, #182, .T. ) ;
#155 = PERSON_AND_ORGANIZATION ( #49, #221 ) ;
#156 =( NAMED_UNIT ( * ) PLANE_ANGLE_UNIT ( ) SI_UNIT ( $, .RADIAN. ) );
#157 =( BOUNDED_SURFACE ( )  B_SPLINE_SURFACE ( 3, 3, ( 
 ( #44, #65, #80, #8 ),
 ( #207, #217, #99, #64 ),
 ( #187, #131, #63, #34 ),
 ( #133, #153, #95, #186 ) ),
 .UNSPECIFIED., .F., .F., .T. ) 
 B_SPLINE_SURFACE_WITH_KNOTS ( ( 4, 4 ),
 ( 4, 4 ),
 ( 0.0000000000000000000, 1.000000000000000000 ),
 ( 0.0000000000000000000, 1.000000000000000000 ),
 .UNSPECIFIED. ) 
 GEOMETRIC_REPRESENTATION_ITEM ( )  RATIONAL_B_SPLINE_SURFACE ( (
 ( 1.000000000000000000, 0.9994371447557917100, 0.9994371447557917100, 1.000000000000000000),
 ( 0.9977226201484235000, 0.9971610467394077500, 0.9971610467394077500, 0.9977226201484235000),
 ( 0.9977226201484235000, 0.9971610467394077500, 0.9971610467394077500, 0.9977226201484235000),
 ( 1.000000000000000000, 0.9994371447557917100, 0.9994371447557917100, 1.000000000000000000) ) ) 
 REPRESENTATION_ITEM ( '' )  SURFACE ( )  );
#158 = DIRECTION ( 'NONE',  ( 1.000000000000000000, 0.0000000000000000000, 0.0000000000000000000 ) ) ;
#159 = AXIS2_PLACEMENT_3D ( 'NONE', #7, #43, #11 ) ;
#160 = CARTESIAN_POINT ( 'NONE',  ( -4.267740121528487600, -2.146898409432951300, 0.001099856171424485300 ) ) ;
#161 = LOCAL_TIME ( 14, 6, 33.00000000000000000, #165 ) ;
#162 = CARTESIAN_POINT ( 'NONE',  ( -2.134771236153334400, -2.146898409432951300, 0.08880370288928013400 ) ) ;
#163 = APPROVAL_STATUS ( 'not_yet_approved' ) ;
#164 = APPROVAL_STATUS ( 'not_yet_approved' ) ;
#165 = COORDINATED_UNIVERSAL_TIME_OFFSET ( 2, 0, .AHEAD. ) ;
#166 = CC_DESIGN_PERSON_AND_ORGANIZATION_ASSIGNMENT ( #36, #73, ( #79 ) ) ;
#167 = EDGE_LOOP ( 'NONE', ( #94, #112, #154, #201, #199 ) ) ;
#168 = DATE_AND_TIME ( #78, #161 ) ;
#169 = VERTEX_POINT ( 'NONE', #117 ) ;
#170 = PRODUCT_DEFINITION ( 'UNKNOWN', '', #28, #76 ) ;
#171 = ADVANCED_FACE ( 'NONE', ( #124 ), #15, .F. ) ;
#172 = CARTESIAN_POINT ( 'NONE',  ( 6.349999999999999600, 1.221245327087670000E-015, -0.2595415874283820100 ) ) ;
#173 = MANIFOLD_SOLID_BREP ( 'Imported1', #123 ) ;
#174 = CARTESIAN_POINT ( 'NONE',  ( -6.395304997956857900, 2.146898409432983700, -0.1741597435541200300 ) ) ;
#175 = DATE_AND_TIME ( #190, #2 ) ;
#176 = CARTESIAN_POINT ( 'NONE',  ( -6.366192523862463500, -6.426027318755815000, -0.5275707832128190300 ) ) ;
#177 = CARTESIAN_POINT ( 'NONE',  ( 2.498001805406600200E-016, 1.221245327087670000E-015, -0.2595415874283820100 ) ) ;
#178 = VERTEX_POINT ( 'NONE', #135 ) ;
#179 = COORDINATED_UNIVERSAL_TIME_OFFSET ( 2, 0, .AHEAD. ) ;
#180 = APPLICATION_CONTEXT ( 'configuration controlled 3d designs of mechanical parts and assemblies' ) ;
#181 = EDGE_LOOP ( 'NONE', ( #215, #111, #60 ) ) ;
#182 = EDGE_CURVE ( 'NONE', #71, #169, #145, .T. ) ;
#183 = ORIENTED_EDGE ( 'NONE', *, *, #58, .F. ) ;
#184 = VECTOR ( 'NONE', #46, 1000.000000000000000 ) ;
#185 = APPROVAL ( #23, 'UNSPECIFIED' ) ;
#186 = CARTESIAN_POINT ( 'NONE',  ( 6.366192523862383500, -6.426027318755815000, -0.5275707832128043700 ) ) ;
#187 = CARTESIAN_POINT ( 'NONE',  ( 2.131628207280299900E-014, -2.146898409432951300, 0.08880370288929134700 ) ) ;
#188 = DIRECTION ( 'NONE',  ( 1.000000000000000000, 0.0000000000000000000, 0.0000000000000000000 ) ) ;
#189 = DIRECTION ( 'NONE',  ( 0.0000000000000000000, 0.0000000000000000000, 1.000000000000000000 ) ) ;
#190 = CALENDAR_DATE ( 2019, 14, 1 ) ;
#191 = DATE_AND_TIME ( #56, #149 ) ;
#192 = CARTESIAN_POINT ( 'NONE',  ( -2.134771236153332600, 2.146898409432983300, 0.08880370288926550700 ) ) ;
#193 = CARTESIAN_POINT ( 'NONE',  ( 0.0000000000000000000, -6.426027318755815000, -0.2658043893767441700 ) ) ;
#194 = DIRECTION ( 'NONE',  ( 1.000000000000000000, 0.0000000000000000000, 0.0000000000000000000 ) ) ;
#195 = CARTESIAN_POINT ( 'NONE',  ( 2.498001805406600200E-016, 1.221245327087670000E-015, 3.200000000000000200 ) ) ;
#196 = APPLICATION_PROTOCOL_DEFINITION ( 'international standard', 'config_control_design', 1994, #87 ) ;
#197 = PRODUCT ( '112-0121E BK7 pl-cv 12.7 F-150', '112-0121E BK7 pl-cv 12.7 F-150', '', ( #108 ) ) ;
#198 = EDGE_CURVE ( 'NONE', #169, #225, #3, .T. ) ;
#199 = ORIENTED_EDGE ( 'NONE', *, *, #232, .T. ) ;
#200 = PERSON_AND_ORGANIZATION_ROLE ( 'design_supplier' ) ;
#201 = ORIENTED_EDGE ( 'NONE', *, *, #205, .T. ) ;
#202 = LINE ( 'NONE', #104, #59 ) ;
#203 = ORIENTED_EDGE ( 'NONE', *, *, #182, .F. ) ;
#204 = VERTEX_POINT ( 'NONE', #97 ) ;
#205 = EDGE_CURVE ( 'NONE', #169, #204, #230, .T. ) ;
#206 = LOCAL_TIME ( 14, 6, 33.00000000000000000, #127 ) ;
#207 = CARTESIAN_POINT ( 'NONE',  ( 2.131628207280299900E-014, 2.146898409432983700, 0.08880370288927680300 ) ) ;
#208 = ADVANCED_FACE ( 'NONE', ( #75 ), #47, .T. ) ;
#209 = CARTESIAN_POINT ( 'NONE',  ( 2.131628207280299900E-014, 6.350000000000025400, -0.2595415874283839000 ) ) ;
#210 = CARTESIAN_POINT ( 'NONE',  ( 2.498001805406600200E-016, 1.221245327087670000E-015, -0.2595415874283820100 ) ) ;
#211 = PERSON_AND_ORGANIZATION ( #49, #221 ) ;
#212 = SECURITY_CLASSIFICATION_LEVEL ( 'unclassified' ) ;
#213 = DIRECTION ( 'NONE',  ( 0.0000000000000000000, 0.0000000000000000000, 1.000000000000000000 ) ) ;
#214 = EDGE_CURVE ( 'NONE', #178, #71, #107, .T. ) ;
#215 = ORIENTED_EDGE ( 'NONE', *, *, #29, .F. ) ;
#216 = CIRCLE ( 'NONE', #50, 6.349999999999999600 ) ;
#217 = CARTESIAN_POINT ( 'NONE',  ( 2.134771236153321100, 2.146898409432983300, 0.08880370288927681700 ) ) ;
#218 = CARTESIAN_POINT ( 'NONE',  ( -6.349999999999999600, 1.998896044546239400E-015, 3.200000000000000200 ) ) ;
#219 = FACE_OUTER_BOUND ( 'NONE', #167, .T. ) ;
#220 = DIRECTION ( 'NONE',  ( 0.0000000000000000000, 0.0000000000000000000, 1.000000000000000000 ) ) ;
#221 = ORGANIZATION ( 'UNSPECIFIED', 'UNSPECIFIED', '' ) ;
#222 = CARTESIAN_POINT ( 'NONE',  ( 0.0000000000000000000, 6.426027318755846100, -0.2658043893767582700 ) ) ;
#223 = AXIS2_PLACEMENT_3D ( 'NONE', #195, #37, #51 ) ;
#224 = CARTESIAN_POINT ( 'NONE',  ( -2.125053408414103700, 6.426027318755846100, -0.2658043893767588200 ) ) ;
#225 = VERTEX_POINT ( 'NONE', #209 ) ;
#226 = ORIENTED_EDGE ( 'NONE', *, *, #113, .T. ) ;
#227 = CARTESIAN_POINT ( 'NONE',  ( -6.395304997956859700, -2.146898409432951300, -0.1741597435541054600 ) ) ;
#228 = AXIS2_PLACEMENT_3D ( 'NONE', #61, #158, #18 ) ;
#229 = PERSON_AND_ORGANIZATION_ROLE ( 'design_owner' ) ;
#230 = LINE ( 'NONE', #172, #184 ) ;
#231 = CYLINDRICAL_SURFACE ( 'NONE', #84, 6.349999999999999600 ) ;
#232 = EDGE_CURVE ( 'NONE', #204, #27, #6, .T. ) ;
#233 = PERSON_AND_ORGANIZATION_ROLE ( 'creator' ) ;
#234 = CALENDAR_DATE ( 2019, 14, 1 ) ;
#235 = EDGE_CURVE ( 'NONE', #178, #27, #202, .T. ) ;
ENDSEC;
END-ISO-10303-21;
