ISO-10303-21;
HEADER;
FILE_DESCRIPTION (( 'STEP AP203' ),
    '1' );
FILE_NAME ('112-0117E BK7 pl-cv 12.7 F-100.STEP',
    '2019-01-14T11:29:36',
    ( '' ),
    ( '' ),
    'SwSTEP 2.0',
    'SolidWorks 2017',
    '' );
FILE_SCHEMA (( 'CONFIG_CONTROL_DESIGN' ));
ENDSEC;

DATA;
#1 = PERSON_AND_ORGANIZATION ( #3, #195 ) ;
#2 = CIRCLE ( 'NONE', #9, 6.349999999999999600 ) ;
#3 = PERSON ( 'UNSPECIFIED', 'UNSPECIFIED', 'UNSPECIFIED', ('UNSPECIFIED'), ('UNSPECIFIED'), ('UNSPECIFIED') ) ;
#4 = PRODUCT_RELATED_PRODUCT_CATEGORY ( 'detail', '', ( #163 ) ) ;
#5 = PERSON_AND_ORGANIZATION_ROLE ( 'creator' ) ;
#6 = CIRCLE ( 'NONE', #133, 6.349999999999999600 ) ;
#7 = LOCAL_TIME ( 13, 29, 36.00000000000000000, #37 ) ;
#8 = CC_DESIGN_PERSON_AND_ORGANIZATION_ASSIGNMENT ( #191, #22, ( #173 ) ) ;
#9 = AXIS2_PLACEMENT_3D ( 'NONE', #203, #65, #175 ) ;
#10 = DIRECTION ( 'NONE',  ( 0.0000000000000000000, -1.000000000000000000, -1.024442997624098700E-016 ) ) ;
#11 = LINE ( 'NONE', #20, #139 ) ;
#12 = CARTESIAN_POINT ( 'NONE',  ( 1.080452266157957900E-015, 6.425810114226715400, -0.3995632000669616100 ) ) ;
#13 = FACE_OUTER_BOUND ( 'NONE', #95, .T. ) ;
#14 = CARTESIAN_POINT ( 'NONE',  ( 4.249628931899089900, -6.425810114226721700, -0.5312229777539815300 ) ) ;
#15 = PRODUCT_DEFINITION ( 'UNKNOWN', '', #121, #150 ) ;
#16 = COORDINATED_UNIVERSAL_TIME_OFFSET ( 2, 0, .AHEAD. ) ;
#17 = ORIENTED_EDGE ( 'NONE', *, *, #168, .T. ) ;
#18 = DIRECTION ( 'NONE',  ( 0.0000000000000000000, 0.0000000000000000000, 1.000000000000000000 ) ) ;
#19 = CARTESIAN_POINT ( 'NONE',  ( -4.249628931899108500, -6.425810114226719900, -0.5312229777539713100 ) ) ;
#20 = CARTESIAN_POINT ( 'NONE',  ( 2.498001805406600200E-016, -6.349999999999998800, -0.3901554003899506700 ) ) ;
#21 = LOCAL_TIME ( 13, 29, 36.00000000000000000, #199 ) ;
#22 = PERSON_AND_ORGANIZATION_ROLE ( 'classification_officer' ) ;
#23 = PERSON_AND_ORGANIZATION_ROLE ( 'design_supplier' ) ;
#24 = DATE_TIME_ROLE ( 'creation_date' ) ;
#25 = ORIENTED_EDGE ( 'NONE', *, *, #104, .T. ) ;
#26 = DATE_AND_TIME ( #147, #21 ) ;
#27 = ORIENTED_EDGE ( 'NONE', *, *, #213, .T. ) ;
#28 = ADVANCED_FACE ( 'NONE', ( #111 ), #143, .T. ) ;
#29 = MANIFOLD_SOLID_BREP ( 'Imported1', #105 ) ;
#30 = CARTESIAN_POINT ( 'NONE',  ( 2.126853973085151700, -6.425810114226721700, -0.3995632000669553400 ) ) ;
#31 = AXIS2_PLACEMENT_3D ( 'NONE', #194, #119, #36 ) ;
#32 = CARTESIAN_POINT ( 'NONE',  ( 2.148896639530594000, -2.152993280603956000, 0.1338752421295747500 ) ) ;
#33 = ORIENTED_EDGE ( 'NONE', *, *, #107, .F. ) ;
#34 = DIRECTION ( 'NONE',  ( -1.889474643165239900E-032, -9.824532154167209800E-017, 1.000000000000000000 ) ) ;
#35 = CARTESIAN_POINT ( 'NONE',  ( -4.249628931899105000, 6.425810114226718100, -0.5312229777539782000 ) ) ;
#36 = DIRECTION ( 'NONE',  ( 1.000000000000000000, 0.0000000000000000000, -0.0000000000000000000 ) ) ;
#37 = COORDINATED_UNIVERSAL_TIME_OFFSET ( 2, 0, .AHEAD. ) ;
#38 = EDGE_CURVE ( 'NONE', #207, #88, #6, .T. ) ;
#39 = APPLICATION_PROTOCOL_DEFINITION ( 'international standard', 'config_control_design', 1994, #120 ) ;
#40 = SECURITY_CLASSIFICATION_LEVEL ( 'unclassified' ) ;
#41 = ORIENTED_EDGE ( 'NONE', *, *, #72, .F. ) ;
#42 = VECTOR ( 'NONE', #52, 1000.000000000000000 ) ;
#43 = AXIS2_PLACEMENT_3D ( 'NONE', #81, #113, #44 ) ;
#44 = DIRECTION ( 'NONE',  ( 2.801096586449981700E-016, 1.000000000000000000, 2.675494082863785900E-016 ) ) ;
#45 = CARTESIAN_POINT ( 'NONE',  ( -1.182729113945377500E-015, -2.152993280603955600, 0.1338752421295752700 ) ) ;
#46 = CC_DESIGN_PERSON_AND_ORGANIZATION_ASSIGNMENT ( #149, #155, ( #163 ) ) ;
#47 = CARTESIAN_POINT ( 'NONE',  ( 6.360182493879430700, -6.425810114226720800, -0.7940375223290480100 ) ) ;
#48 = EDGE_LOOP ( 'NONE', ( #90, #68 ) ) ;
#49 = MECHANICAL_CONTEXT ( 'NONE', #120, 'mechanical' ) ;
#50 = CARTESIAN_POINT ( 'NONE',  ( -2.148896639530601100, -2.152993280603955600, 0.1338752421295824600 ) ) ;
#51 = PLANE ( 'NONE',  #31 ) ;
#52 = DIRECTION ( 'NONE',  ( -1.889474643165239900E-032, -9.824532154167209800E-017, 1.000000000000000000 ) ) ;
#53 = LOCAL_TIME ( 13, 29, 36.00000000000000000, #106 ) ;
#54 = ORIENTED_EDGE ( 'NONE', *, *, #66, .T. ) ;
#55 = APPLICATION_PROTOCOL_DEFINITION ( 'international standard', 'config_control_design', 1994, #164 ) ;
#56 = AXIS2_PLACEMENT_3D ( 'NONE', #86, #145, #131 ) ;
#57 = APPROVAL ( #76, 'UNSPECIFIED' ) ;
#58 = SHAPE_DEFINITION_REPRESENTATION ( #167, #127 ) ;
#59 = CIRCLE ( 'NONE', #43, 51.86999999999999700 ) ;
#60 = UNCERTAINTY_MEASURE_WITH_UNIT (LENGTH_MEASURE( 1.000000000000000100E-005 ), #144, 'distance_accuracy_value', 'NONE');
#61 = PERSON_AND_ORGANIZATION ( #3, #195 ) ;
#62 = CARTESIAN_POINT ( 'NONE',  ( 2.148896639530595300, 2.152993280603953300, 0.1338752421295715500 ) ) ;
#63 = PERSON_AND_ORGANIZATION ( #3, #195 ) ;
#64 = CARTESIAN_POINT ( 'NONE',  ( 6.426099281312351900, -2.152993280603957300, -0.2646874030813199400 ) ) ;
#65 = DIRECTION ( 'NONE',  ( 1.889474643165239900E-032, 9.824532154167209800E-017, -1.000000000000000000 ) ) ;
#66 = EDGE_CURVE ( 'NONE', #134, #169, #2, .T. ) ;
#67 = DATE_AND_TIME ( #161, #53 ) ;
#68 = ORIENTED_EDGE ( 'NONE', *, *, #213, .F. ) ;
#69 = CARTESIAN_POINT ( 'NONE',  ( 2.498001805406599800E-016, 8.881784197001233600E-016, 3.000000000000000000 ) ) ;
#70 = DIRECTION ( 'NONE',  ( -1.889474643165239900E-032, -9.824532154167209800E-017, 1.000000000000000000 ) ) ;
#71 = LOCAL_TIME ( 13, 29, 36.00000000000000000, #16 ) ;
#72 = EDGE_CURVE ( 'NONE', #88, #207, #59, .T. ) ;
#73 = PERSON_AND_ORGANIZATION ( #3, #195 ) ;
#74 = APPROVAL_STATUS ( 'not_yet_approved' ) ;
#75 = ORIENTED_EDGE ( 'NONE', *, *, #107, .T. ) ;
#76 = APPROVAL_STATUS ( 'not_yet_approved' ) ;
#77 = CC_DESIGN_APPROVAL ( #57, ( #15 ) ) ;
#78 = APPROVAL_DATE_TIME ( #26, #187 ) ;
#79 = PERSON_AND_ORGANIZATION ( #3, #195 ) ;
#80 = CARTESIAN_POINT ( 'NONE',  ( 2.498001805406600200E-016, 1.221245327087670000E-015, -0.3901554003899500000 ) ) ;
#81 = CARTESIAN_POINT ( 'NONE',  ( -1.421085471520200100E-014, -2.486899575160350000E-014, -51.86999999999999700 ) ) ;
#82 =( GEOMETRIC_REPRESENTATION_CONTEXT ( 3 ) GLOBAL_UNCERTAINTY_ASSIGNED_CONTEXT ( ( #60 ) ) GLOBAL_UNIT_ASSIGNED_CONTEXT ( ( #144, #160, #179 ) ) REPRESENTATION_CONTEXT ( 'NONE', 'WORKASPACE' ) );
#83 = ADVANCED_FACE ( 'NONE', ( #13 ), #158, .F. ) ;
#84 = CARTESIAN_POINT ( 'NONE',  ( 1.027450897999229200E-015, 6.350000000000000500, -0.3901554003899493900 ) ) ;
#85 = FACE_OUTER_BOUND ( 'NONE', #198, .T. ) ;
#86 = CARTESIAN_POINT ( 'NONE',  ( 2.498001805406600200E-016, 1.221245327087670000E-015, -0.3901554003899500000 ) ) ;
#87 = CARTESIAN_POINT ( 'NONE',  ( -6.426099281312375800, -2.152993280603953800, -0.2646874030813105600 ) ) ;
#88 = VERTEX_POINT ( 'NONE', #84 ) ;
#89 = CARTESIAN_POINT ( 'NONE',  ( 3.469446951953614200E-015, 6.425810114226715400, -0.3995632000669552300 ) ) ;
#90 = ORIENTED_EDGE ( 'NONE', *, *, #66, .F. ) ;
#91 = APPROVAL_ROLE ( '' ) ;
#92 = APPROVAL_ROLE ( '' ) ;
#93 = CC_DESIGN_PERSON_AND_ORGANIZATION_ASSIGNMENT ( #63, #135, ( #15 ) ) ;
#94 = CALENDAR_DATE ( 2019, 14, 1 ) ;
#95 = EDGE_LOOP ( 'NONE', ( #41, #97 ) ) ;
#96 = DIRECTION ( 'NONE',  ( -1.889474643165239900E-032, -9.824532154167209800E-017, 1.000000000000000000 ) ) ;
#97 = ORIENTED_EDGE ( 'NONE', *, *, #38, .F. ) ;
#98 = CARTESIAN_POINT ( 'NONE',  ( 4.293671989978375500, 2.152993280603952500, 0.0008509454861140910200 ) ) ;
#99 = CARTESIAN_POINT ( 'NONE',  ( -4.293671989978391500, 2.152993280603954200, 0.0008509454861242824100 ) ) ;
#100 = DIRECTION ( 'NONE',  ( 0.0000000000000000000, -1.000000000000000000, -6.829619984160658000E-017 ) ) ;
#101 = CARTESIAN_POINT ( 'NONE',  ( 0.0000000000000000000, -6.425810114226719000, -0.3995632000669481800 ) ) ;
#102 = CARTESIAN_POINT ( 'NONE',  ( 2.498001805406600200E-016, 1.221245327087670000E-015, -0.3901554003899500000 ) ) ;
#103 = APPROVAL_PERSON_ORGANIZATION ( #151, #156, #136 ) ;
#104 = EDGE_CURVE ( 'NONE', #88, #169, #128, .T. ) ;
#105 = CLOSED_SHELL ( 'NONE', ( #152, #112, #28, #83, #190 ) ) ;
#106 = COORDINATED_UNIVERSAL_TIME_OFFSET ( 2, 0, .AHEAD. ) ;
#107 = EDGE_CURVE ( 'NONE', #88, #207, #140, .T. ) ;
#108 = CIRCLE ( 'NONE', #137, 6.349999999999999600 ) ;
#109 = CC_DESIGN_DATE_AND_TIME_ASSIGNMENT ( #110, #166, ( #173 ) ) ;
#110 = DATE_AND_TIME ( #94, #185 ) ;
#111 = FACE_OUTER_BOUND ( 'NONE', #186, .T. ) ;
#112 = ADVANCED_FACE ( 'NONE', ( #184 ), #200, .T. ) ;
#113 = DIRECTION ( 'NONE',  ( 1.000000000000000000, -2.801096586449980200E-016, -5.251699512849379800E-016 ) ) ;
#114 = CC_DESIGN_DATE_AND_TIME_ASSIGNMENT ( #154, #24, ( #15 ) ) ;
#115 = DIRECTION ( 'NONE',  ( 0.0000000000000000000, -1.000000000000000000, -1.024442997624098700E-016 ) ) ;
#116 = CALENDAR_DATE ( 2019, 14, 1 ) ;
#117 = CARTESIAN_POINT ( 'NONE',  ( -6.360182493879458200, -6.425810114226717200, -0.7940375223290385700 ) ) ;
#118 = CARTESIAN_POINT ( 'NONE',  ( -6.426099281312375000, 2.152993280603954700, -0.2646874030813135000 ) ) ;
#119 = DIRECTION ( 'NONE',  ( 0.0000000000000000000, 0.0000000000000000000, 1.000000000000000000 ) ) ;
#120 = APPLICATION_CONTEXT ( 'configuration controlled 3d designs of mechanical parts and assemblies' ) ;
#121 = PRODUCT_DEFINITION_FORMATION_WITH_SPECIFIED_SOURCE ( 'ANY', '', #163, .NOT_KNOWN. ) ;
#122 = APPROVAL_DATE_TIME ( #146, #57 ) ;
#123 = AXIS2_PLACEMENT_3D ( 'NONE', #125, #171, #115 ) ;
#124 = CARTESIAN_POINT ( 'NONE',  ( 4.249628931899092500, 6.425810114226716300, -0.5312229777539884100 ) ) ;
#125 = CARTESIAN_POINT ( 'NONE',  ( 2.498001805406600200E-016, 1.221245327087670000E-015, -0.3901554003899500000 ) ) ;
#126 = CARTESIAN_POINT ( 'NONE',  ( 6.360182493879433400, 6.425810114226713700, -0.7940375223290547800 ) ) ;
#127 = ADVANCED_BREP_SHAPE_REPRESENTATION ( '112-0117E BK7 pl-cv 12.7 F-100', ( #29, #201 ), #82 ) ;
#128 = LINE ( 'NONE', #177, #42 ) ;
#129 = ORIENTED_EDGE ( 'NONE', *, *, #72, .T. ) ;
#130 = CARTESIAN_POINT ( 'NONE',  ( -2.126853973085162800, -6.425810114226719900, -0.3995632000669475700 ) ) ;
#131 = DIRECTION ( 'NONE',  ( 0.0000000000000000000, -1.000000000000000000, -1.024442997624098700E-016 ) ) ;
#132 = DIRECTION ( 'NONE',  ( 1.000000000000000000, 0.0000000000000000000, 0.0000000000000000000 ) ) ;
#133 = AXIS2_PLACEMENT_3D ( 'NONE', #80, #96, #10 ) ;
#134 = VERTEX_POINT ( 'NONE', #162 ) ;
#135 = PERSON_AND_ORGANIZATION_ROLE ( 'creator' ) ;
#136 = APPROVAL_ROLE ( '' ) ;
#137 = AXIS2_PLACEMENT_3D ( 'NONE', #69, #193, #100 ) ;
#138 = APPROVAL_STATUS ( 'not_yet_approved' ) ;
#139 = VECTOR ( 'NONE', #34, 1000.000000000000000 ) ;
#140 = CIRCLE ( 'NONE', #165, 6.349999999999999600 ) ;
#141 = CARTESIAN_POINT ( 'NONE',  ( 6.426099281312352800, 2.152993280603951100, -0.2646874030813230500 ) ) ;
#142 = APPROVAL_DATE_TIME ( #67, #156 ) ;
#143 = CYLINDRICAL_SURFACE ( 'NONE', #123, 6.349999999999999600 ) ;
#144 =( LENGTH_UNIT ( ) NAMED_UNIT ( * ) SI_UNIT ( .MILLI., .METRE. ) );
#145 = DIRECTION ( 'NONE',  ( -1.889474643165239900E-032, -9.824532154167209800E-017, 1.000000000000000000 ) ) ;
#146 = DATE_AND_TIME ( #181, #71 ) ;
#147 = CALENDAR_DATE ( 2019, 14, 1 ) ;
#148 = CC_DESIGN_APPROVAL ( #187, ( #121 ) ) ;
#149 = PERSON_AND_ORGANIZATION ( #3, #195 ) ;
#150 = DESIGN_CONTEXT ( 'detailed design', #164, 'design' ) ;
#151 = PERSON_AND_ORGANIZATION ( #3, #195 ) ;
#152 = ADVANCED_FACE ( 'NONE', ( #85 ), #208, .F. ) ;
#153 = CARTESIAN_POINT ( 'NONE',  ( 2.341931184452006400E-017, 2.152993280603952900, 0.1338752421295721600 ) ) ;
#154 = DATE_AND_TIME ( #116, #7 ) ;
#155 = PERSON_AND_ORGANIZATION_ROLE ( 'design_owner' ) ;
#156 = APPROVAL ( #138, 'UNSPECIFIED' ) ;
#157 = CARTESIAN_POINT ( 'NONE',  ( -6.360182493879453800, 6.425810114226717200, -0.7940375223290454500 ) ) ;
#158 =( BOUNDED_SURFACE ( )  B_SPLINE_SURFACE ( 3, 3, ( 
 ( #12, #189, #124, #126 ),
 ( #153, #62, #98, #141 ),
 ( #45, #32, #204, #64 ),
 ( #209, #30, #14, #47 ) ),
 .UNSPECIFIED., .F., .F., .F. ) 
 B_SPLINE_SURFACE_WITH_KNOTS ( ( 4, 4 ),
 ( 4, 4 ),
 ( 0.0000000000000000000, 1.000000000000000000 ),
 ( 0.0000000000000000000, 1.000000000000000000 ),
 .UNSPECIFIED. ) 
 GEOMETRIC_REPRESENTATION_ITEM ( )  RATIONAL_B_SPLINE_SURFACE ( (
 ( 1.000000000000000000, 0.9987214247513506200, 0.9987214247513506200, 1.000000000000000000),
 ( 0.9948645562615903200, 0.9935925470641956400, 0.9935925470641956400, 0.9948645562615903200),
 ( 0.9948645562615903200, 0.9935925470641956400, 0.9935925470641956400, 0.9948645562615903200),
 ( 1.000000000000000000, 0.9987214247513506200, 0.9987214247513506200, 1.000000000000000000) ) ) 
 REPRESENTATION_ITEM ( '' )  SURFACE ( )  );
#159 = CARTESIAN_POINT ( 'NONE',  ( 2.602085213965210600E-015, -2.152993280603956000, 0.1338752421295816600 ) ) ;
#160 =( NAMED_UNIT ( * ) PLANE_ANGLE_UNIT ( ) SI_UNIT ( $, .RADIAN. ) );
#161 = CALENDAR_DATE ( 2019, 14, 1 ) ;
#162 = CARTESIAN_POINT ( 'NONE',  ( 2.498001805406599800E-016, -6.349999999999998800, 2.999999999999999600 ) ) ;
#163 = PRODUCT ( '112-0117E BK7 pl-cv 12.7 F-100', '112-0117E BK7 pl-cv 12.7 F-100', '', ( #49 ) ) ;
#164 = APPLICATION_CONTEXT ( 'configuration controlled 3d designs of mechanical parts and assemblies' ) ;
#165 = AXIS2_PLACEMENT_3D ( 'NONE', #102, #70, #211 ) ;
#166 = DATE_TIME_ROLE ( 'classification_date' ) ;
#167 = PRODUCT_DEFINITION_SHAPE ( 'NONE', 'NONE',  #15 ) ;
#168 = EDGE_CURVE ( 'NONE', #207, #134, #11, .T. ) ;
#169 = VERTEX_POINT ( 'NONE', #178 ) ;
#170 = CC_DESIGN_APPROVAL ( #156, ( #173 ) ) ;
#171 = DIRECTION ( 'NONE',  ( -1.889474643165239900E-032, -9.824532154167209800E-017, 1.000000000000000000 ) ) ;
#172 = APPROVAL_PERSON_ORGANIZATION ( #61, #187, #92 ) ;
#173 = SECURITY_CLASSIFICATION ( '', '', #40 ) ;
#174 = EDGE_LOOP ( 'NONE', ( #182, #25, #27, #192 ) ) ;
#175 = DIRECTION ( 'NONE',  ( 0.0000000000000000000, -1.000000000000000000, -6.829619984160658000E-017 ) ) ;
#176 = CARTESIAN_POINT ( 'NONE',  ( -2.148896639530600200, 2.152993280603953800, 0.1338752421295793200 ) ) ;
#177 = CARTESIAN_POINT ( 'NONE',  ( 1.027450897999229200E-015, 6.350000000000000500, -0.3901554003899493900 ) ) ;
#178 = CARTESIAN_POINT ( 'NONE',  ( 1.027450897999229200E-015, 6.350000000000000500, 3.000000000000000400 ) ) ;
#179 =( NAMED_UNIT ( * ) SI_UNIT ( $, .STERADIAN. ) SOLID_ANGLE_UNIT ( ) );
#180 = CARTESIAN_POINT ( 'NONE',  ( 2.498001805406600200E-016, -6.349999999999998800, -0.3901554003899506700 ) ) ;
#181 = CALENDAR_DATE ( 2019, 14, 1 ) ;
#182 = ORIENTED_EDGE ( 'NONE', *, *, #38, .T. ) ;
#183 = CC_DESIGN_SECURITY_CLASSIFICATION ( #173, ( #121 ) ) ;
#184 = FACE_OUTER_BOUND ( 'NONE', #174, .T. ) ;
#185 = LOCAL_TIME ( 13, 29, 36.00000000000000000, #202 ) ;
#186 = EDGE_LOOP ( 'NONE', ( #188, #75, #17, #54 ) ) ;
#187 = APPROVAL ( #74, 'UNSPECIFIED' ) ;
#188 = ORIENTED_EDGE ( 'NONE', *, *, #104, .F. ) ;
#189 = CARTESIAN_POINT ( 'NONE',  ( 2.126853973085155200, 6.425810114226716300, -0.3995632000669621700 ) ) ;
#190 = ADVANCED_FACE ( 'NONE', ( #197 ), #51, .T. ) ;
#191 = PERSON_AND_ORGANIZATION ( #3, #195 ) ;
#192 = ORIENTED_EDGE ( 'NONE', *, *, #168, .F. ) ;
#193 = DIRECTION ( 'NONE',  ( 1.889474643165239900E-032, 9.824532154167209800E-017, -1.000000000000000000 ) ) ;
#194 = CARTESIAN_POINT ( 'NONE',  ( 0.0000000000000000000, 13.15799999999999900, 3.000000000000000000 ) ) ;
#195 = ORGANIZATION ( 'UNSPECIFIED', 'UNSPECIFIED', '' ) ;
#196 = CC_DESIGN_PERSON_AND_ORGANIZATION_ASSIGNMENT ( #73, #5, ( #121 ) ) ;
#197 = FACE_OUTER_BOUND ( 'NONE', #48, .T. ) ;
#198 = EDGE_LOOP ( 'NONE', ( #33, #129 ) ) ;
#199 = COORDINATED_UNIVERSAL_TIME_OFFSET ( 2, 0, .AHEAD. ) ;
#200 = CYLINDRICAL_SURFACE ( 'NONE', #56, 6.349999999999999600 ) ;
#201 = AXIS2_PLACEMENT_3D ( 'NONE', #215, #18, #132 ) ;
#202 = COORDINATED_UNIVERSAL_TIME_OFFSET ( 2, 0, .AHEAD. ) ;
#203 = CARTESIAN_POINT ( 'NONE',  ( 2.498001805406599800E-016, 8.881784197001233600E-016, 3.000000000000000000 ) ) ;
#204 = CARTESIAN_POINT ( 'NONE',  ( 4.293671989978373700, -2.152993280603956900, 0.0008509454861171809900 ) ) ;
#205 = CC_DESIGN_PERSON_AND_ORGANIZATION_ASSIGNMENT ( #79, #23, ( #121 ) ) ;
#206 = APPROVAL_PERSON_ORGANIZATION ( #1, #57, #91 ) ;
#207 = VERTEX_POINT ( 'NONE', #180 ) ;
#208 =( BOUNDED_SURFACE ( )  B_SPLINE_SURFACE ( 3, 3, ( 
 ( #157, #35, #212, #89 ),
 ( #118, #99, #176, #214 ),
 ( #87, #210, #50, #159 ),
 ( #117, #19, #130, #101 ) ),
 .UNSPECIFIED., .F., .F., .T. ) 
 B_SPLINE_SURFACE_WITH_KNOTS ( ( 4, 4 ),
 ( 4, 4 ),
 ( 0.0000000000000000000, 1.000000000000000000 ),
 ( 0.0000000000000000000, 1.000000000000000000 ),
 .UNSPECIFIED. ) 
 GEOMETRIC_REPRESENTATION_ITEM ( )  RATIONAL_B_SPLINE_SURFACE ( (
 ( 1.000000000000000000, 0.9987214247513506200, 0.9987214247513506200, 1.000000000000000000),
 ( 0.9948645562615903200, 0.9935925470641956400, 0.9935925470641956400, 0.9948645562615903200),
 ( 0.9948645562615903200, 0.9935925470641956400, 0.9935925470641956400, 0.9948645562615903200),
 ( 1.000000000000000000, 0.9987214247513506200, 0.9987214247513506200, 1.000000000000000000) ) ) 
 REPRESENTATION_ITEM ( '' )  SURFACE ( )  );
#209 = CARTESIAN_POINT ( 'NONE',  ( -2.519410689069286100E-015, -6.425810114226719000, -0.3995632000669546700 ) ) ;
#210 = CARTESIAN_POINT ( 'NONE',  ( -4.293671989978392400, -2.152993280603954700, 0.0008509454861273182800 ) ) ;
#211 = DIRECTION ( 'NONE',  ( 0.0000000000000000000, -1.000000000000000000, -1.024442997624098700E-016 ) ) ;
#212 = CARTESIAN_POINT ( 'NONE',  ( -2.126853973085158800, 6.425810114226718100, -0.3995632000669546700 ) ) ;
#213 = EDGE_CURVE ( 'NONE', #169, #134, #108, .T. ) ;
#214 = CARTESIAN_POINT ( 'NONE',  ( 3.469446951953614200E-015, 2.152993280603952500, 0.1338752421295786300 ) ) ;
#215 = CARTESIAN_POINT ( 'NONE',  ( 0.0000000000000000000, 0.0000000000000000000, 0.0000000000000000000 ) ) ;
ENDSEC;
END-ISO-10303-21;
