ISO-10303-21;
HEADER;
FILE_DESCRIPTION (( 'STEP AP203' ),
    '1' );
FILE_NAME ('112-0115E BK7 pl-cv 12.7 F-75.STEP',
    '2019-01-14T11:14:58',
    ( '' ),
    ( '' ),
    'SwSTEP 2.0',
    'SolidWorks 2017',
    '' );
FILE_SCHEMA (( 'CONFIG_CONTROL_DESIGN' ));
ENDSEC;

DATA;
#1 = CARTESIAN_POINT ( 'NONE',  ( 6.349999999999999600, 1.221245327087670000E-015, -0.5217835224199090000 ) ) ;
#2 = DIRECTION ( 'NONE',  ( 1.000000000000000000, 0.0000000000000000000, 0.0000000000000000000 ) ) ;
#3 = CARTESIAN_POINT ( 'NONE',  ( -2.151263069088060800, -2.161630087139837300, 0.1797637390617286600 ) ) ;
#4 = AXIS2_PLACEMENT_3D ( 'NONE', #56, #138, #36 ) ;
#5 = PERSON_AND_ORGANIZATION ( #143, #52 ) ;
#6 = CARTESIAN_POINT ( 'NONE',  ( -2.111952391697880400, 6.425503498731253600, -0.5343525430914646300 ) ) ;
#7 = ORIENTED_EDGE ( 'NONE', *, *, #73, .F. ) ;
#8 = CC_DESIGN_APPROVAL ( #229, ( #231 ) ) ;
#9 = VERTEX_POINT ( 'NONE', #31 ) ;
#10 = CARTESIAN_POINT ( 'NONE',  ( -6.349999999999999600, 1.998896044546239400E-015, -0.5217835224199090000 ) ) ;
#11 = ADVANCED_FACE ( 'NONE', ( #38 ), #169, .T. ) ;
#12 = PERSON_AND_ORGANIZATION_ROLE ( 'classification_officer' ) ;
#13 = APPROVAL_STATUS ( 'not_yet_approved' ) ;
#14 = EDGE_CURVE ( 'NONE', #9, #213, #50, .T. ) ;
#15 = CIRCLE ( 'NONE', #173, 6.349999999999999600 ) ;
#16 = CC_DESIGN_PERSON_AND_ORGANIZATION_ASSIGNMENT ( #218, #150, ( #139 ) ) ;
#17 = CARTESIAN_POINT ( 'NONE',  ( 2.151263069088031000, -2.161630087139837700, 0.1797637390617306300 ) ) ;
#18 = VECTOR ( 'NONE', #195, 1000.000000000000000 ) ;
#19 = CARTESIAN_POINT ( 'NONE',  ( 2.498001805406600200E-016, 1.221245327087670000E-015, -0.5217835224199090000 ) ) ;
#20 = CARTESIAN_POINT ( 'NONE',  ( 2.498001805406600200E-016, 1.221245327087670000E-015, -0.5217835224199090000 ) ) ;
#21 = ORIENTED_EDGE ( 'NONE', *, *, #113, .F. ) ;
#22 = CARTESIAN_POINT ( 'NONE',  ( 6.300009004230974900, 6.425503498731254500, -1.055148417064690800 ) ) ;
#23 = CARTESIAN_POINT ( 'NONE',  ( -2.151263069088058500, 2.161630087139825700, 0.1797637390617364000 ) ) ;
#24 = CARTESIAN_POINT ( 'NONE',  ( -6.349999999999999600, 1.998896044546239400E-015, 2.899999999999999900 ) ) ;
#25 = FACE_OUTER_BOUND ( 'NONE', #165, .T. ) ;
#26 = CC_DESIGN_PERSON_AND_ORGANIZATION_ASSIGNMENT ( #188, #12, ( #231 ) ) ;
#27 = CARTESIAN_POINT ( 'NONE',  ( 2.498001805406600200E-016, 1.221245327087670000E-015, -0.5217835224199090000 ) ) ;
#28 =( NAMED_UNIT ( * ) SI_UNIT ( $, .STERADIAN. ) SOLID_ANGLE_UNIT ( ) );
#29 = APPROVAL_ROLE ( '' ) ;
#30 = SECURITY_CLASSIFICATION_LEVEL ( 'unclassified' ) ;
#31 = CARTESIAN_POINT ( 'NONE',  ( 6.349999999999999600, 1.221245327087670000E-015, 2.899999999999999900 ) ) ;
#32 = PERSON_AND_ORGANIZATION_ROLE ( 'design_supplier' ) ;
#33 = VERTEX_POINT ( 'NONE', #166 ) ;
#34 = PERSON_AND_ORGANIZATION ( #143, #52 ) ;
#35 = DIRECTION ( 'NONE',  ( 1.000000000000000000, 0.0000000000000000000, 0.0000000000000000000 ) ) ;
#36 = DIRECTION ( 'NONE',  ( 0.0000000000000000000, 1.000000000000000000, 7.135109412758075500E-016 ) ) ;
#37 = APPROVAL_DATE_TIME ( #184, #229 ) ;
#38 = FACE_OUTER_BOUND ( 'NONE', #219, .T. ) ;
#39 = CC_DESIGN_SECURITY_CLASSIFICATION ( #231, ( #68 ) ) ;
#40 = DIRECTION ( 'NONE',  ( 0.0000000000000000000, 0.0000000000000000000, 1.000000000000000000 ) ) ;
#41 = CARTESIAN_POINT ( 'NONE',  ( -1.994931997373328200E-014, 2.161630087139825700, 0.1797637390617369300 ) ) ;
#42 = PRODUCT_DEFINITION_SHAPE ( 'NONE', 'NONE',  #58 ) ;
#43 = APPROVAL_PERSON_ORGANIZATION ( #233, #229, #204 ) ;
#44 = VECTOR ( 'NONE', #77, 1000.000000000000000 ) ;
#45 = DIRECTION ( 'NONE',  ( 1.000000000000000000, 0.0000000000000000000, 0.0000000000000000000 ) ) ;
#46 = DIRECTION ( 'NONE',  ( 0.0000000000000000000, 0.0000000000000000000, 1.000000000000000000 ) ) ;
#47 = DIRECTION ( 'NONE',  ( 1.000000000000000000, 0.0000000000000000000, 0.0000000000000000000 ) ) ;
#48 = DIRECTION ( 'NONE',  ( 1.000000000000000000, 0.0000000000000000000, 0.0000000000000000000 ) ) ;
#49 = LOCAL_TIME ( 13, 14, 58.00000000000000000, #92 ) ;
#50 = CIRCLE ( 'NONE', #111, 6.349999999999999600 ) ;
#51 = DATE_TIME_ROLE ( 'classification_date' ) ;
#52 = ORGANIZATION ( 'UNSPECIFIED', 'UNSPECIFIED', '' ) ;
#53 = DIRECTION ( 'NONE',  ( 0.0000000000000000000, 0.0000000000000000000, 1.000000000000000000 ) ) ;
#54 = CARTESIAN_POINT ( 'NONE',  ( 2.498001805406600200E-016, 1.221245327087670000E-015, 2.899999999999999900 ) ) ;
#55 = APPROVAL_DATE_TIME ( #89, #193 ) ;
#56 = CARTESIAN_POINT ( 'NONE',  ( -1.065814103640150000E-014, -1.065814103640150000E-014, -38.89999999999999900 ) ) ;
#57 = CARTESIAN_POINT ( 'NONE',  ( 4.295213108521320300, 2.161630087139825300, 0.002532193235101499300 ) ) ;
#58 = PRODUCT_DEFINITION ( 'UNKNOWN', '', #68, #170 ) ;
#59 = DIRECTION ( 'NONE',  ( -0.0000000000000000000, -0.0000000000000000000, -1.000000000000000000 ) ) ;
#60 = CARTESIAN_POINT ( 'NONE',  ( -1.994931997373328200E-014, 6.425503498731254500, -0.5343525430914641800 ) ) ;
#61 = ORIENTED_EDGE ( 'NONE', *, *, #200, .T. ) ;
#62 = CIRCLE ( 'NONE', #4, 38.89999999999999900 ) ;
#63 = CIRCLE ( 'NONE', #124, 6.349999999999999600 ) ;
#64 = APPROVAL_ROLE ( '' ) ;
#65 = APPROVAL_DATE_TIME ( #212, #190 ) ;
#66 = CIRCLE ( 'NONE', #136, 6.349999999999999600 ) ;
#67 = PERSON_AND_ORGANIZATION_ROLE ( 'creator' ) ;
#68 = PRODUCT_DEFINITION_FORMATION_WITH_SPECIFIED_SOURCE ( 'ANY', '', #139, .NOT_KNOWN. ) ;
#69 = APPLICATION_CONTEXT ( 'configuration controlled 3d designs of mechanical parts and assemblies' ) ;
#70 = ORIENTED_EDGE ( 'NONE', *, *, #102, .F. ) ;
#71 = FACE_OUTER_BOUND ( 'NONE', #119, .T. ) ;
#72 = CARTESIAN_POINT ( 'NONE',  ( -1.065814103640150000E-014, -6.425503498731266000, -0.5343525430914695100 ) ) ;
#73 = EDGE_CURVE ( 'NONE', #213, #9, #63, .T. ) ;
#74 = CARTESIAN_POINT ( 'NONE',  ( 6.417273778992986300, -2.161630087139837700, -0.3507259323040793900 ) ) ;
#75 = PLANE ( 'NONE',  #154 ) ;
#76 = EDGE_LOOP ( 'NONE', ( #109, #7 ) ) ;
#77 = DIRECTION ( 'NONE',  ( 0.0000000000000000000, 0.0000000000000000000, 1.000000000000000000 ) ) ;
#78 = ORIENTED_EDGE ( 'NONE', *, *, #126, .T. ) ;
#79 = CLOSED_SHELL ( 'NONE', ( #228, #11, #149, #207, #129 ) ) ;
#80 = PERSON_AND_ORGANIZATION ( #143, #52 ) ;
#81 = APPROVAL_STATUS ( 'not_yet_approved' ) ;
#82 = APPLICATION_CONTEXT ( 'configuration controlled 3d designs of mechanical parts and assemblies' ) ;
#83 = APPLICATION_PROTOCOL_DEFINITION ( 'international standard', 'config_control_design', 1994, #69 ) ;
#84 = APPROVAL_PERSON_ORGANIZATION ( #80, #193, #64 ) ;
#85 = ORIENTED_EDGE ( 'NONE', *, *, #126, .F. ) ;
#86 = CC_DESIGN_APPROVAL ( #190, ( #58 ) ) ;
#87 = CARTESIAN_POINT ( 'NONE',  ( 2.111952391697852900, 6.425503498731253600, -0.5343525430914625200 ) ) ;
#88 = DIRECTION ( 'NONE',  ( 1.000000000000000000, 0.0000000000000000000, 0.0000000000000000000 ) ) ;
#89 = DATE_AND_TIME ( #174, #144 ) ;
#90 = VERTEX_POINT ( 'NONE', #10 ) ;
#91 = DIRECTION ( 'NONE',  ( 1.000000000000000000, 0.0000000000000000000, -0.0000000000000000000 ) ) ;
#92 = COORDINATED_UNIVERSAL_TIME_OFFSET ( 2, 0, .AHEAD. ) ;
#93 = ORIENTED_EDGE ( 'NONE', *, *, #145, .T. ) ;
#94 = DATE_AND_TIME ( #186, #179 ) ;
#95 = CC_DESIGN_PERSON_AND_ORGANIZATION_ASSIGNMENT ( #227, #67, ( #58 ) ) ;
#96 =( NAMED_UNIT ( * ) PLANE_ANGLE_UNIT ( ) SI_UNIT ( $, .RADIAN. ) );
#97 = COORDINATED_UNIVERSAL_TIME_OFFSET ( 2, 0, .AHEAD. ) ;
#98 = ORIENTED_EDGE ( 'NONE', *, *, #14, .T. ) ;
#99 = LINE ( 'NONE', #220, #18 ) ;
#100 = COORDINATED_UNIVERSAL_TIME_OFFSET ( 2, 0, .AHEAD. ) ;
#101 = DIRECTION ( 'NONE',  ( 0.0000000000000000000, 0.0000000000000000000, 1.000000000000000000 ) ) ;
#102 = EDGE_CURVE ( 'NONE', #209, #33, #15, .T. ) ;
#103 = DIRECTION ( 'NONE',  ( 0.0000000000000000000, 0.0000000000000000000, 1.000000000000000000 ) ) ;
#104 = CARTESIAN_POINT ( 'NONE',  ( 2.151263069088031400, 2.161630087139825300, 0.1797637390617385400 ) ) ;
#105 = EDGE_LOOP ( 'NONE', ( #160, #122, #189 ) ) ;
#106 = CARTESIAN_POINT ( 'NONE',  ( -4.295213108521344300, 2.161630087139825700, 0.002532193235097650000 ) ) ;
#107 = CARTESIAN_POINT ( 'NONE',  ( -4.295213108521345200, -2.161630087139837300, 0.002532193235089898400 ) ) ;
#108 = APPROVAL_PERSON_ORGANIZATION ( #127, #190, #29 ) ;
#109 = ORIENTED_EDGE ( 'NONE', *, *, #14, .F. ) ;
#110 = UNCERTAINTY_MEASURE_WITH_UNIT (LENGTH_MEASURE( 1.000000000000000100E-005 ), #187, 'distance_accuracy_value', 'NONE');
#111 = AXIS2_PLACEMENT_3D ( 'NONE', #128, #168, #48 ) ;
#112 = CIRCLE ( 'NONE', #171, 6.349999999999999600 ) ;
#113 = EDGE_CURVE ( 'NONE', #90, #213, #99, .T. ) ;
#114 = CARTESIAN_POINT ( 'NONE',  ( -2.081668171172168500E-014, -6.425503498731266000, -0.5343525430914708400 ) ) ;
#115 = DATE_TIME_ROLE ( 'creation_date' ) ;
#116 = CARTESIAN_POINT ( 'NONE',  ( -2.111952391697881300, -6.425503498731265100, -0.5343525430914714000 ) ) ;
#117 = ORIENTED_EDGE ( 'NONE', *, *, #113, .T. ) ;
#118 = EDGE_CURVE ( 'NONE', #155, #209, #62, .T. ) ;
#119 = EDGE_LOOP ( 'NONE', ( #21, #163, #146, #61, #98 ) ) ;
#120 = CARTESIAN_POINT ( 'NONE',  ( -1.065814103640150100E-014, -2.161630087139838200, 0.1797637390617306300 ) ) ;
#121 = CARTESIAN_POINT ( 'NONE',  ( 4.216725386932385100, -6.425503498731265100, -0.7083454835511174800 ) ) ;
#122 = ORIENTED_EDGE ( 'NONE', *, *, #118, .T. ) ;
#123 = DIRECTION ( 'NONE',  ( 1.000000000000000000, 0.0000000000000000000, 0.0000000000000000000 ) ) ;
#124 = AXIS2_PLACEMENT_3D ( 'NONE', #54, #59, #123 ) ;
#125 = CARTESIAN_POINT ( 'NONE',  ( -2.255140518769849200E-014, -2.161630087139837700, 0.1797637390617293500 ) ) ;
#126 = EDGE_CURVE ( 'NONE', #33, #155, #66, .T. ) ;
#127 = PERSON_AND_ORGANIZATION ( #143, #52 ) ;
#128 = CARTESIAN_POINT ( 'NONE',  ( 2.498001805406600200E-016, 1.221245327087670000E-015, 2.899999999999999900 ) ) ;
#129 = ADVANCED_FACE ( 'NONE', ( #137 ), #75, .T. ) ;
#130 = CYLINDRICAL_SURFACE ( 'NONE', #164, 6.349999999999999600 ) ;
#131 = APPLICATION_PROTOCOL_DEFINITION ( 'international standard', 'config_control_design', 1994, #82 ) ;
#132 = MANIFOLD_SOLID_BREP ( 'Imported1', #79 ) ;
#133 = DIRECTION ( 'NONE',  ( 0.0000000000000000000, 0.0000000000000000000, 1.000000000000000000 ) ) ;
#134 = CARTESIAN_POINT ( 'NONE',  ( 6.417273778992987200, 2.161630087139825700, -0.3507259323040715100 ) ) ;
#135 = COORDINATED_UNIVERSAL_TIME_OFFSET ( 2, 0, .AHEAD. ) ;
#136 = AXIS2_PLACEMENT_3D ( 'NONE', #158, #133, #35 ) ;
#137 = FACE_OUTER_BOUND ( 'NONE', #76, .T. ) ;
#138 = DIRECTION ( 'NONE',  ( 1.000000000000000000, 0.0000000000000000000, 0.0000000000000000000 ) ) ;
#139 = PRODUCT ( '112-0115E BK7 pl-cv 12.7 F-75', '112-0115E BK7 pl-cv 12.7 F-75', '', ( #167 ) ) ;
#140 = CALENDAR_DATE ( 2019, 14, 1 ) ;
#141 =( BOUNDED_SURFACE ( )  B_SPLINE_SURFACE ( 3, 3, ( 
 ( #217, #87, #175, #22 ),
 ( #215, #104, #57, #134 ),
 ( #120, #17, #156, #74 ),
 ( #72, #232, #121, #181 ) ),
 .UNSPECIFIED., .F., .F., .F. ) 
 B_SPLINE_SURFACE_WITH_KNOTS ( ( 4, 4 ),
 ( 4, 4 ),
 ( 0.0000000000000000000, 1.000000000000000000 ),
 ( 0.0000000000000000000, 1.000000000000000000 ),
 .UNSPECIFIED. ) 
 GEOMETRIC_REPRESENTATION_ITEM ( )  RATIONAL_B_SPLINE_SURFACE ( (
 ( 1.000000000000000000, 0.9977337252829635600, 0.9977337252829635600, 1.000000000000000000),
 ( 0.9908422871792379500, 0.9885967663552330800, 0.9885967663552330800, 0.9908422871792379500),
 ( 0.9908422871792379500, 0.9885967663552330800, 0.9885967663552330800, 0.9908422871792379500),
 ( 1.000000000000000000, 0.9977337252829635600, 0.9977337252829635600, 1.000000000000000000) ) ) 
 REPRESENTATION_ITEM ( '' )  SURFACE ( )  );
#142 = CARTESIAN_POINT ( 'NONE',  ( -6.300009004230995300, -6.425503498731265100, -1.055148417064701000 ) ) ;
#143 = PERSON ( 'UNSPECIFIED', 'UNSPECIFIED', 'UNSPECIFIED', ('UNSPECIFIED'), ('UNSPECIFIED'), ('UNSPECIFIED') ) ;
#144 = LOCAL_TIME ( 13, 14, 58.00000000000000000, #100 ) ;
#145 = EDGE_CURVE ( 'NONE', #155, #90, #234, .T. ) ;
#146 = ORIENTED_EDGE ( 'NONE', *, *, #102, .T. ) ;
#147 = CARTESIAN_POINT ( 'NONE',  ( 0.0000000000000000000, 0.0000000000000000000, 0.0000000000000000000 ) ) ;
#148 = CALENDAR_DATE ( 2019, 14, 1 ) ;
#149 = ADVANCED_FACE ( 'NONE', ( #71 ), #130, .T. ) ;
#150 = PERSON_AND_ORGANIZATION_ROLE ( 'design_owner' ) ;
#151 = APPROVAL_STATUS ( 'not_yet_approved' ) ;
#152 = ORIENTED_EDGE ( 'NONE', *, *, #73, .T. ) ;
#153 = CARTESIAN_POINT ( 'NONE',  ( 2.498001805406600200E-016, 1.221245327087670000E-015, -0.5217835224199090000 ) ) ;
#154 = AXIS2_PLACEMENT_3D ( 'NONE', #176, #197, #91 ) ;
#155 = VERTEX_POINT ( 'NONE', #214 ) ;
#156 = CARTESIAN_POINT ( 'NONE',  ( 4.295213108521320300, -2.161630087139837700, 0.002532193235093584600 ) ) ;
#157 = DIRECTION ( 'NONE',  ( 1.000000000000000000, 0.0000000000000000000, 0.0000000000000000000 ) ) ;
#158 = CARTESIAN_POINT ( 'NONE',  ( 2.498001805406600200E-016, 1.221245327087670000E-015, -0.5217835224199090000 ) ) ;
#159 = EDGE_CURVE ( 'NONE', #90, #209, #112, .T. ) ;
#160 = ORIENTED_EDGE ( 'NONE', *, *, #145, .F. ) ;
#161 = CARTESIAN_POINT ( 'NONE',  ( -6.417273778993006800, -2.161630087139837300, -0.3507259323040825500 ) ) ;
#162 = CARTESIAN_POINT ( 'NONE',  ( -4.216725386932407300, -6.425503498731264300, -0.7083454835511214800 ) ) ;
#163 = ORIENTED_EDGE ( 'NONE', *, *, #159, .T. ) ;
#164 = AXIS2_PLACEMENT_3D ( 'NONE', #19, #101, #2 ) ;
#165 = EDGE_LOOP ( 'NONE', ( #222, #85, #70 ) ) ;
#166 = CARTESIAN_POINT ( 'NONE',  ( 6.349999999999999600, 1.221245327087670000E-015, -0.5217835224199090000 ) ) ;
#167 = MECHANICAL_CONTEXT ( 'NONE', #69, 'mechanical' ) ;
#168 = DIRECTION ( 'NONE',  ( -0.0000000000000000000, -0.0000000000000000000, -1.000000000000000000 ) ) ;
#169 = CYLINDRICAL_SURFACE ( 'NONE', #225, 6.349999999999999600 ) ;
#170 = DESIGN_CONTEXT ( 'detailed design', #82, 'design' ) ;
#171 = AXIS2_PLACEMENT_3D ( 'NONE', #153, #53, #88 ) ;
#172 = ADVANCED_BREP_SHAPE_REPRESENTATION ( '112-0115E BK7 pl-cv 12.7 F-75', ( #132, #178 ), #226 ) ;
#173 = AXIS2_PLACEMENT_3D ( 'NONE', #20, #40, #157 ) ;
#174 = CALENDAR_DATE ( 2019, 14, 1 ) ;
#175 = CARTESIAN_POINT ( 'NONE',  ( 4.216725386932384200, 6.425503498731253600, -0.7083454835511103800 ) ) ;
#176 = CARTESIAN_POINT ( 'NONE',  ( 0.0000000000000000000, 13.15799999999999900, 2.899999999999999900 ) ) ;
#177 = CARTESIAN_POINT ( 'NONE',  ( -1.065814103640150000E-014, -6.350000000000010300, -0.5217835224199133300 ) ) ;
#178 = AXIS2_PLACEMENT_3D ( 'NONE', #147, #191, #47 ) ;
#179 = LOCAL_TIME ( 13, 14, 58.00000000000000000, #135 ) ;
#180 = FACE_OUTER_BOUND ( 'NONE', #105, .T. ) ;
#181 = CARTESIAN_POINT ( 'NONE',  ( 6.300009004230975800, -6.425503498731266000, -1.055148417064697900 ) ) ;
#182 = LOCAL_TIME ( 13, 14, 58.00000000000000000, #192 ) ;
#183 = CC_DESIGN_DATE_AND_TIME_ASSIGNMENT ( #194, #115, ( #58 ) ) ;
#184 = DATE_AND_TIME ( #221, #49 ) ;
#185 = LINE ( 'NONE', #1, #44 ) ;
#186 = CALENDAR_DATE ( 2019, 14, 1 ) ;
#187 =( LENGTH_UNIT ( ) NAMED_UNIT ( * ) SI_UNIT ( .MILLI., .METRE. ) );
#188 = PERSON_AND_ORGANIZATION ( #143, #52 ) ;
#189 = ORIENTED_EDGE ( 'NONE', *, *, #159, .F. ) ;
#190 = APPROVAL ( #151, 'UNSPECIFIED' ) ;
#191 = DIRECTION ( 'NONE',  ( 0.0000000000000000000, 0.0000000000000000000, 1.000000000000000000 ) ) ;
#192 = COORDINATED_UNIVERSAL_TIME_OFFSET ( 2, 0, .AHEAD. ) ;
#193 = APPROVAL ( #13, 'UNSPECIFIED' ) ;
#194 = DATE_AND_TIME ( #148, #202 ) ;
#195 = DIRECTION ( 'NONE',  ( 0.0000000000000000000, 0.0000000000000000000, 1.000000000000000000 ) ) ;
#196 = PRODUCT_RELATED_PRODUCT_CATEGORY ( 'detail', '', ( #139 ) ) ;
#197 = DIRECTION ( 'NONE',  ( 0.0000000000000000000, 0.0000000000000000000, 1.000000000000000000 ) ) ;
#198 = CARTESIAN_POINT ( 'NONE',  ( -6.417273778993005900, 2.161630087139826200, -0.3507259323040747300 ) ) ;
#199 = CARTESIAN_POINT ( 'NONE',  ( -6.300009004230993500, 6.425503498731255400, -1.055148417064694100 ) ) ;
#200 = EDGE_CURVE ( 'NONE', #33, #9, #185, .T. ) ;
#201 = CARTESIAN_POINT ( 'NONE',  ( -4.216725386932406400, 6.425503498731254500, -0.7083454835511142600 ) ) ;
#202 = LOCAL_TIME ( 13, 14, 58.00000000000000000, #97 ) ;
#203 = CC_DESIGN_PERSON_AND_ORGANIZATION_ASSIGNMENT ( #5, #32, ( #68 ) ) ;
#204 = APPROVAL_ROLE ( '' ) ;
#205 = CC_DESIGN_APPROVAL ( #193, ( #68 ) ) ;
#206 = ORIENTED_EDGE ( 'NONE', *, *, #200, .F. ) ;
#207 = ADVANCED_FACE ( 'NONE', ( #25 ), #141, .F. ) ;
#208 = PERSON_AND_ORGANIZATION_ROLE ( 'creator' ) ;
#209 = VERTEX_POINT ( 'NONE', #177 ) ;
#210 = AXIS2_PLACEMENT_3D ( 'NONE', #230, #103, #235 ) ;
#211 =( BOUNDED_SURFACE ( )  B_SPLINE_SURFACE ( 3, 3, ( 
 ( #199, #201, #6, #60 ),
 ( #198, #106, #23, #41 ),
 ( #161, #107, #3, #125 ),
 ( #142, #162, #116, #114 ) ),
 .UNSPECIFIED., .F., .F., .F. ) 
 B_SPLINE_SURFACE_WITH_KNOTS ( ( 4, 4 ),
 ( 4, 4 ),
 ( 0.0000000000000000000, 1.000000000000000000 ),
 ( 0.0000000000000000000, 1.000000000000000000 ),
 .UNSPECIFIED. ) 
 GEOMETRIC_REPRESENTATION_ITEM ( )  RATIONAL_B_SPLINE_SURFACE ( (
 ( 1.000000000000000000, 0.9977337252829635600, 0.9977337252829635600, 1.000000000000000000),
 ( 0.9908422871792379500, 0.9885967663552330800, 0.9885967663552330800, 0.9908422871792379500),
 ( 0.9908422871792379500, 0.9885967663552330800, 0.9885967663552330800, 0.9908422871792379500),
 ( 1.000000000000000000, 0.9977337252829635600, 0.9977337252829635600, 1.000000000000000000) ) ) 
 REPRESENTATION_ITEM ( '' )  SURFACE ( )  );
#212 = DATE_AND_TIME ( #140, #182 ) ;
#213 = VERTEX_POINT ( 'NONE', #24 ) ;
#214 = CARTESIAN_POINT ( 'NONE',  ( -1.065814103640150000E-014, 6.349999999999999600, -0.5217835224199098800 ) ) ;
#215 = CARTESIAN_POINT ( 'NONE',  ( -1.065814103640150100E-014, 2.161630087139825300, 0.1797637390617385600 ) ) ;
#216 = CC_DESIGN_DATE_AND_TIME_ASSIGNMENT ( #94, #51, ( #231 ) ) ;
#217 = CARTESIAN_POINT ( 'NONE',  ( -1.065814103640150000E-014, 6.425503498731254500, -0.5343525430914625200 ) ) ;
#218 = PERSON_AND_ORGANIZATION ( #143, #52 ) ;
#219 = EDGE_LOOP ( 'NONE', ( #78, #93, #117, #152, #206 ) ) ;
#220 = CARTESIAN_POINT ( 'NONE',  ( -6.349999999999999600, 1.998896044546239400E-015, -0.5217835224199090000 ) ) ;
#221 = CALENDAR_DATE ( 2019, 14, 1 ) ;
#222 = ORIENTED_EDGE ( 'NONE', *, *, #118, .F. ) ;
#223 = CC_DESIGN_PERSON_AND_ORGANIZATION_ASSIGNMENT ( #34, #208, ( #68 ) ) ;
#224 = SHAPE_DEFINITION_REPRESENTATION ( #42, #172 ) ;
#225 = AXIS2_PLACEMENT_3D ( 'NONE', #27, #46, #45 ) ;
#226 =( GEOMETRIC_REPRESENTATION_CONTEXT ( 3 ) GLOBAL_UNCERTAINTY_ASSIGNED_CONTEXT ( ( #110 ) ) GLOBAL_UNIT_ASSIGNED_CONTEXT ( ( #187, #96, #28 ) ) REPRESENTATION_CONTEXT ( 'NONE', 'WORKASPACE' ) );
#227 = PERSON_AND_ORGANIZATION ( #143, #52 ) ;
#228 = ADVANCED_FACE ( 'NONE', ( #180 ), #211, .F. ) ;
#229 = APPROVAL ( #81, 'UNSPECIFIED' ) ;
#230 = CARTESIAN_POINT ( 'NONE',  ( 2.498001805406600200E-016, 1.221245327087670000E-015, -0.5217835224199090000 ) ) ;
#231 = SECURITY_CLASSIFICATION ( '', '', #30 ) ;
#232 = CARTESIAN_POINT ( 'NONE',  ( 2.111952391697853300, -6.425503498731265100, -0.5343525430914694000 ) ) ;
#233 = PERSON_AND_ORGANIZATION ( #143, #52 ) ;
#234 = CIRCLE ( 'NONE', #210, 6.349999999999999600 ) ;
#235 = DIRECTION ( 'NONE',  ( 1.000000000000000000, 0.0000000000000000000, 0.0000000000000000000 ) ) ;
ENDSEC;
END-ISO-10303-21;
