ISO-10303-21;
HEADER;
FILE_DESCRIPTION (( 'STEP AP203' ),
    '1' );
FILE_NAME ('112-0112E BK7 pl-cv 12.7 F-60.STEP',
    '2019-01-14T11:02:03',
    ( '' ),
    ( '' ),
    'SwSTEP 2.0',
    'SolidWorks 2017',
    '' );
FILE_SCHEMA (( 'CONFIG_CONTROL_DESIGN' ));
ENDSEC;

DATA;
#1 = AXIS2_PLACEMENT_3D ( 'NONE', #205, #115, #10 ) ;
#2 = CARTESIAN_POINT ( 'NONE',  ( 6.349999999999999600, 1.221245327087670000E-015, 2.399999999999999900 ) ) ;
#3 = PERSON_AND_ORGANIZATION_ROLE ( 'creator' ) ;
#4 = DIRECTION ( 'NONE',  ( 1.000000000000000000, 0.0000000000000000000, -0.0000000000000000000 ) ) ;
#5 = ADVANCED_BREP_SHAPE_REPRESENTATION ( '112-0112E BK7 pl-cv 12.7 F-60', ( #104, #129 ), #63 ) ;
#6 = APPROVAL_STATUS ( 'not_yet_approved' ) ;
#7 = PERSON_AND_ORGANIZATION ( #139, #64 ) ;
#8 = PERSON_AND_ORGANIZATION ( #139, #64 ) ;
#9 = EDGE_LOOP ( 'NONE', ( #158, #151, #125, #165, #14 ) ) ;
#10 = DIRECTION ( 'NONE',  ( 1.000000000000000000, 0.0000000000000000000, 0.0000000000000000000 ) ) ;
#11 = AXIS2_PLACEMENT_3D ( 'NONE', #145, #39, #147 ) ;
#12 = VERTEX_POINT ( 'NONE', #154 ) ;
#13 = LOCAL_TIME ( 13, 2, 3.000000000000000000, #211 ) ;
#14 = ORIENTED_EDGE ( 'NONE', *, *, #106, .T. ) ;
#15 = CARTESIAN_POINT ( 'NONE',  ( -9.646398151929634500E-015, -6.425105021158542800, -0.6704938386993992700 ) ) ;
#16 = CARTESIAN_POINT ( 'NONE',  ( -4.316265772575063900, 2.172912566779895200, 0.003486183661264717400 ) ) ;
#17 = CARTESIAN_POINT ( 'NONE',  ( -1.734723475976807100E-014, -6.425105021158542800, -0.6704938386993963800 ) ) ;
#18 = UNCERTAINTY_MEASURE_WITH_UNIT (LENGTH_MEASURE( 1.000000000000000100E-005 ), #59, 'distance_accuracy_value', 'NONE');
#19 = CARTESIAN_POINT ( 'NONE',  ( -4.316265772575064800, -2.172912566779889000, 0.003486183661264284100 ) ) ;
#20 = PERSON_AND_ORGANIZATION ( #139, #64 ) ;
#21 = LINE ( 'NONE', #169, #62 ) ;
#22 = CARTESIAN_POINT ( 'NONE',  ( 4.192719832308248400, 6.425105021158544500, -0.8873719255342711300 ) ) ;
#23 = APPROVAL_PERSON_ORGANIZATION ( #7, #178, #128 ) ;
#24 = DIRECTION ( 'NONE',  ( 0.0000000000000000000, 0.0000000000000000000, 1.000000000000000000 ) ) ;
#25 = PLANE ( 'NONE',  #34 ) ;
#26 = DIRECTION ( 'NONE',  ( 1.000000000000000000, 0.0000000000000000000, 0.0000000000000000000 ) ) ;
#27 = VERTEX_POINT ( 'NONE', #226 ) ;
#28 = PERSON_AND_ORGANIZATION ( #139, #64 ) ;
#29 = CIRCLE ( 'NONE', #219, 6.349999999999999600 ) ;
#30 = ADVANCED_FACE ( 'NONE', ( #191 ), #181, .T. ) ;
#31 = DATE_AND_TIME ( #202, #163 ) ;
#32 = PERSON_AND_ORGANIZATION ( #139, #64 ) ;
#33 = ORIENTED_EDGE ( 'NONE', *, *, #95, .F. ) ;
#34 = AXIS2_PLACEMENT_3D ( 'NONE', #184, #41, #4 ) ;
#35 = CARTESIAN_POINT ( 'NONE',  ( 2.101969175349871000, 6.425105021158544500, -0.6704938386993993800 ) ) ;
#36 = DIRECTION ( 'NONE',  ( 0.0000000000000000000, 0.0000000000000000000, 1.000000000000000000 ) ) ;
#37 = CARTESIAN_POINT ( 'NONE',  ( 6.249934683854759100, 6.425105021158543700, -1.318813078760897400 ) ) ;
#38 = PERSON_AND_ORGANIZATION ( #139, #64 ) ;
#39 = DIRECTION ( 'NONE',  ( 0.0000000000000000000, 0.0000000000000000000, 1.000000000000000000 ) ) ;
#40 = VERTEX_POINT ( 'NONE', #171 ) ;
#41 = DIRECTION ( 'NONE',  ( 0.0000000000000000000, 0.0000000000000000000, 1.000000000000000000 ) ) ;
#42 = CC_DESIGN_APPROVAL ( #132, ( #157 ) ) ;
#43 = APPROVAL_STATUS ( 'not_yet_approved' ) ;
#44 = DATE_AND_TIME ( #88, #133 ) ;
#45 =( BOUNDED_SURFACE ( )  B_SPLINE_SURFACE ( 3, 3, ( 
 ( #54, #35, #22, #37 ),
 ( #196, #119, #233, #198 ),
 ( #210, #197, #89, #123 ),
 ( #15, #70, #136, #162 ) ),
 .UNSPECIFIED., .F., .F., .F. ) 
 B_SPLINE_SURFACE_WITH_KNOTS ( ( 4, 4 ),
 ( 4, 4 ),
 ( 0.0000000000000000000, 1.000000000000000000 ),
 ( 0.0000000000000000000, 1.000000000000000000 ),
 .UNSPECIFIED. ) 
 GEOMETRIC_REPRESENTATION_ITEM ( )  RATIONAL_B_SPLINE_SURFACE ( (
 ( 1.000000000000000000, 0.9964419020275334700, 0.9964419020275334700, 1.000000000000000000),
 ( 0.9856363787767908900, 0.9821293879758759000, 0.9821293879758759000, 0.9856363787767908900),
 ( 0.9856363787767908900, 0.9821293879758759000, 0.9821293879758759000, 0.9856363787767908900),
 ( 1.000000000000000000, 0.9964419020275334700, 0.9964419020275334700, 1.000000000000000000) ) ) 
 REPRESENTATION_ITEM ( '' )  SURFACE ( )  );
#46 = CC_DESIGN_PERSON_AND_ORGANIZATION_ASSIGNMENT ( #61, #97, ( #86 ) ) ;
#47 = ADVANCED_FACE ( 'NONE', ( #76 ), #45, .F. ) ;
#48 = ORIENTED_EDGE ( 'NONE', *, *, #49, .F. ) ;
#49 = EDGE_CURVE ( 'NONE', #40, #144, #174, .T. ) ;
#50 = CARTESIAN_POINT ( 'NONE',  ( -2.163907432273073400, -2.172912566779889400, 0.2267549687142264000 ) ) ;
#51 = PRODUCT ( '112-0112E BK7 pl-cv 12.7 F-60', '112-0112E BK7 pl-cv 12.7 F-60', '', ( #94 ) ) ;
#52 = CIRCLE ( 'NONE', #168, 6.349999999999999600 ) ;
#53 = CARTESIAN_POINT ( 'NONE',  ( -6.434100115366045500, -2.172912566779889000, -0.4406681498104207400 ) ) ;
#54 = CARTESIAN_POINT ( 'NONE',  ( -6.646648754642733800E-015, 6.425105021158545400, -0.6704938386993992700 ) ) ;
#55 = CARTESIAN_POINT ( 'NONE',  ( -6.434100115366044600, 2.172912566779895200, -0.4406681498104203000 ) ) ;
#56 = ORIENTED_EDGE ( 'NONE', *, *, #209, .T. ) ;
#57 = DATE_TIME_ROLE ( 'creation_date' ) ;
#58 = EDGE_CURVE ( 'NONE', #27, #12, #29, .T. ) ;
#59 =( LENGTH_UNIT ( ) NAMED_UNIT ( * ) SI_UNIT ( .MILLI., .METRE. ) );
#60 = APPLICATION_PROTOCOL_DEFINITION ( 'international standard', 'config_control_design', 1994, #216 ) ;
#61 = PERSON_AND_ORGANIZATION ( #139, #64 ) ;
#62 = VECTOR ( 'NONE', #24, 1000.000000000000000 ) ;
#63 =( GEOMETRIC_REPRESENTATION_CONTEXT ( 3 ) GLOBAL_UNCERTAINTY_ASSIGNED_CONTEXT ( ( #18 ) ) GLOBAL_UNIT_ASSIGNED_CONTEXT ( ( #59, #200, #201 ) ) REPRESENTATION_CONTEXT ( 'NONE', 'WORKASPACE' ) );
#64 = ORGANIZATION ( 'UNSPECIFIED', 'UNSPECIFIED', '' ) ;
#65 = EDGE_LOOP ( 'NONE', ( #33, #56, #48 ) ) ;
#66 = ORIENTED_EDGE ( 'NONE', *, *, #224, .T. ) ;
#67 = CARTESIAN_POINT ( 'NONE',  ( 2.498001805406600200E-016, 1.221245327087670000E-015, 2.399999999999999900 ) ) ;
#68 = CARTESIAN_POINT ( 'NONE',  ( -4.192719832308248400, 6.425105021158546300, -0.8873719255342694700 ) ) ;
#69 = CC_DESIGN_DATE_AND_TIME_ASSIGNMENT ( #71, #57, ( #86 ) ) ;
#70 = CARTESIAN_POINT ( 'NONE',  ( 2.101969175349868400, -6.425105021158542800, -0.6704938386993993800 ) ) ;
#71 = DATE_AND_TIME ( #117, #13 ) ;
#72 = CARTESIAN_POINT ( 'NONE',  ( -9.629404201361235400E-015, -6.350000000000005000, -0.6547427386539234100 ) ) ;
#73 = DIRECTION ( 'NONE',  ( 1.000000000000000000, 0.0000000000000000000, 0.0000000000000000000 ) ) ;
#74 = AXIS2_PLACEMENT_3D ( 'NONE', #207, #36, #91 ) ;
#75 = DIRECTION ( 'NONE',  ( -0.0000000000000000000, -0.0000000000000000000, -1.000000000000000000 ) ) ;
#76 = FACE_OUTER_BOUND ( 'NONE', #160, .T. ) ;
#77 = COORDINATED_UNIVERSAL_TIME_OFFSET ( 2, 0, .AHEAD. ) ;
#78 = SECURITY_CLASSIFICATION_LEVEL ( 'unclassified' ) ;
#79 = APPROVAL_ROLE ( '' ) ;
#80 = AXIS2_PLACEMENT_3D ( 'NONE', #180, #110, #26 ) ;
#81 = CARTESIAN_POINT ( 'NONE',  ( 6.349999999999999600, 1.221245327087670000E-015, -0.6547427386539209600 ) ) ;
#82 = VECTOR ( 'NONE', #105, 1000.000000000000000 ) ;
#83 = ADVANCED_FACE ( 'NONE', ( #138 ), #98, .F. ) ;
#84 = CC_DESIGN_APPROVAL ( #178, ( #155 ) ) ;
#85 = ORIENTED_EDGE ( 'NONE', *, *, #58, .F. ) ;
#86 = PRODUCT_DEFINITION ( 'UNKNOWN', '', #157, #135 ) ;
#87 = DIRECTION ( 'NONE',  ( 1.000000000000000000, 0.0000000000000000000, 0.0000000000000000000 ) ) ;
#88 = CALENDAR_DATE ( 2019, 14, 1 ) ;
#89 = CARTESIAN_POINT ( 'NONE',  ( 4.316265772575062200, -2.172912566779891200, 0.003486183661262874700 ) ) ;
#90 = CARTESIAN_POINT ( 'NONE',  ( 2.498001805406600200E-016, 1.221245327087670000E-015, -0.6547427386539209600 ) ) ;
#91 = DIRECTION ( 'NONE',  ( 1.000000000000000000, 0.0000000000000000000, 0.0000000000000000000 ) ) ;
#92 = CARTESIAN_POINT ( 'NONE',  ( 0.0000000000000000000, 0.0000000000000000000, 0.0000000000000000000 ) ) ;
#93 = APPLICATION_CONTEXT ( 'configuration controlled 3d designs of mechanical parts and assemblies' ) ;
#94 = MECHANICAL_CONTEXT ( 'NONE', #216, 'mechanical' ) ;
#95 = EDGE_CURVE ( 'NONE', #12, #40, #99, .T. ) ;
#96 = PERSON_AND_ORGANIZATION_ROLE ( 'design_owner' ) ;
#97 = PERSON_AND_ORGANIZATION_ROLE ( 'creator' ) ;
#98 =( BOUNDED_SURFACE ( )  B_SPLINE_SURFACE ( 3, 3, ( 
 ( #176, #68, #142, #159 ),
 ( #55, #16, #208, #122 ),
 ( #53, #19, #50, #107 ),
 ( #175, #120, #177, #17 ) ),
 .UNSPECIFIED., .F., .F., .F. ) 
 B_SPLINE_SURFACE_WITH_KNOTS ( ( 4, 4 ),
 ( 4, 4 ),
 ( 0.0000000000000000000, 1.000000000000000000 ),
 ( 0.0000000000000000000, 1.000000000000000000 ),
 .UNSPECIFIED. ) 
 GEOMETRIC_REPRESENTATION_ITEM ( )  RATIONAL_B_SPLINE_SURFACE ( (
 ( 1.000000000000000000, 0.9964419020275334700, 0.9964419020275334700, 1.000000000000000000),
 ( 0.9856363787767908900, 0.9821293879758759000, 0.9821293879758759000, 0.9856363787767908900),
 ( 0.9856363787767908900, 0.9821293879758759000, 0.9821293879758759000, 0.9856363787767908900),
 ( 1.000000000000000000, 0.9964419020275334700, 0.9964419020275334700, 1.000000000000000000) ) ) 
 REPRESENTATION_ITEM ( '' )  SURFACE ( )  );
#99 = CIRCLE ( 'NONE', #74, 6.349999999999999600 ) ;
#100 = EDGE_LOOP ( 'NONE', ( #109, #116 ) ) ;
#101 = FACE_OUTER_BOUND ( 'NONE', #100, .T. ) ;
#102 = FACE_OUTER_BOUND ( 'NONE', #9, .T. ) ;
#103 = ORIENTED_EDGE ( 'NONE', *, *, #183, .F. ) ;
#104 = MANIFOLD_SOLID_BREP ( 'Imported1', #118 ) ;
#105 = DIRECTION ( 'NONE',  ( 0.0000000000000000000, 0.0000000000000000000, 1.000000000000000000 ) ) ;
#106 = EDGE_CURVE ( 'NONE', #167, #148, #206, .T. ) ;
#107 = CARTESIAN_POINT ( 'NONE',  ( -1.647987302177966700E-014, -2.172912566779890300, 0.2267549687142270400 ) ) ;
#108 = CC_DESIGN_PERSON_AND_ORGANIZATION_ASSIGNMENT ( #20, #96, ( #51 ) ) ;
#109 = ORIENTED_EDGE ( 'NONE', *, *, #106, .F. ) ;
#110 = DIRECTION ( 'NONE',  ( 0.0000000000000000000, 0.0000000000000000000, 1.000000000000000000 ) ) ;
#111 = DIRECTION ( 'NONE',  ( 1.000000000000000000, 0.0000000000000000000, 0.0000000000000000000 ) ) ;
#112 = DIRECTION ( 'NONE',  ( 0.0000000000000000000, 0.0000000000000000000, 1.000000000000000000 ) ) ;
#113 = CYLINDRICAL_SURFACE ( 'NONE', #80, 6.349999999999999600 ) ;
#114 = ORIENTED_EDGE ( 'NONE', *, *, #58, .T. ) ;
#115 = DIRECTION ( 'NONE',  ( 0.0000000000000000000, 0.0000000000000000000, 1.000000000000000000 ) ) ;
#116 = ORIENTED_EDGE ( 'NONE', *, *, #188, .F. ) ;
#117 = CALENDAR_DATE ( 2019, 14, 1 ) ;
#118 = CLOSED_SHELL ( 'NONE', ( #83, #30, #47, #227, #153 ) ) ;
#119 = CARTESIAN_POINT ( 'NONE',  ( 2.163907432273060000, 2.172912566779893400, 0.2267549687142246000 ) ) ;
#120 = CARTESIAN_POINT ( 'NONE',  ( -4.192719832308252000, -6.425105021158541000, -0.8873719255342694700 ) ) ;
#121 = APPROVAL_PERSON_ORGANIZATION ( #28, #170, #79 ) ;
#122 = CARTESIAN_POINT ( 'NONE',  ( -1.561251128379126700E-014, 2.172912566779893900, 0.2267549687142272300 ) ) ;
#123 = CARTESIAN_POINT ( 'NONE',  ( 6.434100115366051800, -2.172912566779891200, -0.4406681498104258500 ) ) ;
#124 = PERSON_AND_ORGANIZATION_ROLE ( 'design_supplier' ) ;
#125 = ORIENTED_EDGE ( 'NONE', *, *, #183, .T. ) ;
#126 = DATE_AND_TIME ( #231, #173 ) ;
#127 = DATE_TIME_ROLE ( 'classification_date' ) ;
#128 = APPROVAL_ROLE ( '' ) ;
#129 = AXIS2_PLACEMENT_3D ( 'NONE', #92, #112, #111 ) ;
#130 = APPROVAL_DATE_TIME ( #44, #132 ) ;
#131 = LOCAL_TIME ( 13, 2, 3.000000000000000000, #77 ) ;
#132 = APPROVAL ( #6, 'UNSPECIFIED' ) ;
#133 = LOCAL_TIME ( 13, 2, 3.000000000000000000, #229 ) ;
#134 = EDGE_CURVE ( 'NONE', #27, #167, #225, .T. ) ;
#135 = DESIGN_CONTEXT ( 'detailed design', #93, 'design' ) ;
#136 = CARTESIAN_POINT ( 'NONE',  ( 4.192719832308244900, -6.425105021158542800, -0.8873719255342711300 ) ) ;
#137 = AXIS2_PLACEMENT_3D ( 'NONE', #166, #217, #222 ) ;
#138 = FACE_OUTER_BOUND ( 'NONE', #65, .T. ) ;
#139 = PERSON ( 'UNSPECIFIED', 'UNSPECIFIED', 'UNSPECIFIED', ('UNSPECIFIED'), ('UNSPECIFIED'), ('UNSPECIFIED') ) ;
#140 = CARTESIAN_POINT ( 'NONE',  ( -6.349999999999999600, 1.998896044546239400E-015, 2.399999999999999900 ) ) ;
#141 = DIRECTION ( 'NONE',  ( 0.0000000000000000000, 0.0000000000000000000, 1.000000000000000000 ) ) ;
#142 = CARTESIAN_POINT ( 'NONE',  ( -2.101969175349882100, 6.425105021158546300, -0.6704938386993972700 ) ) ;
#143 = APPROVAL_PERSON_ORGANIZATION ( #8, #132, #179 ) ;
#144 = VERTEX_POINT ( 'NONE', #72 ) ;
#145 = CARTESIAN_POINT ( 'NONE',  ( 2.498001805406600200E-016, 1.221245327087670000E-015, -0.6547427386539209600 ) ) ;
#146 = APPLICATION_PROTOCOL_DEFINITION ( 'international standard', 'config_control_design', 1994, #93 ) ;
#147 = DIRECTION ( 'NONE',  ( 1.000000000000000000, 0.0000000000000000000, 0.0000000000000000000 ) ) ;
#148 = VERTEX_POINT ( 'NONE', #140 ) ;
#149 = PRODUCT_DEFINITION_SHAPE ( 'NONE', 'NONE',  #86 ) ;
#150 = COORDINATED_UNIVERSAL_TIME_OFFSET ( 2, 0, .AHEAD. ) ;
#151 = ORIENTED_EDGE ( 'NONE', *, *, #49, .T. ) ;
#152 = CC_DESIGN_APPROVAL ( #170, ( #86 ) ) ;
#153 = ADVANCED_FACE ( 'NONE', ( #101 ), #25, .T. ) ;
#154 = CARTESIAN_POINT ( 'NONE',  ( -6.664719793862304800E-015, 6.350000000000005900, -0.6547427386539234100 ) ) ;
#155 = SECURITY_CLASSIFICATION ( '', '', #78 ) ;
#156 = APPROVAL_DATE_TIME ( #31, #170 ) ;
#157 = PRODUCT_DEFINITION_FORMATION_WITH_SPECIFIED_SOURCE ( 'ANY', '', #51, .NOT_KNOWN. ) ;
#158 = ORIENTED_EDGE ( 'NONE', *, *, #224, .F. ) ;
#159 = CARTESIAN_POINT ( 'NONE',  ( -1.387778780781445700E-014, 6.425105021158545400, -0.6704938386993966000 ) ) ;
#160 = EDGE_LOOP ( 'NONE', ( #230, #85, #103 ) ) ;
#161 = CC_DESIGN_PERSON_AND_ORGANIZATION_ASSIGNMENT ( #172, #3, ( #157 ) ) ;
#162 = CARTESIAN_POINT ( 'NONE',  ( 6.249934683854755600, -6.425105021158543700, -1.318813078760897400 ) ) ;
#163 = LOCAL_TIME ( 13, 2, 3.000000000000000000, #150 ) ;
#164 = CARTESIAN_POINT ( 'NONE',  ( 2.498001805406600200E-016, 1.221245327087670000E-015, -0.6547427386539209600 ) ) ;
#165 = ORIENTED_EDGE ( 'NONE', *, *, #134, .T. ) ;
#166 = CARTESIAN_POINT ( 'NONE',  ( -7.105427357601000300E-015, 0.0000000000000000000, -31.12000000000000100 ) ) ;
#167 = VERTEX_POINT ( 'NONE', #2 ) ;
#168 = AXIS2_PLACEMENT_3D ( 'NONE', #221, #75, #73 ) ;
#169 = CARTESIAN_POINT ( 'NONE',  ( -6.349999999999999600, 1.998896044546239400E-015, -0.6547427386539209600 ) ) ;
#170 = APPROVAL ( #185, 'UNSPECIFIED' ) ;
#171 = CARTESIAN_POINT ( 'NONE',  ( -6.349999999999999600, 1.998896044546239400E-015, -0.6547427386539209600 ) ) ;
#172 = PERSON_AND_ORGANIZATION ( #139, #64 ) ;
#173 = LOCAL_TIME ( 13, 2, 3.000000000000000000, #223 ) ;
#174 = CIRCLE ( 'NONE', #203, 6.349999999999999600 ) ;
#175 = CARTESIAN_POINT ( 'NONE',  ( -6.249934683854752000, -6.425105021158541000, -1.318813078760892300 ) ) ;
#176 = CARTESIAN_POINT ( 'NONE',  ( -6.249934683854748500, 6.425105021158547200, -1.318813078760892300 ) ) ;
#177 = CARTESIAN_POINT ( 'NONE',  ( -2.101969175349885700, -6.425105021158541000, -0.6704938386993971600 ) ) ;
#178 = APPROVAL ( #43, 'UNSPECIFIED' ) ;
#179 = APPROVAL_ROLE ( '' ) ;
#180 = CARTESIAN_POINT ( 'NONE',  ( 2.498001805406600200E-016, 1.221245327087670000E-015, -0.6547427386539209600 ) ) ;
#181 = CYLINDRICAL_SURFACE ( 'NONE', #1, 6.349999999999999600 ) ;
#182 = CALENDAR_DATE ( 2019, 14, 1 ) ;
#183 = EDGE_CURVE ( 'NONE', #144, #27, #234, .T. ) ;
#184 = CARTESIAN_POINT ( 'NONE',  ( 0.0000000000000000000, 13.15799999999999900, 2.399999999999999900 ) ) ;
#185 = APPROVAL_STATUS ( 'not_yet_approved' ) ;
#186 = EDGE_LOOP ( 'NONE', ( #114, #195, #66, #204, #193 ) ) ;
#187 = DATE_AND_TIME ( #182, #131 ) ;
#188 = EDGE_CURVE ( 'NONE', #148, #167, #52, .T. ) ;
#189 = CIRCLE ( 'NONE', #137, 31.12000000000000100 ) ;
#190 = CC_DESIGN_PERSON_AND_ORGANIZATION_ASSIGNMENT ( #32, #124, ( #157 ) ) ;
#191 = FACE_OUTER_BOUND ( 'NONE', #186, .T. ) ;
#192 = CC_DESIGN_SECURITY_CLASSIFICATION ( #155, ( #157 ) ) ;
#193 = ORIENTED_EDGE ( 'NONE', *, *, #134, .F. ) ;
#194 = DIRECTION ( 'NONE',  ( 1.000000000000000000, 0.0000000000000000000, 0.0000000000000000000 ) ) ;
#195 = ORIENTED_EDGE ( 'NONE', *, *, #95, .T. ) ;
#196 = CARTESIAN_POINT ( 'NONE',  ( -7.669957104831172200E-015, 2.172912566779893400, 0.2267549687142245400 ) ) ;
#197 = CARTESIAN_POINT ( 'NONE',  ( 2.163907432273058700, -2.172912566779890800, 0.2267549687142241800 ) ) ;
#198 = CARTESIAN_POINT ( 'NONE',  ( 6.434100115366052600, 2.172912566779892100, -0.4406681498104254000 ) ) ;
#199 = CC_DESIGN_DATE_AND_TIME_ASSIGNMENT ( #187, #127, ( #155 ) ) ;
#200 =( NAMED_UNIT ( * ) PLANE_ANGLE_UNIT ( ) SI_UNIT ( $, .RADIAN. ) );
#201 =( NAMED_UNIT ( * ) SI_UNIT ( $, .STERADIAN. ) SOLID_ANGLE_UNIT ( ) );
#202 = CALENDAR_DATE ( 2019, 14, 1 ) ;
#203 = AXIS2_PLACEMENT_3D ( 'NONE', #90, #141, #87 ) ;
#204 = ORIENTED_EDGE ( 'NONE', *, *, #188, .T. ) ;
#205 = CARTESIAN_POINT ( 'NONE',  ( 2.498001805406600200E-016, 1.221245327087670000E-015, -0.6547427386539209600 ) ) ;
#206 = CIRCLE ( 'NONE', #232, 6.349999999999999600 ) ;
#207 = CARTESIAN_POINT ( 'NONE',  ( 2.498001805406600200E-016, 1.221245327087670000E-015, -0.6547427386539209600 ) ) ;
#208 = CARTESIAN_POINT ( 'NONE',  ( -2.163907432273072500, 2.172912566779894700, 0.2267549687142266000 ) ) ;
#209 = EDGE_CURVE ( 'NONE', #12, #144, #189, .T. ) ;
#210 = CARTESIAN_POINT ( 'NONE',  ( -8.684445294687990700E-015, -2.172912566779890800, 0.2267549687142241300 ) ) ;
#211 = COORDINATED_UNIVERSAL_TIME_OFFSET ( 2, 0, .AHEAD. ) ;
#212 = DIRECTION ( 'NONE',  ( 0.0000000000000000000, 0.0000000000000000000, 1.000000000000000000 ) ) ;
#213 = APPROVAL_DATE_TIME ( #126, #178 ) ;
#214 = DIRECTION ( 'NONE',  ( -0.0000000000000000000, -0.0000000000000000000, -1.000000000000000000 ) ) ;
#215 = PRODUCT_RELATED_PRODUCT_CATEGORY ( 'detail', '', ( #51 ) ) ;
#216 = APPLICATION_CONTEXT ( 'configuration controlled 3d designs of mechanical parts and assemblies' ) ;
#217 = DIRECTION ( 'NONE',  ( 1.000000000000000000, -2.334397171258999800E-016, 3.419090247868619700E-017 ) ) ;
#218 = SHAPE_DEFINITION_REPRESENTATION ( #149, #5 ) ;
#219 = AXIS2_PLACEMENT_3D ( 'NONE', #164, #212, #235 ) ;
#220 = PERSON_AND_ORGANIZATION_ROLE ( 'classification_officer' ) ;
#221 = CARTESIAN_POINT ( 'NONE',  ( 2.498001805406600200E-016, 1.221245327087670000E-015, 2.399999999999999900 ) ) ;
#222 = DIRECTION ( 'NONE',  ( 2.334397171259000300E-016, 1.000000000000000000, 0.0000000000000000000 ) ) ;
#223 = COORDINATED_UNIVERSAL_TIME_OFFSET ( 2, 0, .AHEAD. ) ;
#224 = EDGE_CURVE ( 'NONE', #40, #148, #21, .T. ) ;
#225 = LINE ( 'NONE', #81, #82 ) ;
#226 = CARTESIAN_POINT ( 'NONE',  ( 6.349999999999999600, 1.221245327087670000E-015, -0.6547427386539209600 ) ) ;
#227 = ADVANCED_FACE ( 'NONE', ( #102 ), #113, .T. ) ;
#228 = CC_DESIGN_PERSON_AND_ORGANIZATION_ASSIGNMENT ( #38, #220, ( #155 ) ) ;
#229 = COORDINATED_UNIVERSAL_TIME_OFFSET ( 2, 0, .AHEAD. ) ;
#230 = ORIENTED_EDGE ( 'NONE', *, *, #209, .F. ) ;
#231 = CALENDAR_DATE ( 2019, 14, 1 ) ;
#232 = AXIS2_PLACEMENT_3D ( 'NONE', #67, #214, #194 ) ;
#233 = CARTESIAN_POINT ( 'NONE',  ( 4.316265772575062200, 2.172912566779893000, 0.003486183661263308800 ) ) ;
#234 = CIRCLE ( 'NONE', #11, 6.349999999999999600 ) ;
#235 = DIRECTION ( 'NONE',  ( 1.000000000000000000, 0.0000000000000000000, 0.0000000000000000000 ) ) ;
ENDSEC;
END-ISO-10303-21;
