ISO-10303-21;
HEADER;
FILE_DESCRIPTION (( 'STEP AP203' ),
    '1' );
FILE_NAME ('112-0109E BK7 pl-cv 12.7 F-50.STEP',
    '2019-01-14T10:38:21',
    ( '' ),
    ( '' ),
    'SwSTEP 2.0',
    'SolidWorks 2017',
    '' );
FILE_SCHEMA (( 'CONFIG_CONTROL_DESIGN' ));
ENDSEC;

DATA;
#1 = EDGE_LOOP ( 'NONE', ( #52, #106, #123, #180, #216 ) ) ;
#2 = DIRECTION ( 'NONE',  ( 1.000000000000000000, 0.0000000000000000000, 0.0000000000000000000 ) ) ;
#3 = DIRECTION ( 'NONE',  ( 0.0000000000000000000, 0.0000000000000000000, 1.000000000000000000 ) ) ;
#4 = CARTESIAN_POINT ( 'NONE',  ( 6.171692315363871200, -6.424478627553280100, -1.645367821564780700 ) ) ;
#5 = LOCAL_TIME ( 12, 38, 21.00000000000000000, #81 ) ;
#6 = DESIGN_CONTEXT ( 'detailed design', #205, 'design' ) ;
#7 = ORIENTED_EDGE ( 'NONE', *, *, #22, .T. ) ;
#8 =( BOUNDED_SURFACE ( )  B_SPLINE_SURFACE ( 3, 3, ( 
 ( #130, #118, #61, #44 ),
 ( #63, #218, #155, #221 ),
 ( #42, #187, #64, #116 ),
 ( #196, #169, #10, #4 ) ),
 .UNSPECIFIED., .F., .F., .F. ) 
 B_SPLINE_SURFACE_WITH_KNOTS ( ( 4, 4 ),
 ( 4, 4 ),
 ( 0.0000000000000000000, 1.000000000000000000 ),
 ( 0.0000000000000000000, 1.000000000000000000 ),
 .UNSPECIFIED. ) 
 GEOMETRIC_REPRESENTATION_ITEM ( )  RATIONAL_B_SPLINE_SURFACE ( (
 ( 1.000000000000000000, 0.9944181478351095100, 0.9944181478351095100, 1.000000000000000000),
 ( 0.9775015620264144700, 0.9720452928162335300, 0.9720452928162335300, 0.9775015620264144700),
 ( 0.9775015620264144700, 0.9720452928162335300, 0.9720452928162335300, 0.9775015620264144700),
 ( 1.000000000000000000, 0.9944181478351095100, 0.9944181478351095100, 1.000000000000000000) ) ) 
 REPRESENTATION_ITEM ( '' )  SURFACE ( )  );
#9 =( LENGTH_UNIT ( ) NAMED_UNIT ( * ) SI_UNIT ( .MILLI., .METRE. ) );
#10 = CARTESIAN_POINT ( 'NONE',  ( 4.155024449462336700, -6.424478627553281000, -1.111070757962816300 ) ) ;
#11 = DIRECTION ( 'NONE',  ( 1.000000000000000000, 0.0000000000000000000, 0.0000000000000000000 ) ) ;
#12 = APPROVAL ( #139, 'UNSPECIFIED' ) ;
#13 = CYLINDRICAL_SURFACE ( 'NONE', #75, 6.349999999999999600 ) ;
#14 = PERSON_AND_ORGANIZATION_ROLE ( 'creator' ) ;
#15 = PRODUCT_DEFINITION_SHAPE ( 'NONE', 'NONE',  #171 ) ;
#16 = APPROVAL_ROLE ( '' ) ;
#17 = CIRCLE ( 'NONE', #195, 6.349999999999999600 ) ;
#18 = CC_DESIGN_PERSON_AND_ORGANIZATION_ASSIGNMENT ( #131, #105, ( #171 ) ) ;
#19 = PERSON ( 'UNSPECIFIED', 'UNSPECIFIED', 'UNSPECIFIED', ('UNSPECIFIED'), ('UNSPECIFIED'), ('UNSPECIFIED') ) ;
#20 = CIRCLE ( 'NONE', #32, 6.349999999999999600 ) ;
#21 = ORIENTED_EDGE ( 'NONE', *, *, #80, .F. ) ;
#22 = EDGE_CURVE ( 'NONE', #175, #90, #69, .T. ) ;
#23 = CIRCLE ( 'NONE', #124, 6.349999999999999600 ) ;
#24 = CARTESIAN_POINT ( 'NONE',  ( 5.323823601636701700E-015, -6.349999999999992500, -0.8219341571509905000 ) ) ;
#25 = CARTESIAN_POINT ( 'NONE',  ( -2.086246062556745200, 6.424478627553281000, -0.8416665645918333100 ) ) ;
#26 = CIRCLE ( 'NONE', #66, 6.349999999999999600 ) ;
#27 = CARTESIAN_POINT ( 'NONE',  ( 0.0000000000000000000, 2.190782049914746100, 0.2870128626178410900 ) ) ;
#28 = PRODUCT_DEFINITION_FORMATION_WITH_SPECIFIED_SOURCE ( 'ANY', '', #49, .NOT_KNOWN. ) ;
#29 = APPROVAL_PERSON_ORGANIZATION ( #41, #217, #31 ) ;
#30 = FACE_OUTER_BOUND ( 'NONE', #43, .T. ) ;
#31 = APPROVAL_ROLE ( '' ) ;
#32 = AXIS2_PLACEMENT_3D ( 'NONE', #192, #92, #108 ) ;
#33 = COORDINATED_UNIVERSAL_TIME_OFFSET ( 2, 0, .AHEAD. ) ;
#34 = EDGE_CURVE ( 'NONE', #90, #175, #170, .T. ) ;
#35 = LOCAL_TIME ( 12, 38, 21.00000000000000000, #188 ) ;
#36 = CC_DESIGN_PERSON_AND_ORGANIZATION_ASSIGNMENT ( #89, #14, ( #28 ) ) ;
#37 = ORIENTED_EDGE ( 'NONE', *, *, #112, .T. ) ;
#38 =( GEOMETRIC_REPRESENTATION_CONTEXT ( 3 ) GLOBAL_UNCERTAINTY_ASSIGNED_CONTEXT ( ( #117 ) ) GLOBAL_UNIT_ASSIGNED_CONTEXT ( ( #9, #133, #168 ) ) REPRESENTATION_CONTEXT ( 'NONE', 'WORKASPACE' ) );
#39 = DIRECTION ( 'NONE',  ( 1.000000000000000000, 0.0000000000000000000, -0.0000000000000000000 ) ) ;
#40 = CARTESIAN_POINT ( 'NONE',  ( -4.155024449462327900, 6.424478627553281900, -1.111070757962810500 ) ) ;
#41 = PERSON_AND_ORGANIZATION ( #19, #86 ) ;
#42 = CARTESIAN_POINT ( 'NONE',  ( 5.650289413249178300E-015, -2.190782049914745200, 0.2870128626178380400 ) ) ;
#43 = EDGE_LOOP ( 'NONE', ( #225, #149, #21 ) ) ;
#44 = CARTESIAN_POINT ( 'NONE',  ( 6.171692315363871200, 6.424478627553280100, -1.645367821564777100 ) ) ;
#45 = PERSON_AND_ORGANIZATION_ROLE ( 'design_supplier' ) ;
#46 = DATE_AND_TIME ( #48, #35 ) ;
#47 = EDGE_CURVE ( 'NONE', #110, #90, #190, .T. ) ;
#48 = CALENDAR_DATE ( 2019, 14, 1 ) ;
#49 = PRODUCT ( '112-0109E BK7 pl-cv 12.7 F-50', '112-0109E BK7 pl-cv 12.7 F-50', '', ( #140 ) ) ;
#50 = EDGE_CURVE ( 'NONE', #62, #135, #26, .T. ) ;
#51 = DIRECTION ( 'NONE',  ( 1.000000000000000000, 0.0000000000000000000, 0.0000000000000000000 ) ) ;
#52 = ORIENTED_EDGE ( 'NONE', *, *, #50, .T. ) ;
#53 = CARTESIAN_POINT ( 'NONE',  ( 2.498001805406600200E-016, 1.221245327087670000E-015, -0.8219341571509910500 ) ) ;
#54 = DIRECTION ( 'NONE',  ( -0.0000000000000000000, -0.0000000000000000000, -1.000000000000000000 ) ) ;
#55 = CC_DESIGN_SECURITY_CLASSIFICATION ( #122, ( #28 ) ) ;
#56 = LOCAL_TIME ( 12, 38, 21.00000000000000000, #33 ) ;
#57 = LINE ( 'NONE', #136, #213 ) ;
#58 = ORIENTED_EDGE ( 'NONE', *, *, #127, .T. ) ;
#59 = CARTESIAN_POINT ( 'NONE',  ( -2.183958338686396800, -2.190782049914743500, 0.2870128626178377100 ) ) ;
#60 = AXIS2_PLACEMENT_3D ( 'NONE', #146, #107, #51 ) ;
#61 = CARTESIAN_POINT ( 'NONE',  ( 4.155024449462336700, 6.424478627553281000, -1.111070757962813000 ) ) ;
#62 = VERTEX_POINT ( 'NONE', #233 ) ;
#63 = CARTESIAN_POINT ( 'NONE',  ( 5.650289413249177500E-015, 2.190782049914744300, 0.2870128626178414200 ) ) ;
#64 = CARTESIAN_POINT ( 'NONE',  ( 4.349630878501559800, -2.190782049914745200, 0.004990743966802406100 ) ) ;
#65 = DIRECTION ( 'NONE',  ( 0.0000000000000000000, 0.0000000000000000000, 1.000000000000000000 ) ) ;
#66 = AXIS2_PLACEMENT_3D ( 'NONE', #211, #212, #193 ) ;
#67 = ADVANCED_FACE ( 'NONE', ( #76 ), #163, .T. ) ;
#68 = EDGE_LOOP ( 'NONE', ( #150, #37, #119, #128, #7 ) ) ;
#69 = CIRCLE ( 'NONE', #60, 6.349999999999999600 ) ;
#70 = CARTESIAN_POINT ( 'NONE',  ( -6.349999999999999600, 1.998896044546239400E-015, -0.8219341571509910500 ) ) ;
#71 = DIRECTION ( 'NONE',  ( 1.000000000000000000, 0.0000000000000000000, 0.0000000000000000000 ) ) ;
#72 = PLANE ( 'NONE',  #138 ) ;
#73 = DATE_AND_TIME ( #158, #199 ) ;
#74 = DATE_AND_TIME ( #179, #56 ) ;
#75 = AXIS2_PLACEMENT_3D ( 'NONE', #166, #96, #2 ) ;
#76 = FACE_OUTER_BOUND ( 'NONE', #1, .T. ) ;
#77 = APPROVAL_DATE_TIME ( #172, #154 ) ;
#78 = CC_DESIGN_PERSON_AND_ORGANIZATION_ASSIGNMENT ( #174, #204, ( #122 ) ) ;
#79 = CARTESIAN_POINT ( 'NONE',  ( -2.086246062556745200, -6.424478627553281000, -0.8416665645918365300 ) ) ;
#80 = EDGE_CURVE ( 'NONE', #93, #62, #20, .T. ) ;
#81 = COORDINATED_UNIVERSAL_TIME_OFFSET ( 2, 0, .AHEAD. ) ;
#82 = FACE_OUTER_BOUND ( 'NONE', #210, .T. ) ;
#83 = APPROVAL_STATUS ( 'not_yet_approved' ) ;
#84 = SECURITY_CLASSIFICATION_LEVEL ( 'unclassified' ) ;
#85 = CC_DESIGN_DATE_AND_TIME_ASSIGNMENT ( #73, #157, ( #122 ) ) ;
#86 = ORGANIZATION ( 'UNSPECIFIED', 'UNSPECIFIED', '' ) ;
#87 = EDGE_CURVE ( 'NONE', #135, #110, #23, .T. ) ;
#88 = ADVANCED_FACE ( 'NONE', ( #82 ), #72, .T. ) ;
#89 = PERSON_AND_ORGANIZATION ( #19, #86 ) ;
#90 = VERTEX_POINT ( 'NONE', #145 ) ;
#91 = LOCAL_TIME ( 12, 38, 21.00000000000000000, #232 ) ;
#92 = DIRECTION ( 'NONE',  ( 0.0000000000000000000, 0.0000000000000000000, 1.000000000000000000 ) ) ;
#93 = VERTEX_POINT ( 'NONE', #24 ) ;
#94 = CARTESIAN_POINT ( 'NONE',  ( 2.498001805406600200E-016, 1.221245327087670000E-015, -0.8219341571509910500 ) ) ;
#95 = PERSON_AND_ORGANIZATION ( #19, #86 ) ;
#96 = DIRECTION ( 'NONE',  ( 0.0000000000000000000, 0.0000000000000000000, 1.000000000000000000 ) ) ;
#97 = AXIS2_PLACEMENT_3D ( 'NONE', #214, #54, #178 ) ;
#98 = APPROVAL_DATE_TIME ( #74, #217 ) ;
#99 = ORIENTED_EDGE ( 'NONE', *, *, #22, .F. ) ;
#100 = CARTESIAN_POINT ( 'NONE',  ( -6.171692315363860500, -6.424478627553279300, -1.645367821564776200 ) ) ;
#101 = DATE_TIME_ROLE ( 'creation_date' ) ;
#102 = VECTOR ( 'NONE', #191, 1000.000000000000000 ) ;
#103 = APPLICATION_PROTOCOL_DEFINITION ( 'international standard', 'config_control_design', 1994, #205 ) ;
#104 = PERSON_AND_ORGANIZATION_ROLE ( 'design_owner' ) ;
#105 = PERSON_AND_ORGANIZATION_ROLE ( 'creator' ) ;
#106 = ORIENTED_EDGE ( 'NONE', *, *, #87, .T. ) ;
#107 = DIRECTION ( 'NONE',  ( -0.0000000000000000000, -0.0000000000000000000, -1.000000000000000000 ) ) ;
#108 = DIRECTION ( 'NONE',  ( 1.000000000000000000, 0.0000000000000000000, 0.0000000000000000000 ) ) ;
#109 = MANIFOLD_SOLID_BREP ( 'Imported1', #230 ) ;
#110 = VERTEX_POINT ( 'NONE', #111 ) ;
#111 = CARTESIAN_POINT ( 'NONE',  ( -6.349999999999999600, 1.998896044546239400E-015, -0.8219341571509910500 ) ) ;
#112 = EDGE_CURVE ( 'NONE', #110, #93, #17, .T. ) ;
#113 = DIRECTION ( 'NONE',  ( 0.0000000000000000000, 0.0000000000000000000, 1.000000000000000000 ) ) ;
#114 = CARTESIAN_POINT ( 'NONE',  ( -2.183958338686396300, 2.190782049914746600, 0.2870128626178412600 ) ) ;
#115 = CARTESIAN_POINT ( 'NONE',  ( -6.460752227581032500, 2.190782049914746100, -0.5543308760146418200 ) ) ;
#116 = CARTESIAN_POINT ( 'NONE',  ( 6.460752227581044900, -2.190782049914744800, -0.5543308760146500300 ) ) ;
#117 = UNCERTAINTY_MEASURE_WITH_UNIT (LENGTH_MEASURE( 1.000000000000000100E-005 ), #9, 'distance_accuracy_value', 'NONE');
#118 = CARTESIAN_POINT ( 'NONE',  ( 2.086246062556752700, 6.424478627553281000, -0.8416665645918335300 ) ) ;
#119 = ORIENTED_EDGE ( 'NONE', *, *, #80, .T. ) ;
#120 = ORIENTED_EDGE ( 'NONE', *, *, #112, .F. ) ;
#121 = ADVANCED_FACE ( 'NONE', ( #208 ), #181, .F. ) ;
#122 = SECURITY_CLASSIFICATION ( '', '', #84 ) ;
#123 = ORIENTED_EDGE ( 'NONE', *, *, #47, .T. ) ;
#124 = AXIS2_PLACEMENT_3D ( 'NONE', #126, #113, #215 ) ;
#125 = APPROVAL_PERSON_ORGANIZATION ( #207, #12, #16 ) ;
#126 = CARTESIAN_POINT ( 'NONE',  ( 2.498001805406600200E-016, 1.221245327087670000E-015, -0.8219341571509910500 ) ) ;
#127 = EDGE_CURVE ( 'NONE', #135, #93, #161, .T. ) ;
#128 = ORIENTED_EDGE ( 'NONE', *, *, #200, .T. ) ;
#129 = PRODUCT_RELATED_PRODUCT_CATEGORY ( 'detail', '', ( #49 ) ) ;
#130 = CARTESIAN_POINT ( 'NONE',  ( 5.318014526635456000E-015, 6.424478627553280100, -0.8416665645918329800 ) ) ;
#131 = PERSON_AND_ORGANIZATION ( #19, #86 ) ;
#132 = DIRECTION ( 'NONE',  ( 0.0000000000000000000, 1.000000000000000000, 2.782234925383812100E-016 ) ) ;
#133 =( NAMED_UNIT ( * ) PLANE_ANGLE_UNIT ( ) SI_UNIT ( $, .RADIAN. ) );
#134 = APPROVAL_DATE_TIME ( #46, #12 ) ;
#135 = VERTEX_POINT ( 'NONE', #183 ) ;
#136 = CARTESIAN_POINT ( 'NONE',  ( 6.349999999999999600, 1.221245327087670000E-015, -0.8219341571509910500 ) ) ;
#137 = APPROVAL_STATUS ( 'not_yet_approved' ) ;
#138 = AXIS2_PLACEMENT_3D ( 'NONE', #148, #235, #39 ) ;
#139 = APPROVAL_STATUS ( 'not_yet_approved' ) ;
#140 = MECHANICAL_CONTEXT ( 'NONE', #164, 'mechanical' ) ;
#141 = EDGE_LOOP ( 'NONE', ( #194, #58, #120 ) ) ;
#142 = ADVANCED_BREP_SHAPE_REPRESENTATION ( '112-0109E BK7 pl-cv 12.7 F-50', ( #109, #160 ), #38 ) ;
#143 = CC_DESIGN_APPROVAL ( #154, ( #122 ) ) ;
#144 = COORDINATED_UNIVERSAL_TIME_OFFSET ( 2, 0, .AHEAD. ) ;
#145 = CARTESIAN_POINT ( 'NONE',  ( -6.349999999999999600, 1.998896044546239400E-015, 2.700000000000000200 ) ) ;
#146 = CARTESIAN_POINT ( 'NONE',  ( 2.498001805406600200E-016, 1.221245327087670000E-015, 2.700000000000000200 ) ) ;
#147 = DATE_AND_TIME ( #209, #5 ) ;
#148 = CARTESIAN_POINT ( 'NONE',  ( 0.0000000000000000000, 13.15799999999999900, 2.700000000000000200 ) ) ;
#149 = ORIENTED_EDGE ( 'NONE', *, *, #50, .F. ) ;
#150 = ORIENTED_EDGE ( 'NONE', *, *, #47, .F. ) ;
#151 = CARTESIAN_POINT ( 'NONE',  ( -6.171692315363859600, 6.424478627553281000, -1.645367821564772900 ) ) ;
#152 = DIRECTION ( 'NONE',  ( 0.0000000000000000000, 0.0000000000000000000, 1.000000000000000000 ) ) ;
#153 = CARTESIAN_POINT ( 'NONE',  ( 0.0000000000000000000, -6.424478627553280100, -0.8416665645918365300 ) ) ;
#154 = APPROVAL ( #83, 'UNSPECIFIED' ) ;
#155 = CARTESIAN_POINT ( 'NONE',  ( 4.349630878501560700, 2.190782049914745200, 0.004990743966805983100 ) ) ;
#156 = DIRECTION ( 'NONE',  ( 1.000000000000000000, 0.0000000000000000000, 0.0000000000000000000 ) ) ;
#157 = DATE_TIME_ROLE ( 'classification_date' ) ;
#158 = CALENDAR_DATE ( 2019, 14, 1 ) ;
#159 = CC_DESIGN_APPROVAL ( #12, ( #28 ) ) ;
#160 = AXIS2_PLACEMENT_3D ( 'NONE', #201, #152, #11 ) ;
#161 = CIRCLE ( 'NONE', #182, 24.94000000000000100 ) ;
#162 = AXIS2_PLACEMENT_3D ( 'NONE', #53, #176, #71 ) ;
#163 = CYLINDRICAL_SURFACE ( 'NONE', #162, 6.349999999999999600 ) ;
#164 = APPLICATION_CONTEXT ( 'configuration controlled 3d designs of mechanical parts and assemblies' ) ;
#165 = ORIENTED_EDGE ( 'NONE', *, *, #34, .F. ) ;
#166 = CARTESIAN_POINT ( 'NONE',  ( 2.498001805406600200E-016, 1.221245327087670000E-015, -0.8219341571509910500 ) ) ;
#167 = CARTESIAN_POINT ( 'NONE',  ( -4.349630878501550900, -2.190782049914743500, 0.004990743966805008200 ) ) ;
#168 =( NAMED_UNIT ( * ) SI_UNIT ( $, .STERADIAN. ) SOLID_ANGLE_UNIT ( ) );
#169 = CARTESIAN_POINT ( 'NONE',  ( 2.086246062556753200, -6.424478627553281000, -0.8416665645918372000 ) ) ;
#170 = CIRCLE ( 'NONE', #97, 6.349999999999999600 ) ;
#171 = PRODUCT_DEFINITION ( 'UNKNOWN', '', #28, #6 ) ;
#172 = DATE_AND_TIME ( #177, #91 ) ;
#173 = ADVANCED_FACE ( 'NONE', ( #203 ), #13, .T. ) ;
#174 = PERSON_AND_ORGANIZATION ( #19, #86 ) ;
#175 = VERTEX_POINT ( 'NONE', #220 ) ;
#176 = DIRECTION ( 'NONE',  ( 0.0000000000000000000, 0.0000000000000000000, 1.000000000000000000 ) ) ;
#177 = CALENDAR_DATE ( 2019, 14, 1 ) ;
#178 = DIRECTION ( 'NONE',  ( 1.000000000000000000, 0.0000000000000000000, 0.0000000000000000000 ) ) ;
#179 = CALENDAR_DATE ( 2019, 14, 1 ) ;
#180 = ORIENTED_EDGE ( 'NONE', *, *, #34, .T. ) ;
#181 =( BOUNDED_SURFACE ( )  B_SPLINE_SURFACE ( 3, 3, ( 
 ( #151, #40, #25, #185 ),
 ( #115, #197, #114, #27 ),
 ( #186, #167, #59, #202 ),
 ( #100, #198, #79, #153 ) ),
 .UNSPECIFIED., .F., .F., .F. ) 
 B_SPLINE_SURFACE_WITH_KNOTS ( ( 4, 4 ),
 ( 4, 4 ),
 ( 0.0000000000000000000, 1.000000000000000000 ),
 ( 0.0000000000000000000, 1.000000000000000000 ),
 .UNSPECIFIED. ) 
 GEOMETRIC_REPRESENTATION_ITEM ( )  RATIONAL_B_SPLINE_SURFACE ( (
 ( 1.000000000000000000, 0.9944181478351095100, 0.9944181478351095100, 1.000000000000000000),
 ( 0.9775015620264144700, 0.9720452928162335300, 0.9720452928162335300, 0.9775015620264144700),
 ( 0.9775015620264144700, 0.9720452928162335300, 0.9720452928162335300, 0.9775015620264144700),
 ( 1.000000000000000000, 0.9944181478351095100, 0.9944181478351095100, 1.000000000000000000) ) ) 
 REPRESENTATION_ITEM ( '' )  SURFACE ( )  );
#182 = AXIS2_PLACEMENT_3D ( 'NONE', #222, #184, #132 ) ;
#183 = CARTESIAN_POINT ( 'NONE',  ( 5.323823601636701700E-015, 6.349999999999992500, -0.8219341571509870500 ) ) ;
#184 = DIRECTION ( 'NONE',  ( 1.000000000000000000, 8.575210641203979800E-032, -2.943926137071290200E-016 ) ) ;
#185 = CARTESIAN_POINT ( 'NONE',  ( 0.0000000000000000000, 6.424478627553280100, -0.8416665645918335300 ) ) ;
#186 = CARTESIAN_POINT ( 'NONE',  ( -6.460752227581032500, -2.190782049914743500, -0.5543308760146454800 ) ) ;
#187 = CARTESIAN_POINT ( 'NONE',  ( 2.183958338686403000, -2.190782049914745700, 0.2870128626178373200 ) ) ;
#188 = COORDINATED_UNIVERSAL_TIME_OFFSET ( 2, 0, .AHEAD. ) ;
#189 = ADVANCED_FACE ( 'NONE', ( #30 ), #8, .F. ) ;
#190 = LINE ( 'NONE', #70, #102 ) ;
#191 = DIRECTION ( 'NONE',  ( 0.0000000000000000000, 0.0000000000000000000, 1.000000000000000000 ) ) ;
#192 = CARTESIAN_POINT ( 'NONE',  ( 2.498001805406600200E-016, 1.221245327087670000E-015, -0.8219341571509910500 ) ) ;
#193 = DIRECTION ( 'NONE',  ( 1.000000000000000000, 0.0000000000000000000, 0.0000000000000000000 ) ) ;
#194 = ORIENTED_EDGE ( 'NONE', *, *, #87, .F. ) ;
#195 = AXIS2_PLACEMENT_3D ( 'NONE', #94, #3, #156 ) ;
#196 = CARTESIAN_POINT ( 'NONE',  ( 5.318014526635457500E-015, -6.424478627553280100, -0.8416665645918364200 ) ) ;
#197 = CARTESIAN_POINT ( 'NONE',  ( -4.349630878501550900, 2.190782049914746600, 0.004990743966808478500 ) ) ;
#198 = CARTESIAN_POINT ( 'NONE',  ( -4.155024449462327900, -6.424478627553280100, -1.111070757962814100 ) ) ;
#199 = LOCAL_TIME ( 12, 38, 21.00000000000000000, #144 ) ;
#200 = EDGE_CURVE ( 'NONE', #62, #175, #57, .T. ) ;
#201 = CARTESIAN_POINT ( 'NONE',  ( 0.0000000000000000000, 0.0000000000000000000, 0.0000000000000000000 ) ) ;
#202 = CARTESIAN_POINT ( 'NONE',  ( -8.673617379884035500E-016, -2.190782049914743500, 0.2870128626178376500 ) ) ;
#203 = FACE_OUTER_BOUND ( 'NONE', #68, .T. ) ;
#204 = PERSON_AND_ORGANIZATION_ROLE ( 'classification_officer' ) ;
#205 = APPLICATION_CONTEXT ( 'configuration controlled 3d designs of mechanical parts and assemblies' ) ;
#206 = APPLICATION_PROTOCOL_DEFINITION ( 'international standard', 'config_control_design', 1994, #164 ) ;
#207 = PERSON_AND_ORGANIZATION ( #19, #86 ) ;
#208 = FACE_OUTER_BOUND ( 'NONE', #141, .T. ) ;
#209 = CALENDAR_DATE ( 2019, 14, 1 ) ;
#210 = EDGE_LOOP ( 'NONE', ( #99, #165 ) ) ;
#211 = CARTESIAN_POINT ( 'NONE',  ( 2.498001805406600200E-016, 1.221245327087670000E-015, -0.8219341571509910500 ) ) ;
#212 = DIRECTION ( 'NONE',  ( 0.0000000000000000000, 0.0000000000000000000, 1.000000000000000000 ) ) ;
#213 = VECTOR ( 'NONE', #65, 1000.000000000000000 ) ;
#214 = CARTESIAN_POINT ( 'NONE',  ( 2.498001805406600200E-016, 1.221245327087670000E-015, 2.700000000000000200 ) ) ;
#215 = DIRECTION ( 'NONE',  ( 1.000000000000000000, 0.0000000000000000000, 0.0000000000000000000 ) ) ;
#216 = ORIENTED_EDGE ( 'NONE', *, *, #200, .F. ) ;
#217 = APPROVAL ( #137, 'UNSPECIFIED' ) ;
#218 = CARTESIAN_POINT ( 'NONE',  ( 2.183958338686403000, 2.190782049914744800, 0.2870128626178407000 ) ) ;
#219 = APPROVAL_PERSON_ORGANIZATION ( #95, #154, #226 ) ;
#220 = CARTESIAN_POINT ( 'NONE',  ( 6.349999999999999600, 1.221245327087670000E-015, 2.700000000000000200 ) ) ;
#221 = CARTESIAN_POINT ( 'NONE',  ( 6.460752227581045800, 2.190782049914744800, -0.5543308760146463700 ) ) ;
#222 = CARTESIAN_POINT ( 'NONE',  ( -1.776356839400250100E-015, 0.0000000000000000000, -24.94000000000000100 ) ) ;
#223 = PERSON_AND_ORGANIZATION ( #19, #86 ) ;
#224 = CC_DESIGN_PERSON_AND_ORGANIZATION_ASSIGNMENT ( #229, #104, ( #49 ) ) ;
#225 = ORIENTED_EDGE ( 'NONE', *, *, #127, .F. ) ;
#226 = APPROVAL_ROLE ( '' ) ;
#227 = SHAPE_DEFINITION_REPRESENTATION ( #15, #142 ) ;
#228 = CC_DESIGN_PERSON_AND_ORGANIZATION_ASSIGNMENT ( #223, #45, ( #28 ) ) ;
#229 = PERSON_AND_ORGANIZATION ( #19, #86 ) ;
#230 = CLOSED_SHELL ( 'NONE', ( #121, #67, #173, #189, #88 ) ) ;
#231 = CC_DESIGN_DATE_AND_TIME_ASSIGNMENT ( #147, #101, ( #171 ) ) ;
#232 = COORDINATED_UNIVERSAL_TIME_OFFSET ( 2, 0, .AHEAD. ) ;
#233 = CARTESIAN_POINT ( 'NONE',  ( 6.349999999999999600, 1.221245327087670000E-015, -0.8219341571509910500 ) ) ;
#234 = CC_DESIGN_APPROVAL ( #217, ( #171 ) ) ;
#235 = DIRECTION ( 'NONE',  ( 0.0000000000000000000, 0.0000000000000000000, 1.000000000000000000 ) ) ;
ENDSEC;
END-ISO-10303-21;
