ISO-10303-21;
HEADER;
FILE_DESCRIPTION (( 'STEP AP203' ),
    '1' );
FILE_NAME ('112-0105E BK7 pl-cv 12.7 F-12.7.STEP',
    '2019-01-14T07:55:14',
    ( '' ),
    ( '' ),
    'SwSTEP 2.0',
    'SolidWorks 2017',
    '' );
FILE_SCHEMA (( 'CONFIG_CONTROL_DESIGN' ));
ENDSEC;

DATA;
#1 = DIRECTION ( 'NONE',  ( 0.0000000000000000000, 0.0000000000000000000, 1.000000000000000000 ) ) ;
#2 = EDGE_CURVE ( 'NONE', #109, #6, #212, .T. ) ;
#3 = DIRECTION ( 'NONE',  ( 0.0000000000000000000, 0.0000000000000000000, 1.000000000000000000 ) ) ;
#4 = CARTESIAN_POINT ( 'NONE',  ( -2.357818108491696000, -2.344646326553702300, 0.6209160541100117200 ) ) ;
#5 = DIRECTION ( 'NONE',  ( 0.0000000000000000000, 0.0000000000000000000, 1.000000000000000000 ) ) ;
#6 = VERTEX_POINT ( 'NONE', #104 ) ;
#7 = CARTESIAN_POINT ( 'NONE',  ( 0.0000000000000000000, -6.419312293552750700, -1.699980937112726600 ) ) ;
#8 = PERSON_AND_ORGANIZATION_ROLE ( 'design_owner' ) ;
#9 = LOCAL_TIME ( 9, 55, 14.00000000000000000, #97 ) ;
#10 = APPLICATION_CONTEXT ( 'configuration controlled 3d designs of mechanical parts and assemblies' ) ;
#11 = VECTOR ( 'NONE', #198, 1000.000000000000000 ) ;
#12 = CARTESIAN_POINT ( 'NONE',  ( 1.955177629214066800, 6.419312293552745400, -1.699980937112726400 ) ) ;
#13 = CARTESIAN_POINT ( 'NONE',  ( 2.664535259100380000E-015, 6.419312293552746200, -1.699980937112726100 ) ) ;
#14 = CARTESIAN_POINT ( 'NONE',  ( 4.637990960122816200, 2.344646326553698300, 0.02081772932003233100 ) ) ;
#15 = DATE_AND_TIME ( #76, #177 ) ;
#16 = CARTESIAN_POINT ( 'NONE',  ( 0.0000000000000000000, 13.15799999999999900, 1.899999999999999900 ) ) ;
#17 = EDGE_CURVE ( 'NONE', #131, #98, #218, .T. ) ;
#18 = EDGE_CURVE ( 'NONE', #92, #131, #176, .T. ) ;
#19 = DIRECTION ( 'NONE',  ( 0.0000000000000000000, 0.0000000000000000000, 1.000000000000000000 ) ) ;
#20 = EDGE_LOOP ( 'NONE', ( #39, #69, #139, #124, #24 ) ) ;
#21 = CARTESIAN_POINT ( 'NONE',  ( 0.0000000000000000000, 0.0000000000000000000, 0.0000000000000000000 ) ) ;
#22 = APPROVAL ( #62, 'UNSPECIFIED' ) ;
#23 = CARTESIAN_POINT ( 'NONE',  ( 6.349999999999999600, 1.221245327087670000E-015, -1.660782520439350000 ) ) ;
#24 = ORIENTED_EDGE ( 'NONE', *, *, #185, .F. ) ;
#25 = CARTESIAN_POINT ( 'NONE',  ( 0.0000000000000000000, 6.419312293552746200, -1.699980937112726600 ) ) ;
#26 = ADVANCED_FACE ( 'NONE', ( #32 ), #119, .F. ) ;
#27 = ORIENTED_EDGE ( 'NONE', *, *, #17, .F. ) ;
#28 = PERSON_AND_ORGANIZATION_ROLE ( 'design_supplier' ) ;
#29 = ADVANCED_FACE ( 'NONE', ( #75 ), #145, .T. ) ;
#30 = EDGE_CURVE ( 'NONE', #71, #109, #153, .T. ) ;
#31 = AXIS2_PLACEMENT_3D ( 'NONE', #206, #3, #114 ) ;
#32 = FACE_OUTER_BOUND ( 'NONE', #146, .T. ) ;
#33 = CARTESIAN_POINT ( 'NONE',  ( 6.690341909702823400, -2.344646326553702300, -1.139855270490588200 ) ) ;
#34 = APPROVAL_PERSON_ORGANIZATION ( #84, #232, #205 ) ;
#35 = DIRECTION ( 'NONE',  ( 1.000000000000000000, 0.0000000000000000000, 0.0000000000000000000 ) ) ;
#36 =( GEOMETRIC_REPRESENTATION_CONTEXT ( 3 ) GLOBAL_UNCERTAINTY_ASSIGNED_CONTEXT ( ( #132 ) ) GLOBAL_UNIT_ASSIGNED_CONTEXT ( ( #123, #121, #159 ) ) REPRESENTATION_CONTEXT ( 'NONE', 'WORKASPACE' ) );
#37 = ADVANCED_BREP_SHAPE_REPRESENTATION ( '112-0105E BK7 pl-cv 12.7 F-12.7', ( #63, #111 ), #36 ) ;
#38 = CALENDAR_DATE ( 2019, 14, 1 ) ;
#39 = ORIENTED_EDGE ( 'NONE', *, *, #147, .T. ) ;
#40 = APPROVAL_PERSON_ORGANIZATION ( #197, #161, #152 ) ;
#41 = DIRECTION ( 'NONE',  ( 1.000000000000000000, 0.0000000000000000000, -0.0000000000000000000 ) ) ;
#42 = CC_DESIGN_PERSON_AND_ORGANIZATION_ASSIGNMENT ( #112, #113, ( #127 ) ) ;
#43 = DATE_TIME_ROLE ( 'creation_date' ) ;
#44 = AXIS2_PLACEMENT_3D ( 'NONE', #107, #72, #94 ) ;
#45 = ORIENTED_EDGE ( 'NONE', *, *, #163, .F. ) ;
#46 = CARTESIAN_POINT ( 'NONE',  ( -3.845969346435337500, 6.419312293552745400, -2.197601519350418800 ) ) ;
#47 = CIRCLE ( 'NONE', #169, 6.349999999999999600 ) ;
#48 = DIRECTION ( 'NONE',  ( 1.000000000000000000, 0.0000000000000000000, 0.0000000000000000000 ) ) ;
#49 = CC_DESIGN_APPROVAL ( #161, ( #148 ) ) ;
#50 = DATE_AND_TIME ( #122, #9 ) ;
#51 = CALENDAR_DATE ( 2019, 14, 1 ) ;
#52 = CC_DESIGN_PERSON_AND_ORGANIZATION_ASSIGNMENT ( #85, #28, ( #127 ) ) ;
#53 = CYLINDRICAL_SURFACE ( 'NONE', #190, 6.349999999999999600 ) ;
#54 = CARTESIAN_POINT ( 'NONE',  ( 6.690341909702822500, 2.344646326553697400, -1.139855270490588700 ) ) ;
#55 = CARTESIAN_POINT ( 'NONE',  ( 5.547843909813773100, 6.419312293552746200, -3.160068418679729900 ) ) ;
#56 = CARTESIAN_POINT ( 'NONE',  ( 2.498001805406600200E-016, 1.221245327087670000E-015, -1.660782520439350000 ) ) ;
#57 = ORIENTED_EDGE ( 'NONE', *, *, #2, .F. ) ;
#58 = EDGE_CURVE ( 'NONE', #92, #109, #195, .T. ) ;
#59 = DIRECTION ( 'NONE',  ( 1.000000000000000000, 0.0000000000000000000, 0.0000000000000000000 ) ) ;
#60 = CC_DESIGN_PERSON_AND_ORGANIZATION_ASSIGNMENT ( #88, #79, ( #187 ) ) ;
#61 = APPROVAL_PERSON_ORGANIZATION ( #67, #22, #81 ) ;
#62 = APPROVAL_STATUS ( 'not_yet_approved' ) ;
#63 = MANIFOLD_SOLID_BREP ( 'Imported1', #196 ) ;
#64 = DIRECTION ( 'NONE',  ( 0.0000000000000000000, 0.0000000000000000000, 1.000000000000000000 ) ) ;
#65 = CARTESIAN_POINT ( 'NONE',  ( -4.637990960122818000, 2.344646326553698300, 0.02081772932002929800 ) ) ;
#66 = ADVANCED_FACE ( 'NONE', ( #168 ), #53, .T. ) ;
#67 = PERSON_AND_ORGANIZATION ( #96, #106 ) ;
#68 = SECURITY_CLASSIFICATION_LEVEL ( 'unclassified' ) ;
#69 = ORIENTED_EDGE ( 'NONE', *, *, #163, .T. ) ;
#70 = CARTESIAN_POINT ( 'NONE',  ( 2.498001805406600200E-016, 1.221245327087670000E-015, 1.899999999999999700 ) ) ;
#71 = VERTEX_POINT ( 'NONE', #167 ) ;
#72 = DIRECTION ( 'NONE',  ( 0.0000000000000000000, 0.0000000000000000000, 1.000000000000000000 ) ) ;
#73 = AXIS2_PLACEMENT_3D ( 'NONE', #136, #115, #59 ) ;
#74 = PRODUCT ( '112-0105E BK7 pl-cv 12.7 F-12.7', '112-0105E BK7 pl-cv 12.7 F-12.7', '', ( #118 ) ) ;
#75 = FACE_OUTER_BOUND ( 'NONE', #234, .T. ) ;
#76 = CALENDAR_DATE ( 2019, 14, 1 ) ;
#77 = CARTESIAN_POINT ( 'NONE',  ( 2.498001805406600200E-016, 1.221245327087670000E-015, -1.660782520439350000 ) ) ;
#78 = ORIENTED_EDGE ( 'NONE', *, *, #208, .F. ) ;
#79 = PERSON_AND_ORGANIZATION_ROLE ( 'creator' ) ;
#80 = CARTESIAN_POINT ( 'NONE',  ( -1.734723475976807100E-015, 2.344646326553697400, 0.6209160541100120500 ) ) ;
#81 = APPROVAL_ROLE ( '' ) ;
#82 =( BOUNDED_SURFACE ( )  B_SPLINE_SURFACE ( 3, 3, ( 
 ( #130, #46, #224, #25 ),
 ( #223, #65, #151, #80 ),
 ( #83, #100, #4, #175 ),
 ( #207, #173, #222, #7 ) ),
 .UNSPECIFIED., .F., .F., .F. ) 
 B_SPLINE_SURFACE_WITH_KNOTS ( ( 4, 4 ),
 ( 4, 4 ),
 ( 0.0000000000000000000, 1.000000000000000000 ),
 ( 0.0000000000000000000, 1.000000000000000000 ),
 .UNSPECIFIED. ) 
 GEOMETRIC_REPRESENTATION_ITEM ( )  RATIONAL_B_SPLINE_SURFACE ( (
 ( 1.000000000000000000, 0.9780460144965011900, 0.9780460144965011900, 1.000000000000000000),
 ( 0.9126198438903765400, 0.8925842010674018800, 0.8925842010674018800, 0.9126198438903765400),
 ( 0.9126198438903765400, 0.8925842010674018800, 0.8925842010674018800, 0.9126198438903765400),
 ( 1.000000000000000000, 0.9780460144965011900, 0.9780460144965011900, 1.000000000000000000) ) ) 
 REPRESENTATION_ITEM ( '' )  SURFACE ( )  );
#83 = CARTESIAN_POINT ( 'NONE',  ( -6.690341909702826900, -2.344646326553702300, -1.139855270490594400 ) ) ;
#84 = PERSON_AND_ORGANIZATION ( #96, #106 ) ;
#85 = PERSON_AND_ORGANIZATION ( #96, #106 ) ;
#86 = CC_DESIGN_DATE_AND_TIME_ASSIGNMENT ( #103, #203, ( #148 ) ) ;
#87 = CARTESIAN_POINT ( 'NONE',  ( 2.664535259100380000E-015, -6.419312293552750700, -1.699980937112726100 ) ) ;
#88 = PERSON_AND_ORGANIZATION ( #96, #106 ) ;
#89 = CARTESIAN_POINT ( 'NONE',  ( 3.845969346435335300, 6.419312293552745400, -2.197601519350416600 ) ) ;
#90 = DIRECTION ( 'NONE',  ( -0.0000000000000000000, -0.0000000000000000000, -1.000000000000000000 ) ) ;
#91 = PRODUCT_RELATED_PRODUCT_CATEGORY ( 'detail', '', ( #74 ) ) ;
#92 = VERTEX_POINT ( 'NONE', #202 ) ;
#93 = AXIS2_PLACEMENT_3D ( 'NONE', #56, #217, #166 ) ;
#94 = DIRECTION ( 'NONE',  ( 1.000000000000000000, 0.0000000000000000000, 0.0000000000000000000 ) ) ;
#95 = CARTESIAN_POINT ( 'NONE',  ( 2.664535259100380000E-015, -6.349999999999994300, -1.660782520439349600 ) ) ;
#96 = PERSON ( 'UNSPECIFIED', 'UNSPECIFIED', 'UNSPECIFIED', ('UNSPECIFIED'), ('UNSPECIFIED'), ('UNSPECIFIED') ) ;
#97 = COORDINATED_UNIVERSAL_TIME_OFFSET ( 2, 0, .AHEAD. ) ;
#98 = VERTEX_POINT ( 'NONE', #110 ) ;
#99 = DIRECTION ( 'NONE',  ( 1.000000000000000000, 0.0000000000000000000, 0.0000000000000000000 ) ) ;
#100 = CARTESIAN_POINT ( 'NONE',  ( -4.637990960122818000, -2.344646326553702300, 0.02081772932002951300 ) ) ;
#101 = FACE_OUTER_BOUND ( 'NONE', #149, .T. ) ;
#102 = EDGE_LOOP ( 'NONE', ( #78, #27 ) ) ;
#103 = DATE_AND_TIME ( #51, #164 ) ;
#104 = CARTESIAN_POINT ( 'NONE',  ( 6.349999999999999600, 1.221245327087670000E-015, -1.660782520439350000 ) ) ;
#105 = CARTESIAN_POINT ( 'NONE',  ( 5.547843909813773100, -6.419312293552750700, -3.160068418679729900 ) ) ;
#106 = ORGANIZATION ( 'UNSPECIFIED', 'UNSPECIFIED', '' ) ;
#107 = CARTESIAN_POINT ( 'NONE',  ( 2.498001805406600200E-016, 1.221245327087670000E-015, -1.660782520439350000 ) ) ;
#108 = CC_DESIGN_DATE_AND_TIME_ASSIGNMENT ( #181, #43, ( #187 ) ) ;
#109 = VERTEX_POINT ( 'NONE', #95 ) ;
#110 = CARTESIAN_POINT ( 'NONE',  ( 6.349999999999999600, 1.221245327087670000E-015, 1.899999999999999700 ) ) ;
#111 = AXIS2_PLACEMENT_3D ( 'NONE', #21, #5, #48 ) ;
#112 = PERSON_AND_ORGANIZATION ( #96, #106 ) ;
#113 = PERSON_AND_ORGANIZATION_ROLE ( 'creator' ) ;
#114 = DIRECTION ( 'NONE',  ( 1.000000000000000000, 0.0000000000000000000, 0.0000000000000000000 ) ) ;
#115 = DIRECTION ( 'NONE',  ( -0.0000000000000000000, -0.0000000000000000000, -1.000000000000000000 ) ) ;
#116 = ORIENTED_EDGE ( 'NONE', *, *, #2, .T. ) ;
#117 = APPROVAL_DATE_TIME ( #226, #161 ) ;
#118 = MECHANICAL_CONTEXT ( 'NONE', #157, 'mechanical' ) ;
#119 =( BOUNDED_SURFACE ( )  B_SPLINE_SURFACE ( 3, 3, ( 
 ( #13, #12, #89, #55 ),
 ( #231, #162, #14, #54 ),
 ( #126, #142, #180, #33 ),
 ( #87, #140, #211, #105 ) ),
 .UNSPECIFIED., .F., .F., .F. ) 
 B_SPLINE_SURFACE_WITH_KNOTS ( ( 4, 4 ),
 ( 4, 4 ),
 ( 0.0000000000000000000, 1.000000000000000000 ),
 ( 0.0000000000000000000, 1.000000000000000000 ),
 .UNSPECIFIED. ) 
 GEOMETRIC_REPRESENTATION_ITEM ( )  RATIONAL_B_SPLINE_SURFACE ( (
 ( 1.000000000000000000, 0.9780460144965011900, 0.9780460144965011900, 1.000000000000000000),
 ( 0.9126198438903765400, 0.8925842010674018800, 0.8925842010674018800, 0.9126198438903765400),
 ( 0.9126198438903765400, 0.8925842010674018800, 0.8925842010674018800, 0.9126198438903765400),
 ( 1.000000000000000000, 0.9780460144965011900, 0.9780460144965011900, 1.000000000000000000) ) ) 
 REPRESENTATION_ITEM ( '' )  SURFACE ( )  );
#120 = ORIENTED_EDGE ( 'NONE', *, *, #185, .T. ) ;
#121 =( NAMED_UNIT ( * ) PLANE_ANGLE_UNIT ( ) SI_UNIT ( $, .RADIAN. ) );
#122 = CALENDAR_DATE ( 2019, 14, 1 ) ;
#123 =( LENGTH_UNIT ( ) NAMED_UNIT ( * ) SI_UNIT ( .MILLI., .METRE. ) );
#124 = ORIENTED_EDGE ( 'NONE', *, *, #17, .T. ) ;
#125 = COORDINATED_UNIVERSAL_TIME_OFFSET ( 2, 0, .AHEAD. ) ;
#126 = CARTESIAN_POINT ( 'NONE',  ( 2.664535259100379600E-015, -2.344646326553702300, 0.6209160541100129400 ) ) ;
#127 = PRODUCT_DEFINITION_FORMATION_WITH_SPECIFIED_SOURCE ( 'ANY', '', #74, .NOT_KNOWN. ) ;
#128 = CARTESIAN_POINT ( 'NONE',  ( 2.498001805406600200E-016, 1.221245327087670000E-015, -1.660782520439350000 ) ) ;
#129 = PERSON_AND_ORGANIZATION ( #96, #106 ) ;
#130 = CARTESIAN_POINT ( 'NONE',  ( -5.547843909813775700, 6.419312293552746200, -3.160068418679735200 ) ) ;
#131 = VERTEX_POINT ( 'NONE', #165 ) ;
#132 = UNCERTAINTY_MEASURE_WITH_UNIT (LENGTH_MEASURE( 1.000000000000000100E-005 ), #123, 'distance_accuracy_value', 'NONE');
#133 = DIRECTION ( 'NONE',  ( 1.000000000000000000, 0.0000000000000000000, 0.0000000000000000000 ) ) ;
#134 = CARTESIAN_POINT ( 'NONE',  ( 2.498001805406600200E-016, 1.221245327087670000E-015, -1.660782520439350000 ) ) ;
#135 = FACE_OUTER_BOUND ( 'NONE', #102, .T. ) ;
#136 = CARTESIAN_POINT ( 'NONE',  ( 2.498001805406600200E-016, 1.221245327087670000E-015, 1.899999999999999700 ) ) ;
#137 = CALENDAR_DATE ( 2019, 14, 1 ) ;
#138 = APPROVAL_DATE_TIME ( #50, #22 ) ;
#139 = ORIENTED_EDGE ( 'NONE', *, *, #18, .T. ) ;
#140 = CARTESIAN_POINT ( 'NONE',  ( 1.955177629214066800, -6.419312293552749800, -1.699980937112726400 ) ) ;
#141 = APPLICATION_PROTOCOL_DEFINITION ( 'international standard', 'config_control_design', 1994, #157 ) ;
#142 = CARTESIAN_POINT ( 'NONE',  ( 2.357818108491694700, -2.344646326553702300, 0.6209160541100130500 ) ) ;
#143 = CARTESIAN_POINT ( 'NONE',  ( 2.664535259100380000E-015, -1.776356839400250100E-015, -12.97000000000000100 ) ) ;
#144 = PLANE ( 'NONE',  #201 ) ;
#145 = CYLINDRICAL_SURFACE ( 'NONE', #93, 6.349999999999999600 ) ;
#146 = EDGE_LOOP ( 'NONE', ( #192, #171, #57 ) ) ;
#147 = EDGE_CURVE ( 'NONE', #6, #71, #200, .T. ) ;
#148 = SECURITY_CLASSIFICATION ( '', '', #68 ) ;
#149 = EDGE_LOOP ( 'NONE', ( #45, #178, #189 ) ) ;
#150 = PERSON_AND_ORGANIZATION_ROLE ( 'classification_officer' ) ;
#151 = CARTESIAN_POINT ( 'NONE',  ( -2.357818108491696000, 2.344646326553698300, 0.6209160541100111600 ) ) ;
#152 = APPROVAL_ROLE ( '' ) ;
#153 = CIRCLE ( 'NONE', #216, 12.97000000000000100 ) ;
#154 = AXIS2_PLACEMENT_3D ( 'NONE', #77, #235, #99 ) ;
#155 = PRODUCT_DEFINITION_SHAPE ( 'NONE', 'NONE',  #187 ) ;
#156 = ADVANCED_FACE ( 'NONE', ( #135 ), #144, .T. ) ;
#157 = APPLICATION_CONTEXT ( 'configuration controlled 3d designs of mechanical parts and assemblies' ) ;
#158 = ADVANCED_FACE ( 'NONE', ( #101 ), #82, .F. ) ;
#159 =( NAMED_UNIT ( * ) SI_UNIT ( $, .STERADIAN. ) SOLID_ANGLE_UNIT ( ) );
#160 = ORIENTED_EDGE ( 'NONE', *, *, #208, .T. ) ;
#161 = APPROVAL ( #188, 'UNSPECIFIED' ) ;
#162 = CARTESIAN_POINT ( 'NONE',  ( 2.357818108491694700, 2.344646326553698300, 0.6209160541100124900 ) ) ;
#163 = EDGE_CURVE ( 'NONE', #71, #92, #47, .T. ) ;
#164 = LOCAL_TIME ( 9, 55, 14.00000000000000000, #209 ) ;
#165 = CARTESIAN_POINT ( 'NONE',  ( -6.349999999999999600, 1.998896044546239400E-015, 1.899999999999999700 ) ) ;
#166 = DIRECTION ( 'NONE',  ( 1.000000000000000000, 0.0000000000000000000, 0.0000000000000000000 ) ) ;
#167 = CARTESIAN_POINT ( 'NONE',  ( 2.664535259100380000E-015, 6.349999999999992500, -1.660782520439349600 ) ) ;
#168 = FACE_OUTER_BOUND ( 'NONE', #20, .T. ) ;
#169 = AXIS2_PLACEMENT_3D ( 'NONE', #134, #174, #133 ) ;
#170 = COORDINATED_UNIVERSAL_TIME_OFFSET ( 2, 0, .AHEAD. ) ;
#171 = ORIENTED_EDGE ( 'NONE', *, *, #147, .F. ) ;
#172 = APPROVAL_STATUS ( 'not_yet_approved' ) ;
#173 = CARTESIAN_POINT ( 'NONE',  ( -3.845969346435337500, -6.419312293552749800, -2.197601519350418800 ) ) ;
#174 = DIRECTION ( 'NONE',  ( 0.0000000000000000000, 0.0000000000000000000, 1.000000000000000000 ) ) ;
#175 = CARTESIAN_POINT ( 'NONE',  ( -1.734723475976807100E-015, -2.344646326553702300, 0.6209160541100124900 ) ) ;
#176 = LINE ( 'NONE', #214, #11 ) ;
#177 = LOCAL_TIME ( 9, 55, 14.00000000000000000, #219 ) ;
#178 = ORIENTED_EDGE ( 'NONE', *, *, #30, .T. ) ;
#179 = CIRCLE ( 'NONE', #73, 6.349999999999999600 ) ;
#180 = CARTESIAN_POINT ( 'NONE',  ( 4.637990960122817100, -2.344646326553702300, 0.02081772932003298300 ) ) ;
#181 = DATE_AND_TIME ( #38, #184 ) ;
#182 = CC_DESIGN_PERSON_AND_ORGANIZATION_ASSIGNMENT ( #204, #150, ( #148 ) ) ;
#183 = SHAPE_DEFINITION_REPRESENTATION ( #155, #37 ) ;
#184 = LOCAL_TIME ( 9, 55, 14.00000000000000000, #170 ) ;
#185 = EDGE_CURVE ( 'NONE', #6, #98, #233, .T. ) ;
#186 = LOCAL_TIME ( 9, 55, 14.00000000000000000, #125 ) ;
#187 = PRODUCT_DEFINITION ( 'UNKNOWN', '', #127, #220 ) ;
#188 = APPROVAL_STATUS ( 'not_yet_approved' ) ;
#189 = ORIENTED_EDGE ( 'NONE', *, *, #58, .F. ) ;
#190 = AXIS2_PLACEMENT_3D ( 'NONE', #128, #19, #35 ) ;
#191 = AXIS2_PLACEMENT_3D ( 'NONE', #70, #90, #230 ) ;
#192 = ORIENTED_EDGE ( 'NONE', *, *, #30, .F. ) ;
#193 = APPROVAL_DATE_TIME ( #15, #232 ) ;
#194 = CC_DESIGN_SECURITY_CLASSIFICATION ( #148, ( #127 ) ) ;
#195 = CIRCLE ( 'NONE', #44, 6.349999999999999600 ) ;
#196 = CLOSED_SHELL ( 'NONE', ( #158, #66, #29, #26, #156 ) ) ;
#197 = PERSON_AND_ORGANIZATION ( #96, #106 ) ;
#198 = DIRECTION ( 'NONE',  ( 0.0000000000000000000, 0.0000000000000000000, 1.000000000000000000 ) ) ;
#199 = DIRECTION ( 'NONE',  ( 0.0000000000000000000, 1.000000000000000000, 0.0000000000000000000 ) ) ;
#200 = CIRCLE ( 'NONE', #154, 6.349999999999999600 ) ;
#201 = AXIS2_PLACEMENT_3D ( 'NONE', #16, #1, #41 ) ;
#202 = CARTESIAN_POINT ( 'NONE',  ( -6.349999999999999600, 1.998896044546239400E-015, -1.660782520439350000 ) ) ;
#203 = DATE_TIME_ROLE ( 'classification_date' ) ;
#204 = PERSON_AND_ORGANIZATION ( #96, #106 ) ;
#205 = APPROVAL_ROLE ( '' ) ;
#206 = CARTESIAN_POINT ( 'NONE',  ( 2.498001805406600200E-016, 1.221245327087670000E-015, -1.660782520439350000 ) ) ;
#207 = CARTESIAN_POINT ( 'NONE',  ( -5.547843909813775700, -6.419312293552750700, -3.160068418679735200 ) ) ;
#208 = EDGE_CURVE ( 'NONE', #98, #131, #179, .T. ) ;
#209 = COORDINATED_UNIVERSAL_TIME_OFFSET ( 2, 0, .AHEAD. ) ;
#210 = APPLICATION_PROTOCOL_DEFINITION ( 'international standard', 'config_control_design', 1994, #10 ) ;
#211 = CARTESIAN_POINT ( 'NONE',  ( 3.845969346435335300, -6.419312293552749800, -2.197601519350416600 ) ) ;
#212 = CIRCLE ( 'NONE', #31, 6.349999999999999600 ) ;
#213 = ORIENTED_EDGE ( 'NONE', *, *, #58, .T. ) ;
#214 = CARTESIAN_POINT ( 'NONE',  ( -6.349999999999999600, 1.998896044546239400E-015, -1.660782520439350000 ) ) ;
#215 = DIRECTION ( 'NONE',  ( 1.000000000000000000, 0.0000000000000000000, 0.0000000000000000000 ) ) ;
#216 = AXIS2_PLACEMENT_3D ( 'NONE', #143, #215, #199 ) ;
#217 = DIRECTION ( 'NONE',  ( 0.0000000000000000000, 0.0000000000000000000, 1.000000000000000000 ) ) ;
#218 = CIRCLE ( 'NONE', #191, 6.349999999999999600 ) ;
#219 = COORDINATED_UNIVERSAL_TIME_OFFSET ( 2, 0, .AHEAD. ) ;
#220 = DESIGN_CONTEXT ( 'detailed design', #10, 'design' ) ;
#221 = CC_DESIGN_APPROVAL ( #22, ( #187 ) ) ;
#222 = CARTESIAN_POINT ( 'NONE',  ( -1.955177629214066300, -6.419312293552749800, -1.699980937112727200 ) ) ;
#223 = CARTESIAN_POINT ( 'NONE',  ( -6.690341909702826900, 2.344646326553697400, -1.139855270490594700 ) ) ;
#224 = CARTESIAN_POINT ( 'NONE',  ( -1.955177629214066300, 6.419312293552745400, -1.699980937112727200 ) ) ;
#225 = ORIENTED_EDGE ( 'NONE', *, *, #18, .F. ) ;
#226 = DATE_AND_TIME ( #137, #186 ) ;
#227 = CC_DESIGN_APPROVAL ( #232, ( #127 ) ) ;
#228 = VECTOR ( 'NONE', #64, 1000.000000000000000 ) ;
#229 = CC_DESIGN_PERSON_AND_ORGANIZATION_ASSIGNMENT ( #129, #8, ( #74 ) ) ;
#230 = DIRECTION ( 'NONE',  ( 1.000000000000000000, 0.0000000000000000000, 0.0000000000000000000 ) ) ;
#231 = CARTESIAN_POINT ( 'NONE',  ( 2.664535259100379600E-015, 2.344646326553697400, 0.6209160541100124900 ) ) ;
#232 = APPROVAL ( #172, 'UNSPECIFIED' ) ;
#233 = LINE ( 'NONE', #23, #228 ) ;
#234 = EDGE_LOOP ( 'NONE', ( #225, #213, #116, #120, #160 ) ) ;
#235 = DIRECTION ( 'NONE',  ( 0.0000000000000000000, 0.0000000000000000000, 1.000000000000000000 ) ) ;
ENDSEC;
END-ISO-10303-21;
