ISO-10303-21;
HEADER;
FILE_DESCRIPTION (( 'STEP AP203' ),
    '1' );
FILE_NAME ('111-1550E UVFS bi-cx 50.8 F1000.STEP',
    '2019-01-08T12:13:16',
    ( '' ),
    ( '' ),
    'SwSTEP 2.0',
    'SolidWorks 2017',
    '' );
FILE_SCHEMA (( 'CONFIG_CONTROL_DESIGN' ));
ENDSEC;

DATA;
#1 = DIRECTION ( 'NONE',  ( -1.000000000000000000, 0.0000000000000000000, 0.0000000000000000000 ) ) ;
#2 = VERTEX_POINT ( 'NONE', #38 ) ;
#3 = CARTESIAN_POINT ( 'NONE',  ( 8.515624389082924800, -25.70472622325589300, 5.652621098447441200 ) ) ;
#4 = CARTESIAN_POINT ( 'NONE',  ( 0.0000000000000000000, 25.39999999999920600, 5.660810003230761100 ) ) ;
#5 = CARTESIAN_POINT ( 'NONE',  ( 2.324529457808921500E-013, -25.70472622325588900, 5.652621098447443000 ) ) ;
#6 = CARTESIAN_POINT ( 'NONE',  ( 25.55547477748016800, -8.570328667745322100, 5.772507125898593800 ) ) ;
#7 = PRODUCT_DEFINITION_SHAPE ( 'NONE', 'NONE',  #169 ) ;
#8 = DATE_AND_TIME ( #191, #64 ) ;
#9 = CARTESIAN_POINT ( 'NONE',  ( -25.55547477747954900, -8.570328667745322100, 5.772507125898542300 ) ) ;
#10 = CARTESIAN_POINT ( 'NONE',  ( 0.0000000000000000000, 25.70472622325590700, 0.3473789015526751500 ) ) ;
#11 = DIRECTION ( 'NONE',  ( 1.000000000000000000, 0.0000000000000000000, 0.0000000000000000000 ) ) ;
#12 = ORIENTED_EDGE ( 'NONE', *, *, #152, .T. ) ;
#13 = CARTESIAN_POINT ( 'NONE',  ( -25.39999999999999900, 7.995584178184967200E-015, 0.3391899967692970100 ) ) ;
#14 =( BOUNDED_SURFACE ( )  B_SPLINE_SURFACE ( 3, 3, ( 
 ( #69, #286, #170, #49 ),
 ( #146, #24, #192, #9 ),
 ( #94, #265, #195, #56 ),
 ( #285, #168, #29, #220 ) ),
 .UNSPECIFIED., .F., .F., .F. ) 
 B_SPLINE_SURFACE_WITH_KNOTS ( ( 4, 4 ),
 ( 4, 4 ),
 ( 0.0000000000000000000, 1.000000000000000000 ),
 ( 0.0000000000000000000, 1.000000000000000000 ),
 .UNSPECIFIED. ) 
 GEOMETRIC_REPRESENTATION_ITEM ( )  RATIONAL_B_SPLINE_SURFACE ( (
 ( 1.000000000000000000, 0.9999398500615793700, 0.9999398500615793700, 1.000000000000000000),
 ( 0.9997565328696715900, 0.9996963975757838800, 0.9996963975757838800, 0.9997565328696715900),
 ( 0.9997565328696715900, 0.9996963975757838800, 0.9996963975757838800, 0.9997565328696715900),
 ( 1.000000000000000000, 0.9999398500615793700, 0.9999398500615793700, 1.000000000000000000) ) ) 
 REPRESENTATION_ITEM ( '' )  SURFACE ( )  );
#15 = COORDINATED_UNIVERSAL_TIME_OFFSET ( 2, 0, .AHEAD. ) ;
#16 = APPROVAL_ROLE ( '' ) ;
#17 = EDGE_CURVE ( 'NONE', #2, #269, #233, .T. ) ;
#18 = APPROVAL_ROLE ( '' ) ;
#19 = ORIENTED_EDGE ( 'NONE', *, *, #239, .T. ) ;
#20 = AXIS2_PLACEMENT_3D ( 'NONE', #132, #1, #214 ) ;
#21 = APPROVAL ( #101, 'UNSPECIFIED' ) ;
#22 = CARTESIAN_POINT ( 'NONE',  ( -25.55547477748016400, -8.570328667745354100, 0.2274928741014105000 ) ) ;
#23 = CARTESIAN_POINT ( 'NONE',  ( 8.515624389082924800, 25.70472622325594300, 5.652621098447441200 ) ) ;
#24 = CARTESIAN_POINT ( 'NONE',  ( -8.519772705765209500, -8.570328667745322100, 6.115821165831087000 ) ) ;
#25 = EDGE_CURVE ( 'NONE', #2, #257, #166, .T. ) ;
#26 = ORIENTED_EDGE ( 'NONE', *, *, #293, .F. ) ;
#27 = LOCAL_TIME ( 14, 13, 16.00000000000000000, #84 ) ;
#28 = DIRECTION ( 'NONE',  ( 0.0000000000000000000, 0.0000000000000000000, 1.000000000000000000 ) ) ;
#29 = CARTESIAN_POINT ( 'NONE',  ( -17.03048045674120600, 25.70472622325594300, 5.538231925032019600 ) ) ;
#30 = PERSON_AND_ORGANIZATION_ROLE ( 'design_supplier' ) ;
#31 = FACE_OUTER_BOUND ( 'NONE', #154, .T. ) ;
#32 = CALENDAR_DATE ( 2019, 8, 1 ) ;
#33 = DIRECTION ( 'NONE',  ( -0.0000000000000000000, -0.0000000000000000000, -1.000000000000000000 ) ) ;
#34 = ORIENTED_EDGE ( 'NONE', *, *, #102, .F. ) ;
#35 = PERSON_AND_ORGANIZATION ( #79, #119 ) ;
#36 = AXIS2_PLACEMENT_3D ( 'NONE', #251, #95, #149 ) ;
#37 = ORIENTED_EDGE ( 'NONE', *, *, #82, .F. ) ;
#38 = CARTESIAN_POINT ( 'NONE',  ( 25.39999999999999900, 4.884981308350691100E-015, 0.3391899967692970100 ) ) ;
#39 = CIRCLE ( 'NONE', #127, 25.39999999999999900 ) ;
#40 = FACE_OUTER_BOUND ( 'NONE', #143, .T. ) ;
#41 = CARTESIAN_POINT ( 'NONE',  ( 25.39999999999999900, 4.884981308350691100E-015, 0.3391899967692970100 ) ) ;
#42 = CARTESIAN_POINT ( 'NONE',  ( -8.519772705765570100, -8.570328667745354100, -0.1158211658311938700 ) ) ;
#43 = VERTEX_POINT ( 'NONE', #209 ) ;
#44 = CARTESIAN_POINT ( 'NONE',  ( -25.39999999999999900, 7.995584178184967200E-015, 5.660810003230700700 ) ) ;
#45 = APPROVAL_DATE_TIME ( #78, #126 ) ;
#46 = DIRECTION ( 'NONE',  ( 1.000000000000000000, 0.0000000000000000000, 0.0000000000000000000 ) ) ;
#47 = DIRECTION ( 'NONE',  ( 0.0000000000000000000, 0.0000000000000000000, 1.000000000000000000 ) ) ;
#48 = CARTESIAN_POINT ( 'NONE',  ( -8.515624389082924800, -25.70472622325592500, 0.3473789015525640100 ) ) ;
#49 = CARTESIAN_POINT ( 'NONE',  ( -25.54303169877153200, -25.70472622325588900, 5.309474219706571000 ) ) ;
#50 = LOCAL_TIME ( 14, 13, 16.00000000000000000, #176 ) ;
#51 = CARTESIAN_POINT ( 'NONE',  ( 17.03048045674120600, 25.70472622325591100, 0.4617680749679866600 ) ) ;
#52 = CARTESIAN_POINT ( 'NONE',  ( 17.03048045674120600, -25.70472622325592500, 0.4617680749679866600 ) ) ;
#53 = CARTESIAN_POINT ( 'NONE',  ( 25.55547477747955300, 8.570328667745339900, 0.2274928741014599100 ) ) ;
#54 =( BOUNDED_SURFACE ( )  B_SPLINE_SURFACE ( 3, 3, ( 
 ( #235, #274, #3, #5 ),
 ( #6, #135, #262, #133 ),
 ( #261, #217, #277, #190 ),
 ( #241, #114, #23, #237 ) ),
 .UNSPECIFIED., .F., .F., .F. ) 
 B_SPLINE_SURFACE_WITH_KNOTS ( ( 4, 4 ),
 ( 4, 4 ),
 ( 0.0000000000000000000, 1.000000000000000000 ),
 ( 0.0000000000000000000, 1.000000000000000000 ),
 .UNSPECIFIED. ) 
 GEOMETRIC_REPRESENTATION_ITEM ( )  RATIONAL_B_SPLINE_SURFACE ( (
 ( 1.000000000000000000, 0.9999398500615793700, 0.9999398500615793700, 1.000000000000000000),
 ( 0.9997565328696715900, 0.9996963975757838800, 0.9996963975757838800, 0.9997565328696715900),
 ( 0.9997565328696715900, 0.9996963975757838800, 0.9996963975757838800, 0.9997565328696715900),
 ( 1.000000000000000000, 0.9999398500615793700, 0.9999398500615793700, 1.000000000000000000) ) ) 
 REPRESENTATION_ITEM ( '' )  SURFACE ( )  );
#55 = APPROVAL_PERSON_ORGANIZATION ( #111, #126, #77 ) ;
#56 = CARTESIAN_POINT ( 'NONE',  ( -25.55547477747954900, 8.570328667745371800, 5.772507125898545900 ) ) ;
#57 = DATE_TIME_ROLE ( 'creation_date' ) ;
#58 = VECTOR ( 'NONE', #108, 1000.000000000000000 ) ;
#59 = FACE_OUTER_BOUND ( 'NONE', #136, .T. ) ;
#60 = EDGE_CURVE ( 'NONE', #43, #2, #295, .T. ) ;
#61 = APPLICATION_PROTOCOL_DEFINITION ( 'international standard', 'config_control_design', 1994, #290 ) ;
#62 = ORIENTED_EDGE ( 'NONE', *, *, #17, .F. ) ;
#63 = MANIFOLD_SOLID_BREP ( 'Imported1', #287 ) ;
#64 = LOCAL_TIME ( 14, 13, 16.00000000000000000, #15 ) ;
#65 = DESIGN_CONTEXT ( 'detailed design', #290, 'design' ) ;
#66 = AXIS2_PLACEMENT_3D ( 'NONE', #283, #28, #222 ) ;
#67 = CARTESIAN_POINT ( 'NONE',  ( -2.324529457808921500E-013, -25.70472622325592100, 0.3473789015525620100 ) ) ;
#68 = CARTESIAN_POINT ( 'NONE',  ( -8.515624389082924800, 25.70472622325591100, 0.3473789015525640100 ) ) ;
#69 = CARTESIAN_POINT ( 'NONE',  ( 0.0000000000000000000, -25.70472622325588900, 5.652621098447330200 ) ) ;
#70 = LINE ( 'NONE', #117, #93 ) ;
#71 = DIRECTION ( 'NONE',  ( 1.000000000000000000, 0.0000000000000000000, 0.0000000000000000000 ) ) ;
#72 = EDGE_CURVE ( 'NONE', #106, #99, #243, .T. ) ;
#73 = CARTESIAN_POINT ( 'NONE',  ( 17.03877671582500900, 8.570328667745339900, -0.001376268666731150500 ) ) ;
#74 = CARTESIAN_POINT ( 'NONE',  ( 0.0000000000000000000, 8.570328667745339900, -0.1158211658310845200 ) ) ;
#75 = CARTESIAN_POINT ( 'NONE',  ( 8.515624389082564200, 25.70472622325591100, 0.3473789015526751500 ) ) ;
#76 = ADVANCED_FACE ( 'NONE', ( #97 ), #54, .T. ) ;
#77 = APPROVAL_ROLE ( '' ) ;
#78 = DATE_AND_TIME ( #292, #184 ) ;
#79 = PERSON ( 'UNSPECIFIED', 'UNSPECIFIED', 'UNSPECIFIED', ('UNSPECIFIED'), ('UNSPECIFIED'), ('UNSPECIFIED') ) ;
#80 = ADVANCED_BREP_SHAPE_REPRESENTATION ( '111-1550E UVFS bi-cx 50.8 F1000', ( #63, #36 ), #266 ) ;
#81 = AXIS2_PLACEMENT_3D ( 'NONE', #288, #173, #221 ) ;
#82 = EDGE_CURVE ( 'NONE', #122, #106, #39, .T. ) ;
#83 = DIRECTION ( 'NONE',  ( -0.0000000000000000000, -0.0000000000000000000, -1.000000000000000000 ) ) ;
#84 = COORDINATED_UNIVERSAL_TIME_OFFSET ( 2, 0, .AHEAD. ) ;
#85 = CARTESIAN_POINT ( 'NONE',  ( -2.324529457808921500E-013, -8.570328667745354100, -0.1158211658311959200 ) ) ;
#86 = ORIENTED_EDGE ( 'NONE', *, *, #72, .T. ) ;
#87 = APPROVAL_PERSON_ORGANIZATION ( #225, #129, #16 ) ;
#88 = CARTESIAN_POINT ( 'NONE',  ( -25.54303169877214700, -25.70472622325592100, 0.6905257802933828500 ) ) ;
#89 = CYLINDRICAL_SURFACE ( 'NONE', #121, 25.39999999999999900 ) ;
#90 = DIRECTION ( 'NONE',  ( 1.000000000000000000, 0.0000000000000000000, 0.0000000000000000000 ) ) ;
#91 = DIRECTION ( 'NONE',  ( 0.0000000000000000000, -1.000000000000000000, 0.0000000000000000000 ) ) ;
#92 = CARTESIAN_POINT ( 'NONE',  ( 25.54303169877153600, -25.70472622325592100, 0.6905257802934340300 ) ) ;
#93 = VECTOR ( 'NONE', #193, 1000.000000000000000 ) ;
#94 = CARTESIAN_POINT ( 'NONE',  ( 0.0000000000000000000, 8.570328667745371800, 6.115821165831089700 ) ) ;
#95 = DIRECTION ( 'NONE',  ( 0.0000000000000000000, 0.0000000000000000000, 1.000000000000000000 ) ) ;
#96 = CARTESIAN_POINT ( 'NONE',  ( 9.992007221626412800E-016, 4.884981308350691100E-015, 5.660810003230700700 ) ) ;
#97 = FACE_OUTER_BOUND ( 'NONE', #207, .T. ) ;
#98 = CC_DESIGN_APPROVAL ( #129, ( #242 ) ) ;
#99 = VERTEX_POINT ( 'NONE', #4 ) ;
#100 = CIRCLE ( 'NONE', #81, 25.39999999999999900 ) ;
#101 = APPROVAL_STATUS ( 'not_yet_approved' ) ;
#102 = EDGE_CURVE ( 'NONE', #122, #99, #228, .T. ) ;
#103 =( BOUNDED_SURFACE ( )  B_SPLINE_SURFACE ( 3, 3, ( 
 ( #88, #161, #48, #67 ),
 ( #22, #188, #42, #85 ),
 ( #165, #260, #110, #162 ),
 ( #278, #215, #68, #240 ) ),
 .UNSPECIFIED., .F., .F., .T. ) 
 B_SPLINE_SURFACE_WITH_KNOTS ( ( 4, 4 ),
 ( 4, 4 ),
 ( 0.0000000000000000000, 1.000000000000000000 ),
 ( 0.0000000000000000000, 1.000000000000000000 ),
 .UNSPECIFIED. ) 
 GEOMETRIC_REPRESENTATION_ITEM ( )  RATIONAL_B_SPLINE_SURFACE ( (
 ( 1.000000000000000000, 0.9999398500615793700, 0.9999398500615793700, 1.000000000000000000),
 ( 0.9997565328696715900, 0.9996963975757838800, 0.9996963975757838800, 0.9997565328696715900),
 ( 0.9997565328696715900, 0.9996963975757838800, 0.9996963975757838800, 0.9997565328696715900),
 ( 1.000000000000000000, 0.9999398500615793700, 0.9999398500615793700, 1.000000000000000000) ) ) 
 REPRESENTATION_ITEM ( '' )  SURFACE ( )  );
#104 = ORIENTED_EDGE ( 'NONE', *, *, #112, .T. ) ;
#105 = AXIS2_PLACEMENT_3D ( 'NONE', #282, #172, #71 ) ;
#106 = VERTEX_POINT ( 'NONE', #44 ) ;
#107 = PERSON_AND_ORGANIZATION ( #79, #119 ) ;
#108 = DIRECTION ( 'NONE',  ( 0.0000000000000000000, 0.0000000000000000000, 1.000000000000000000 ) ) ;
#109 = DIRECTION ( 'NONE',  ( 1.000000000000000000, 0.0000000000000000000, 0.0000000000000000000 ) ) ;
#110 = CARTESIAN_POINT ( 'NONE',  ( -8.519772705765570100, 8.570328667745339900, -0.1158211658311956000 ) ) ;
#111 = PERSON_AND_ORGANIZATION ( #79, #119 ) ;
#112 = EDGE_CURVE ( 'NONE', #269, #43, #115, .T. ) ;
#113 = CARTESIAN_POINT ( 'NONE',  ( 0.0000000000000000000, -25.39999999999926300, 5.660810003230761100 ) ) ;
#114 = CARTESIAN_POINT ( 'NONE',  ( 17.03048045674169200, 25.70472622325594300, 5.538231925032079100 ) ) ;
#115 = CIRCLE ( 'NONE', #289, 951.2000000000000500 ) ;
#116 = ORIENTED_EDGE ( 'NONE', *, *, #25, .F. ) ;
#117 = CARTESIAN_POINT ( 'NONE',  ( -25.39999999999999900, 7.995584178184967200E-015, 0.3391899967692970100 ) ) ;
#118 = APPROVAL_PERSON_ORGANIZATION ( #107, #21, #18 ) ;
#119 = ORGANIZATION ( 'UNSPECIFIED', 'UNSPECIFIED', '' ) ;
#120 = CARTESIAN_POINT ( 'NONE',  ( 25.39999999999999900, 4.884981308350691100E-015, 5.660810003230700700 ) ) ;
#121 = AXIS2_PLACEMENT_3D ( 'NONE', #279, #47, #46 ) ;
#122 = VERTEX_POINT ( 'NONE', #113 ) ;
#123 = APPLICATION_CONTEXT ( 'configuration controlled 3d designs of mechanical parts and assemblies' ) ;
#124 = ADVANCED_FACE ( 'NONE', ( #156 ), #103, .T. ) ;
#125 = ADVANCED_FACE ( 'NONE', ( #40 ), #89, .T. ) ;
#126 = APPROVAL ( #268, 'UNSPECIFIED' ) ;
#127 = AXIS2_PLACEMENT_3D ( 'NONE', #137, #140, #244 ) ;
#128 = PERSON_AND_ORGANIZATION ( #79, #119 ) ;
#129 = APPROVAL ( #201, 'UNSPECIFIED' ) ;
#130 = DIRECTION ( 'NONE',  ( 1.000000000000000000, 0.0000000000000000000, 0.0000000000000000000 ) ) ;
#131 = EDGE_CURVE ( 'NONE', #269, #189, #100, .T. ) ;
#132 = CARTESIAN_POINT ( 'NONE',  ( 0.0000000000000000000, -5.684341886080800200E-014, -945.2000000000000500 ) ) ;
#133 = CARTESIAN_POINT ( 'NONE',  ( 2.359223927328457600E-013, -8.570328667745322100, 6.115821165831199800 ) ) ;
#134 = UNCERTAINTY_MEASURE_WITH_UNIT (LENGTH_MEASURE( 1.000000000000000100E-005 ), #174, 'distance_accuracy_value', 'NONE');
#135 = CARTESIAN_POINT ( 'NONE',  ( 17.03877671582549500, -8.570328667745322100, 6.001376268666795100 ) ) ;
#136 = EDGE_LOOP ( 'NONE', ( #259, #104, #180 ) ) ;
#137 = CARTESIAN_POINT ( 'NONE',  ( 9.992007221626412800E-016, 4.884981308350691100E-015, 5.660810003230700700 ) ) ;
#138 = CC_DESIGN_PERSON_AND_ORGANIZATION_ASSIGNMENT ( #153, #148, ( #242 ) ) ;
#139 = COORDINATED_UNIVERSAL_TIME_OFFSET ( 2, 0, .AHEAD. ) ;
#140 = DIRECTION ( 'NONE',  ( -0.0000000000000000000, -0.0000000000000000000, -1.000000000000000000 ) ) ;
#141 = CARTESIAN_POINT ( 'NONE',  ( 0.0000000000000000000, -25.70472622325592100, 0.3473789015526751500 ) ) ;
#142 = CARTESIAN_POINT ( 'NONE',  ( 25.55547477747955300, -8.570328667745354100, 0.2274928741014616300 ) ) ;
#143 = EDGE_LOOP ( 'NONE', ( #238, #167, #62, #194, #182, #204 ) ) ;
#144 = CARTESIAN_POINT ( 'NONE',  ( 17.03877671582500900, -8.570328667745354100, -0.001376268666729416000 ) ) ;
#145 = CC_DESIGN_APPROVAL ( #21, ( #250 ) ) ;
#146 = CARTESIAN_POINT ( 'NONE',  ( 0.0000000000000000000, -8.570328667745322100, 6.115821165831086100 ) ) ;
#147 = ADVANCED_FACE ( 'NONE', ( #31 ), #14, .T. ) ;
#148 = PERSON_AND_ORGANIZATION_ROLE ( 'classification_officer' ) ;
#149 = DIRECTION ( 'NONE',  ( 1.000000000000000000, 0.0000000000000000000, 0.0000000000000000000 ) ) ;
#150 = CC_DESIGN_SECURITY_CLASSIFICATION ( #242, ( #250 ) ) ;
#151 = EDGE_LOOP ( 'NONE', ( #208, #183, #19 ) ) ;
#152 = EDGE_CURVE ( 'NONE', #189, #106, #70, .T. ) ;
#153 = PERSON_AND_ORGANIZATION ( #79, #119 ) ;
#154 = EDGE_LOOP ( 'NONE', ( #37, #256, #275 ) ) ;
#155 = APPROVAL_DATE_TIME ( #271, #129 ) ;
#156 = FACE_OUTER_BOUND ( 'NONE', #151, .T. ) ;
#157 = ORIENTED_EDGE ( 'NONE', *, *, #232, .F. ) ;
#158 = DIRECTION ( 'NONE',  ( -0.0000000000000000000, -0.0000000000000000000, -1.000000000000000000 ) ) ;
#159 = COORDINATED_UNIVERSAL_TIME_OFFSET ( 2, 0, .AHEAD. ) ;
#160 = CC_DESIGN_PERSON_AND_ORGANIZATION_ASSIGNMENT ( #35, #227, ( #250 ) ) ;
#161 = CARTESIAN_POINT ( 'NONE',  ( -17.03048045674169200, -25.70472622325592500, 0.4617680749679265500 ) ) ;
#162 = CARTESIAN_POINT ( 'NONE',  ( -2.324529457808921500E-013, 8.570328667745339900, -0.1158211658311976600 ) ) ;
#163 = CC_DESIGN_PERSON_AND_ORGANIZATION_ASSIGNMENT ( #276, #30, ( #250 ) ) ;
#164 = CARTESIAN_POINT ( 'NONE',  ( 0.0000000000000000000, -5.684341886080800200E-014, 951.2000000000000500 ) ) ;
#165 = CARTESIAN_POINT ( 'NONE',  ( -25.55547477748016400, 8.570328667745339900, 0.2274928741014087500 ) ) ;
#166 = LINE ( 'NONE', #41, #58 ) ;
#167 = ORIENTED_EDGE ( 'NONE', *, *, #131, .F. ) ;
#168 = CARTESIAN_POINT ( 'NONE',  ( -8.515624389082564200, 25.70472622325594300, 5.652621098447330200 ) ) ;
#169 = PRODUCT_DEFINITION ( 'UNKNOWN', '', #250, #65 ) ;
#170 = CARTESIAN_POINT ( 'NONE',  ( -17.03048045674120200, -25.70472622325589300, 5.538231925032019600 ) ) ;
#171 = CARTESIAN_POINT ( 'NONE',  ( 25.54303169877153600, 25.70472622325590700, 0.6905257802934340300 ) ) ;
#172 = DIRECTION ( 'NONE',  ( -0.0000000000000000000, -0.0000000000000000000, -1.000000000000000000 ) ) ;
#173 = DIRECTION ( 'NONE',  ( -0.0000000000000000000, -0.0000000000000000000, -1.000000000000000000 ) ) ;
#174 =( LENGTH_UNIT ( ) NAMED_UNIT ( * ) SI_UNIT ( .MILLI., .METRE. ) );
#175 =( NAMED_UNIT ( * ) PLANE_ANGLE_UNIT ( ) SI_UNIT ( $, .RADIAN. ) );
#176 = COORDINATED_UNIVERSAL_TIME_OFFSET ( 2, 0, .AHEAD. ) ;
#177 = CYLINDRICAL_SURFACE ( 'NONE', #66, 25.39999999999999900 ) ;
#178 =( NAMED_UNIT ( * ) SI_UNIT ( $, .STERADIAN. ) SOLID_ANGLE_UNIT ( ) );
#179 = DATE_TIME_ROLE ( 'classification_date' ) ;
#180 = ORIENTED_EDGE ( 'NONE', *, *, #60, .T. ) ;
#181 = PERSON_AND_ORGANIZATION ( #79, #119 ) ;
#182 = ORIENTED_EDGE ( 'NONE', *, *, #293, .T. ) ;
#183 = ORIENTED_EDGE ( 'NONE', *, *, #131, .T. ) ;
#184 = LOCAL_TIME ( 14, 13, 16.00000000000000000, #159 ) ;
#185 = AXIS2_PLACEMENT_3D ( 'NONE', #96, #33, #203 ) ;
#186 = AXIS2_PLACEMENT_3D ( 'NONE', #213, #294, #187 ) ;
#187 = DIRECTION ( 'NONE',  ( 1.000000000000000000, 0.0000000000000000000, 0.0000000000000000000 ) ) ;
#188 = CARTESIAN_POINT ( 'NONE',  ( -17.03877671582549200, -8.570328667745354100, -0.001376268666789480800 ) ) ;
#189 = VERTEX_POINT ( 'NONE', #13 ) ;
#190 = CARTESIAN_POINT ( 'NONE',  ( 2.324529457808921500E-013, 8.570328667745371800, 6.115821165831202500 ) ) ;
#191 = CALENDAR_DATE ( 2019, 8, 1 ) ;
#192 = CARTESIAN_POINT ( 'NONE',  ( -17.03877671582500500, -8.570328667745322100, 6.001376268666734700 ) ) ;
#193 = DIRECTION ( 'NONE',  ( 0.0000000000000000000, 0.0000000000000000000, 1.000000000000000000 ) ) ;
#194 = ORIENTED_EDGE ( 'NONE', *, *, #25, .T. ) ;
#195 = CARTESIAN_POINT ( 'NONE',  ( -17.03877671582500500, 8.570328667745371800, 6.001376268666737300 ) ) ;
#196 = CARTESIAN_POINT ( 'NONE',  ( 8.519772705765209500, -8.570328667745354100, -0.1158211658310828000 ) ) ;
#197 =( BOUNDED_SURFACE ( )  B_SPLINE_SURFACE ( 3, 3, ( 
 ( #141, #218, #52, #92 ),
 ( #263, #196, #144, #142 ),
 ( #74, #249, #73, #53 ),
 ( #10, #75, #51, #171 ) ),
 .UNSPECIFIED., .F., .F., .T. ) 
 B_SPLINE_SURFACE_WITH_KNOTS ( ( 4, 4 ),
 ( 4, 4 ),
 ( 0.0000000000000000000, 1.000000000000000000 ),
 ( 0.0000000000000000000, 1.000000000000000000 ),
 .UNSPECIFIED. ) 
 GEOMETRIC_REPRESENTATION_ITEM ( )  RATIONAL_B_SPLINE_SURFACE ( (
 ( 1.000000000000000000, 0.9999398500615793700, 0.9999398500615793700, 1.000000000000000000),
 ( 0.9997565328696715900, 0.9996963975757838800, 0.9996963975757838800, 0.9997565328696715900),
 ( 0.9997565328696715900, 0.9996963975757838800, 0.9996963975757838800, 0.9997565328696715900),
 ( 1.000000000000000000, 0.9999398500615793700, 0.9999398500615793700, 1.000000000000000000) ) ) 
 REPRESENTATION_ITEM ( '' )  SURFACE ( )  );
#198 = CC_DESIGN_APPROVAL ( #126, ( #169 ) ) ;
#199 = ORIENTED_EDGE ( 'NONE', *, *, #232, .T. ) ;
#200 = PERSON_AND_ORGANIZATION_ROLE ( 'design_owner' ) ;
#201 = APPROVAL_STATUS ( 'not_yet_approved' ) ;
#202 = CC_DESIGN_DATE_AND_TIME_ASSIGNMENT ( #8, #57, ( #169 ) ) ;
#203 = DIRECTION ( 'NONE',  ( 1.000000000000000000, 0.0000000000000000000, 0.0000000000000000000 ) ) ;
#204 = ORIENTED_EDGE ( 'NONE', *, *, #82, .T. ) ;
#205 = PRODUCT ( '111-1550E UVFS bi-cx 50.8 F1000', '111-1550E UVFS bi-cx 50.8 F1000', '', ( #255 ) ) ;
#206 = AXIS2_PLACEMENT_3D ( 'NONE', #258, #83, #130 ) ;
#207 = EDGE_LOOP ( 'NONE', ( #34, #26, #157 ) ) ;
#208 = ORIENTED_EDGE ( 'NONE', *, *, #112, .F. ) ;
#209 = CARTESIAN_POINT ( 'NONE',  ( 0.0000000000000000000, 25.39999999999920600, 0.3391899967692408900 ) ) ;
#210 = CC_DESIGN_PERSON_AND_ORGANIZATION_ASSIGNMENT ( #181, #200, ( #205 ) ) ;
#211 = ORIENTED_EDGE ( 'NONE', *, *, #239, .F. ) ;
#212 = DATE_AND_TIME ( #270, #27 ) ;
#213 = CARTESIAN_POINT ( 'NONE',  ( 9.992007221626412800E-016, 4.884981308350691100E-015, 0.3391899967692970100 ) ) ;
#214 = DIRECTION ( 'NONE',  ( 0.0000000000000000000, -1.000000000000000000, 7.003088885356328000E-016 ) ) ;
#215 = CARTESIAN_POINT ( 'NONE',  ( -17.03048045674169200, 25.70472622325591100, 0.4617680749679265500 ) ) ;
#216 = CC_DESIGN_DATE_AND_TIME_ASSIGNMENT ( #212, #179, ( #242 ) ) ;
#217 = CARTESIAN_POINT ( 'NONE',  ( 17.03877671582549200, 8.570328667745371800, 6.001376268666797700 ) ) ;
#218 = CARTESIAN_POINT ( 'NONE',  ( 8.515624389082564200, -25.70472622325592500, 0.3473789015526751500 ) ) ;
#219 = EDGE_LOOP ( 'NONE', ( #211, #12, #86, #199, #116, #264 ) ) ;
#220 = CARTESIAN_POINT ( 'NONE',  ( -25.54303169877153600, 25.70472622325593900, 5.309474219706571000 ) ) ;
#221 = DIRECTION ( 'NONE',  ( 1.000000000000000000, 0.0000000000000000000, 0.0000000000000000000 ) ) ;
#222 = DIRECTION ( 'NONE',  ( 1.000000000000000000, 0.0000000000000000000, 0.0000000000000000000 ) ) ;
#223 = AXIS2_PLACEMENT_3D ( 'NONE', #236, #158, #109 ) ;
#224 = DIRECTION ( 'NONE',  ( -0.0000000000000000000, -0.0000000000000000000, -1.000000000000000000 ) ) ;
#225 = PERSON_AND_ORGANIZATION ( #79, #119 ) ;
#226 = SECURITY_CLASSIFICATION_LEVEL ( 'unclassified' ) ;
#227 = PERSON_AND_ORGANIZATION_ROLE ( 'creator' ) ;
#228 = CIRCLE ( 'NONE', #20, 951.2000000000000500 ) ;
#229 = APPLICATION_PROTOCOL_DEFINITION ( 'international standard', 'config_control_design', 1994, #123 ) ;
#230 = CC_DESIGN_PERSON_AND_ORGANIZATION_ASSIGNMENT ( #128, #267, ( #169 ) ) ;
#231 = SHAPE_DEFINITION_REPRESENTATION ( #7, #80 ) ;
#232 = EDGE_CURVE ( 'NONE', #99, #257, #280, .T. ) ;
#233 = CIRCLE ( 'NONE', #186, 25.39999999999999900 ) ;
#234 = DATE_AND_TIME ( #291, #50 ) ;
#235 = CARTESIAN_POINT ( 'NONE',  ( 25.54303169877214700, -25.70472622325588900, 5.309474219706622500 ) ) ;
#236 = CARTESIAN_POINT ( 'NONE',  ( 9.992007221626412800E-016, 4.884981308350691100E-015, 5.660810003230700700 ) ) ;
#237 = CARTESIAN_POINT ( 'NONE',  ( 2.324529457808921500E-013, 25.70472622325593900, 5.652621098447443000 ) ) ;
#238 = ORIENTED_EDGE ( 'NONE', *, *, #152, .F. ) ;
#239 = EDGE_CURVE ( 'NONE', #189, #43, #272, .T. ) ;
#240 = CARTESIAN_POINT ( 'NONE',  ( -2.324529457808921500E-013, 25.70472622325590700, 0.3473789015525620100 ) ) ;
#241 = CARTESIAN_POINT ( 'NONE',  ( 25.54303169877214700, 25.70472622325593900, 5.309474219706622500 ) ) ;
#242 = SECURITY_CLASSIFICATION ( '', '', #226 ) ;
#243 = CIRCLE ( 'NONE', #223, 25.39999999999999900 ) ;
#244 = DIRECTION ( 'NONE',  ( 1.000000000000000000, 0.0000000000000000000, 0.0000000000000000000 ) ) ;
#245 = CIRCLE ( 'NONE', #185, 25.39999999999999900 ) ;
#246 = CARTESIAN_POINT ( 'NONE',  ( 0.0000000000000000000, -25.39999999999926300, 0.3391899967692408900 ) ) ;
#247 = CARTESIAN_POINT ( 'NONE',  ( 9.992007221626412800E-016, 4.884981308350691100E-015, 5.660810003230700700 ) ) ;
#248 = ADVANCED_FACE ( 'NONE', ( #59 ), #197, .T. ) ;
#249 = CARTESIAN_POINT ( 'NONE',  ( 8.519772705765209500, 8.570328667745339900, -0.1158211658310845400 ) ) ;
#250 = PRODUCT_DEFINITION_FORMATION_WITH_SPECIFIED_SOURCE ( 'ANY', '', #205, .NOT_KNOWN. ) ;
#251 = CARTESIAN_POINT ( 'NONE',  ( 0.0000000000000000000, 0.0000000000000000000, 0.0000000000000000000 ) ) ;
#252 = PRODUCT_RELATED_PRODUCT_CATEGORY ( 'detail', '', ( #205 ) ) ;
#253 = ADVANCED_FACE ( 'NONE', ( #254 ), #177, .T. ) ;
#254 = FACE_OUTER_BOUND ( 'NONE', #219, .T. ) ;
#255 = MECHANICAL_CONTEXT ( 'NONE', #123, 'mechanical' ) ;
#256 = ORIENTED_EDGE ( 'NONE', *, *, #102, .T. ) ;
#257 = VERTEX_POINT ( 'NONE', #120 ) ;
#258 = CARTESIAN_POINT ( 'NONE',  ( 9.992007221626412800E-016, 4.884981308350691100E-015, 0.3391899967692970100 ) ) ;
#259 = ORIENTED_EDGE ( 'NONE', *, *, #17, .T. ) ;
#260 = CARTESIAN_POINT ( 'NONE',  ( -17.03877671582549200, 8.570328667745339900, -0.001376268666791215300 ) ) ;
#261 = CARTESIAN_POINT ( 'NONE',  ( 25.55547477748016400, 8.570328667745371800, 5.772507125898596500 ) ) ;
#262 = CARTESIAN_POINT ( 'NONE',  ( 8.519772705765573700, -8.570328667745322100, 6.115821165831198900 ) ) ;
#263 = CARTESIAN_POINT ( 'NONE',  ( 0.0000000000000000000, -8.570328667745354100, -0.1158211658310827900 ) ) ;
#264 = ORIENTED_EDGE ( 'NONE', *, *, #60, .F. ) ;
#265 = CARTESIAN_POINT ( 'NONE',  ( -8.519772705765209500, 8.570328667745371800, 6.115821165831090600 ) ) ;
#266 =( GEOMETRIC_REPRESENTATION_CONTEXT ( 3 ) GLOBAL_UNCERTAINTY_ASSIGNED_CONTEXT ( ( #134 ) ) GLOBAL_UNIT_ASSIGNED_CONTEXT ( ( #174, #175, #178 ) ) REPRESENTATION_CONTEXT ( 'NONE', 'WORKASPACE' ) );
#267 = PERSON_AND_ORGANIZATION_ROLE ( 'creator' ) ;
#268 = APPROVAL_STATUS ( 'not_yet_approved' ) ;
#269 = VERTEX_POINT ( 'NONE', #246 ) ;
#270 = CALENDAR_DATE ( 2019, 8, 1 ) ;
#271 = DATE_AND_TIME ( #32, #281 ) ;
#272 = CIRCLE ( 'NONE', #105, 25.39999999999999900 ) ;
#273 = AXIS2_PLACEMENT_3D ( 'NONE', #247, #224, #11 ) ;
#274 = CARTESIAN_POINT ( 'NONE',  ( 17.03048045674169200, -25.70472622325589300, 5.538231925032079100 ) ) ;
#275 = ORIENTED_EDGE ( 'NONE', *, *, #72, .F. ) ;
#276 = PERSON_AND_ORGANIZATION ( #79, #119 ) ;
#277 = CARTESIAN_POINT ( 'NONE',  ( 8.519772705765570100, 8.570328667745371800, 6.115821165831201600 ) ) ;
#278 = CARTESIAN_POINT ( 'NONE',  ( -25.54303169877214700, 25.70472622325590700, 0.6905257802933828500 ) ) ;
#279 = CARTESIAN_POINT ( 'NONE',  ( 9.992007221626412800E-016, 4.884981308350691100E-015, 0.3391899967692970100 ) ) ;
#280 = CIRCLE ( 'NONE', #273, 25.39999999999999900 ) ;
#281 = LOCAL_TIME ( 14, 13, 16.00000000000000000, #139 ) ;
#282 = CARTESIAN_POINT ( 'NONE',  ( 9.992007221626412800E-016, 4.884981308350691100E-015, 0.3391899967692970100 ) ) ;
#283 = CARTESIAN_POINT ( 'NONE',  ( 9.992007221626412800E-016, 4.884981308350691100E-015, 0.3391899967692970100 ) ) ;
#284 = APPROVAL_DATE_TIME ( #234, #21 ) ;
#285 = CARTESIAN_POINT ( 'NONE',  ( 0.0000000000000000000, 25.70472622325593900, 5.652621098447330200 ) ) ;
#286 = CARTESIAN_POINT ( 'NONE',  ( -8.515624389082564200, -25.70472622325589300, 5.652621098447330200 ) ) ;
#287 = CLOSED_SHELL ( 'NONE', ( #248, #147, #253, #124, #125, #76 ) ) ;
#288 = CARTESIAN_POINT ( 'NONE',  ( 9.992007221626412800E-016, 4.884981308350691100E-015, 0.3391899967692970100 ) ) ;
#289 = AXIS2_PLACEMENT_3D ( 'NONE', #164, #90, #91 ) ;
#290 = APPLICATION_CONTEXT ( 'configuration controlled 3d designs of mechanical parts and assemblies' ) ;
#291 = CALENDAR_DATE ( 2019, 8, 1 ) ;
#292 = CALENDAR_DATE ( 2019, 8, 1 ) ;
#293 = EDGE_CURVE ( 'NONE', #257, #122, #245, .T. ) ;
#294 = DIRECTION ( 'NONE',  ( -0.0000000000000000000, -0.0000000000000000000, -1.000000000000000000 ) ) ;
#295 = CIRCLE ( 'NONE', #206, 25.39999999999999900 ) ;
ENDSEC;
END-ISO-10303-21;
