ISO-10303-21;
HEADER;
FILE_DESCRIPTION (( 'STEP AP203' ),
    '1' );
FILE_NAME ('111-1534E UVFS bi-cx 50.8 F500.STEP',
    '2019-01-08T12:05:07',
    ( '' ),
    ( '' ),
    'SwSTEP 2.0',
    'SolidWorks 2017',
    '' );
FILE_SCHEMA (( 'CONFIG_CONTROL_DESIGN' ));
ENDSEC;

DATA;
#1 = CARTESIAN_POINT ( 'NONE',  ( -4.440892098500630100E-016, 4.440892098500630100E-015, 0.6582122114452659800 ) ) ;
#2 = CARTESIAN_POINT ( 'NONE',  ( 16.74963468570239700, -25.29971779253228800, 5.104118685823644700 ) ) ;
#3 = EDGE_LOOP ( 'NONE', ( #130, #43, #254, #61, #86, #80 ) ) ;
#4 = CARTESIAN_POINT ( 'NONE',  ( 16.78137439978074100, 8.441223873426848100, 6.002711605865900200 ) ) ;
#5 = CARTESIAN_POINT ( 'NONE',  ( -25.16176612201052600, 8.441223873426686500, 0.4415350938475254800 ) ) ;
#6 = DIRECTION ( 'NONE',  ( 1.000000000000000000, 1.776356839400250500E-015, 0.0000000000000000000 ) ) ;
#7 = FACE_OUTER_BOUND ( 'NONE', #102, .T. ) ;
#8 = CARTESIAN_POINT ( 'NONE',  ( -4.440892098500630100E-016, 4.440892098500630100E-015, 0.6582122114452659800 ) ) ;
#9 = LOCAL_TIME ( 14, 5, 7.000000000000000000, #175 ) ;
#10 = EDGE_CURVE ( 'NONE', #268, #192, #264, .T. ) ;
#11 = DIRECTION ( 'NONE',  ( 2.446522920465759400E-016, -1.000000000000000000, -2.336819668754275900E-016 ) ) ;
#12 = PRODUCT ( '111-1534E UVFS bi-cx 50.8 F500', '111-1534E UVFS bi-cx 50.8 F500', '', ( #22 ) ) ;
#13 = DIRECTION ( 'NONE',  ( 0.0000000000000000000, 0.0000000000000000000, 1.000000000000000000 ) ) ;
#14 = LOCAL_TIME ( 14, 5, 7.000000000000000000, #71 ) ;
#15 = CARTESIAN_POINT ( 'NONE',  ( 16.78137439978042900, 8.441223873426674000, -0.002711605865820751600 ) ) ;
#16 = CARTESIAN_POINT ( 'NONE',  ( 25.16176612201013500, -8.441223873426508800, 0.4415350938475466300 ) ) ;
#17 = EDGE_CURVE ( 'NONE', #37, #138, #295, .T. ) ;
#18 = CARTESIAN_POINT ( 'NONE',  ( 8.392158277119293100, 8.441223873426677600, -0.2249128558736825900 ) ) ;
#19 = FACE_OUTER_BOUND ( 'NONE', #48, .T. ) ;
#20 = PERSON_AND_ORGANIZATION ( #258, #242 ) ;
#21 =( LENGTH_UNIT ( ) NAMED_UNIT ( * ) SI_UNIT ( .MILLI., .METRE. ) );
#22 = MECHANICAL_CONTEXT ( 'NONE', #177, 'mechanical' ) ;
#23 = AXIS2_PLACEMENT_3D ( 'NONE', #64, #36, #208 ) ;
#24 = VERTEX_POINT ( 'NONE', #25 ) ;
#25 = CARTESIAN_POINT ( 'NONE',  ( 25.00000000000000000, 4.440892098500630100E-015, 0.6582122114452659800 ) ) ;
#26 = DATE_AND_TIME ( #135, #262 ) ;
#27 = ORIENTED_EDGE ( 'NONE', *, *, #149, .F. ) ;
#28 = PERSON_AND_ORGANIZATION ( #258, #242 ) ;
#29 = PERSON_AND_ORGANIZATION_ROLE ( 'classification_officer' ) ;
#30 = AXIS2_PLACEMENT_3D ( 'NONE', #294, #63, #222 ) ;
#31 = DIRECTION ( 'NONE',  ( -0.0000000000000000000, -0.0000000000000000000, -1.000000000000000000 ) ) ;
#32 = CARTESIAN_POINT ( 'NONE',  ( 1.595945597898662500E-013, -25.29971779253229200, 5.325899672033358500 ) ) ;
#33 = FACE_OUTER_BOUND ( 'NONE', #205, .T. ) ;
#34 = CALENDAR_DATE ( 2019, 8, 1 ) ;
#35 = CARTESIAN_POINT ( 'NONE',  ( 25.16176612201053300, -8.441223873426668700, 5.558464906152525300 ) ) ;
#36 = DIRECTION ( 'NONE',  ( 0.0000000000000000000, 0.0000000000000000000, 1.000000000000000000 ) ) ;
#37 = VERTEX_POINT ( 'NONE', #269 ) ;
#38 = AXIS2_PLACEMENT_3D ( 'NONE', #216, #155, #219 ) ;
#39 = CARTESIAN_POINT ( 'NONE',  ( -16.78137439978042900, 8.441223873426839200, 6.002711605865864700 ) ) ;
#40 = CYLINDRICAL_SURFACE ( 'NONE', #23, 25.00000000000000000 ) ;
#41 = ORIENTED_EDGE ( 'NONE', *, *, #134, .T. ) ;
#42 = EDGE_CURVE ( 'NONE', #24, #154, #127, .T. ) ;
#43 = ORIENTED_EDGE ( 'NONE', *, *, #288, .F. ) ;
#44 = AXIS2_PLACEMENT_3D ( 'NONE', #8, #191, #282 ) ;
#45 = PERSON_AND_ORGANIZATION_ROLE ( 'creator' ) ;
#46 = AXIS2_PLACEMENT_3D ( 'NONE', #54, #69, #136 ) ;
#47 = FACE_OUTER_BOUND ( 'NONE', #92, .T. ) ;
#48 = EDGE_LOOP ( 'NONE', ( #214, #59, #292 ) ) ;
#49 = PRODUCT_DEFINITION_FORMATION_WITH_SPECIFIED_SOURCE ( 'ANY', '', #12, .NOT_KNOWN. ) ;
#50 = EDGE_CURVE ( 'NONE', #192, #161, #153, .T. ) ;
#51 = SECURITY_CLASSIFICATION_LEVEL ( 'unclassified' ) ;
#52 = APPROVAL_ROLE ( '' ) ;
#53 = CARTESIAN_POINT ( 'NONE',  ( 25.00000000000000000, 4.440892098500630100E-015, 5.341787788554720300 ) ) ;
#54 = CARTESIAN_POINT ( 'NONE',  ( -4.440892098500630100E-016, 4.440892098500630100E-015, 5.341787788554720300 ) ) ;
#55 = CARTESIAN_POINT ( 'NONE',  ( -1.595945597898662500E-013, -25.29971779253176200, 0.6741003279666475400 ) ) ;
#56 = VECTOR ( 'NONE', #114, 1000.000000000000000 ) ;
#57 = UNCERTAINTY_MEASURE_WITH_UNIT (LENGTH_MEASURE( 1.000000000000000100E-005 ), #21, 'distance_accuracy_value', 'NONE');
#58 = DATE_AND_TIME ( #218, #9 ) ;
#59 = ORIENTED_EDGE ( 'NONE', *, *, #244, .F. ) ;
#60 = AXIS2_PLACEMENT_3D ( 'NONE', #183, #72, #122 ) ;
#61 = ORIENTED_EDGE ( 'NONE', *, *, #42, .T. ) ;
#62 = DATE_AND_TIME ( #65, #142 ) ;
#63 = DIRECTION ( 'NONE',  ( 1.000000000000000000, -2.446522920465759900E-016, 3.583315967625219900E-017 ) ) ;
#64 = CARTESIAN_POINT ( 'NONE',  ( -4.440892098500630100E-016, 4.440892098500630100E-015, 0.6582122114452659800 ) ) ;
#65 = CALENDAR_DATE ( 2019, 8, 1 ) ;
#66 = APPROVAL_ROLE ( '' ) ;
#67 = CARTESIAN_POINT ( 'NONE',  ( 4.603287378938503100E-014, -25.29971779253229200, 5.325899672033340700 ) ) ;
#68 = CARTESIAN_POINT ( 'NONE',  ( -25.11417602340477000, -25.29971779253229900, 4.660712219031165800 ) ) ;
#69 = DIRECTION ( 'NONE',  ( -0.0000000000000000000, -0.0000000000000000000, -1.000000000000000000 ) ) ;
#70 = ORIENTED_EDGE ( 'NONE', *, *, #42, .F. ) ;
#71 = COORDINATED_UNIVERSAL_TIME_OFFSET ( 2, 0, .AHEAD. ) ;
#72 = DIRECTION ( 'NONE',  ( -0.0000000000000000000, -0.0000000000000000000, -1.000000000000000000 ) ) ;
#73 = CARTESIAN_POINT ( 'NONE',  ( -25.00000000000000000, 7.502509096369012800E-015, 5.341787788554720300 ) ) ;
#74 = ORIENTED_EDGE ( 'NONE', *, *, #17, .F. ) ;
#75 = CARTESIAN_POINT ( 'NONE',  ( -1.457167719820518000E-013, 25.29971779253194000, 0.6741003279666473200 ) ) ;
#76 = APPROVAL_PERSON_ORGANIZATION ( #227, #140, #66 ) ;
#77 = CARTESIAN_POINT ( 'NONE',  ( 3.365360589723586100E-014, 25.29971779253245900, 5.325899672033340700 ) ) ;
#78 = CC_DESIGN_PERSON_AND_ORGANIZATION_ASSIGNMENT ( #193, #221, ( #12 ) ) ;
#79 = CARTESIAN_POINT ( 'NONE',  ( -25.11417602340516800, -25.29971779253175500, 1.339287780968812000 ) ) ;
#80 = ORIENTED_EDGE ( 'NONE', *, *, #149, .T. ) ;
#81 = CARTESIAN_POINT ( 'NONE',  ( 0.0000000000000000000, 0.0000000000000000000, 0.0000000000000000000 ) ) ;
#82 = CARTESIAN_POINT ( 'NONE',  ( 16.78137439978042500, -8.441223873426507000, -0.002711605865826497900 ) ) ;
#83 = COORDINATED_UNIVERSAL_TIME_OFFSET ( 2, 0, .AHEAD. ) ;
#84 = APPROVAL_STATUS ( 'not_yet_approved' ) ;
#85 = FACE_OUTER_BOUND ( 'NONE', #265, .T. ) ;
#86 = ORIENTED_EDGE ( 'NONE', *, *, #244, .T. ) ;
#87 =( NAMED_UNIT ( * ) PLANE_ANGLE_UNIT ( ) SI_UNIT ( $, .RADIAN. ) );
#88 = EDGE_CURVE ( 'NONE', #268, #138, #272, .T. ) ;
#89 = APPROVAL_DATE_TIME ( #62, #170 ) ;
#90 = AXIS2_PLACEMENT_3D ( 'NONE', #81, #13, #110 ) ;
#91 = CARTESIAN_POINT ( 'NONE',  ( 25.00000000000000000, 4.440892098500630100E-015, 0.6582122114452659800 ) ) ;
#92 = EDGE_LOOP ( 'NONE', ( #98, #179, #41 ) ) ;
#93 = CARTESIAN_POINT ( 'NONE',  ( 8.376285637735529500, -25.29971779253228800, 5.325899672033357600 ) ) ;
#94 = CIRCLE ( 'NONE', #97, 25.00000000000000000 ) ;
#95 = CARTESIAN_POINT ( 'NONE',  ( 25.16176612201053000, 8.441223873426848100, 5.558464906152519100 ) ) ;
#96 = DIRECTION ( 'NONE',  ( -0.0000000000000000000, -0.0000000000000000000, -1.000000000000000000 ) ) ;
#97 = AXIS2_PLACEMENT_3D ( 'NONE', #250, #162, #118 ) ;
#98 = ORIENTED_EDGE ( 'NONE', *, *, #104, .T. ) ;
#99 = CARTESIAN_POINT ( 'NONE',  ( -8.392158277119552400, -8.441223873426499900, -0.2249128558737042700 ) ) ;
#100 = CARTESIAN_POINT ( 'NONE',  ( -25.00000000000000000, 7.502509096369012800E-015, 0.6582122114452659800 ) ) ;
#101 = CARTESIAN_POINT ( 'NONE',  ( -16.78137439978074500, -8.441223873426496400, -0.002711605865861842500 ) ) ;
#102 = EDGE_LOOP ( 'NONE', ( #200, #112, #151, #241, #70, #173 ) ) ;
#103 = CC_DESIGN_PERSON_AND_ORGANIZATION_ASSIGNMENT ( #28, #113, ( #49 ) ) ;
#104 = EDGE_CURVE ( 'NONE', #24, #37, #160, .T. ) ;
#105 = CARTESIAN_POINT ( 'NONE',  ( -3.774586059203074200E-014, 8.441223873426679300, -0.2249128558736829000 ) ) ;
#106 = CARTESIAN_POINT ( 'NONE',  ( 8.376285637735271900, 25.29971779253193300, 0.6741003279666650800 ) ) ;
#107 = ADVANCED_BREP_SHAPE_REPRESENTATION ( '111-1534E UVFS bi-cx 50.8 F500', ( #253, #90 ), #223 ) ;
#108 =( BOUNDED_SURFACE ( )  B_SPLINE_SURFACE ( 3, 3, ( 
 ( #278, #2, #93, #32 ),
 ( #35, #120, #277, #186 ),
 ( #95, #4, #206, #273 ),
 ( #229, #116, #270, #165 ) ),
 .UNSPECIFIED., .F., .F., .T. ) 
 B_SPLINE_SURFACE_WITH_KNOTS ( ( 4, 4 ),
 ( 4, 4 ),
 ( 0.0000000000000000000, 1.000000000000000000 ),
 ( 0.0000000000000000000, 1.000000000000000000 ),
 .UNSPECIFIED. ) 
 GEOMETRIC_REPRESENTATION_ITEM ( )  RATIONAL_B_SPLINE_SURFACE ( (
 ( 1.000000000000000000, 0.9997662774889727300, 0.9997662774889727300, 1.000000000000000000),
 ( 0.9990540934147663600, 0.9988205919834013400, 0.9988205919834013400, 0.9990540934147663600),
 ( 0.9990540934147663600, 0.9988205919834013400, 0.9988205919834013400, 0.9990540934147663600),
 ( 1.000000000000000000, 0.9997662774889727300, 0.9997662774889727300, 1.000000000000000000) ) ) 
 REPRESENTATION_ITEM ( '' )  SURFACE ( )  );
#109 = CIRCLE ( 'NONE', #38, 25.00000000000000000 ) ;
#110 = DIRECTION ( 'NONE',  ( 1.000000000000000000, 0.0000000000000000000, 0.0000000000000000000 ) ) ;
#111 = AXIS2_PLACEMENT_3D ( 'NONE', #123, #209, #11 ) ;
#112 = ORIENTED_EDGE ( 'NONE', *, *, #10, .T. ) ;
#113 = PERSON_AND_ORGANIZATION_ROLE ( 'design_supplier' ) ;
#114 = DIRECTION ( 'NONE',  ( 0.0000000000000000000, 0.0000000000000000000, 1.000000000000000000 ) ) ;
#115 = PERSON_AND_ORGANIZATION_ROLE ( 'creator' ) ;
#116 = CARTESIAN_POINT ( 'NONE',  ( 16.74963468570238200, 25.29971779253246200, 5.104118685823643800 ) ) ;
#117 = COORDINATED_UNIVERSAL_TIME_OFFSET ( 2, 0, .AHEAD. ) ;
#118 = DIRECTION ( 'NONE',  ( 1.000000000000000000, 0.0000000000000000000, 0.0000000000000000000 ) ) ;
#119 = CC_DESIGN_PERSON_AND_ORGANIZATION_ASSIGNMENT ( #20, #115, ( #49 ) ) ;
#120 = CARTESIAN_POINT ( 'NONE',  ( 16.78137439978074100, -8.441223873426670500, 6.002711605865905600 ) ) ;
#121 = ORIENTED_EDGE ( 'NONE', *, *, #225, .T. ) ;
#122 = DIRECTION ( 'NONE',  ( 1.000000000000000000, 8.881784197001252300E-016, 0.0000000000000000000 ) ) ;
#123 = CARTESIAN_POINT ( 'NONE',  ( 5.684341886080800200E-014, 1.705302565824239900E-013, -469.1000000000000200 ) ) ;
#124 = CARTESIAN_POINT ( 'NONE',  ( -25.11417602340515400, 25.29971779253194700, 1.339287780968812000 ) ) ;
#125 = CARTESIAN_POINT ( 'NONE',  ( 16.74963468570206600, -25.29971779253176600, 0.8958813141763963800 ) ) ;
#126 = CARTESIAN_POINT ( 'NONE',  ( -3.365360589723599400E-014, 25.29971779253194000, 0.6741003279666646400 ) ) ;
#127 = LINE ( 'NONE', #91, #56 ) ;
#128 = CC_DESIGN_PERSON_AND_ORGANIZATION_ASSIGNMENT ( #260, #29, ( #211 ) ) ;
#129 =( NAMED_UNIT ( * ) SI_UNIT ( $, .STERADIAN. ) SOLID_ANGLE_UNIT ( ) );
#130 = ORIENTED_EDGE ( 'NONE', *, *, #10, .F. ) ;
#131 = APPROVAL_DATE_TIME ( #148, #152 ) ;
#132 = DIRECTION ( 'NONE',  ( 0.0000000000000000000, 0.0000000000000000000, 1.000000000000000000 ) ) ;
#133 = ADVANCED_FACE ( 'NONE', ( #19 ), #108, .T. ) ;
#134 = EDGE_CURVE ( 'NONE', #138, #24, #181, .T. ) ;
#135 = CALENDAR_DATE ( 2019, 8, 1 ) ;
#136 = DIRECTION ( 'NONE',  ( 1.000000000000000000, -8.881784197001252300E-016, 0.0000000000000000000 ) ) ;
#137 = PRODUCT_DEFINITION ( 'UNKNOWN', '', #49, #150 ) ;
#138 = VERTEX_POINT ( 'NONE', #159 ) ;
#139 = APPROVAL_DATE_TIME ( #26, #140 ) ;
#140 = APPROVAL ( #267, 'UNSPECIFIED' ) ;
#141 = CARTESIAN_POINT ( 'NONE',  ( -8.392158277119296600, 8.441223873426841000, 6.224912855873726300 ) ) ;
#142 = LOCAL_TIME ( 14, 5, 7.000000000000000000, #117 ) ;
#143 = CARTESIAN_POINT ( 'NONE',  ( -25.16176612201013900, -8.441223873426681100, 5.558464906152497800 ) ) ;
#144 = CARTESIAN_POINT ( 'NONE',  ( -25.16176612201053300, -8.441223873426494600, 0.4415350938475197100 ) ) ;
#145 = DIRECTION ( 'NONE',  ( -0.0000000000000000000, -0.0000000000000000000, -1.000000000000000000 ) ) ;
#146 = CC_DESIGN_APPROVAL ( #140, ( #211 ) ) ;
#147 = FACE_OUTER_BOUND ( 'NONE', #3, .T. ) ;
#148 = DATE_AND_TIME ( #289, #195 ) ;
#149 = EDGE_CURVE ( 'NONE', #274, #192, #94, .T. ) ;
#150 = DESIGN_CONTEXT ( 'detailed design', #290, 'design' ) ;
#151 = ORIENTED_EDGE ( 'NONE', *, *, #50, .T. ) ;
#152 = APPROVAL ( #84, 'UNSPECIFIED' ) ;
#153 = CIRCLE ( 'NONE', #46, 25.00000000000000000 ) ;
#154 = VERTEX_POINT ( 'NONE', #53 ) ;
#155 = DIRECTION ( 'NONE',  ( -0.0000000000000000000, -0.0000000000000000000, -1.000000000000000000 ) ) ;
#156 = CARTESIAN_POINT ( 'NONE',  ( -25.00000000000000000, 7.502509096369012800E-015, 0.6582122114452659800 ) ) ;
#157 =( BOUNDED_SURFACE ( )  B_SPLINE_SURFACE ( 3, 3, ( 
 ( #79, #171, #238, #55 ),
 ( #144, #101, #99, #256 ),
 ( #5, #236, #261, #187 ),
 ( #124, #255, #190, #75 ) ),
 .UNSPECIFIED., .F., .F., .F. ) 
 B_SPLINE_SURFACE_WITH_KNOTS ( ( 4, 4 ),
 ( 4, 4 ),
 ( 0.0000000000000000000, 1.000000000000000000 ),
 ( 0.0000000000000000000, 1.000000000000000000 ),
 .UNSPECIFIED. ) 
 GEOMETRIC_REPRESENTATION_ITEM ( )  RATIONAL_B_SPLINE_SURFACE ( (
 ( 1.000000000000000000, 0.9997662774889727300, 0.9997662774889727300, 1.000000000000000000),
 ( 0.9990540934147663600, 0.9988205919834013400, 0.9988205919834013400, 0.9990540934147663600),
 ( 0.9990540934147663600, 0.9988205919834013400, 0.9988205919834013400, 0.9990540934147663600),
 ( 1.000000000000000000, 0.9997662774889727300, 0.9997662774889727300, 1.000000000000000000) ) ) 
 REPRESENTATION_ITEM ( '' )  SURFACE ( )  );
#158 = ADVANCED_FACE ( 'NONE', ( #85 ), #188, .T. ) ;
#159 = CARTESIAN_POINT ( 'NONE',  ( -3.372636322072981000E-014, 24.99999999999995400, 0.6582122114452536600 ) ) ;
#160 = CIRCLE ( 'NONE', #275, 25.00000000000000000 ) ;
#161 = VERTEX_POINT ( 'NONE', #204 ) ;
#162 = DIRECTION ( 'NONE',  ( -0.0000000000000000000, -0.0000000000000000000, -1.000000000000000000 ) ) ;
#163 = PERSON_AND_ORGANIZATION ( #258, #242 ) ;
#164 = ADVANCED_FACE ( 'NONE', ( #7 ), #40, .T. ) ;
#165 = CARTESIAN_POINT ( 'NONE',  ( 1.457167719820518000E-013, 25.29971779253245900, 5.325899672033359300 ) ) ;
#166 = CARTESIAN_POINT ( 'NONE',  ( 3.774586059203069700E-014, 8.441223873426841000, 6.224912855873725400 ) ) ;
#167 = CARTESIAN_POINT ( 'NONE',  ( -4.440892098500630100E-016, 4.440892098500630100E-015, 5.341787788554720300 ) ) ;
#168 = CYLINDRICAL_SURFACE ( 'NONE', #44, 25.00000000000000000 ) ;
#169 = CARTESIAN_POINT ( 'NONE',  ( -16.78137439978042900, -8.441223873426677600, 6.002711605865870900 ) ) ;
#170 = APPROVAL ( #291, 'UNSPECIFIED' ) ;
#171 = CARTESIAN_POINT ( 'NONE',  ( -16.74963468570239700, -25.29971779253175900, 0.8958813141763609700 ) ) ;
#172 = PRODUCT_RELATED_PRODUCT_CATEGORY ( 'detail', '', ( #12 ) ) ;
#173 = ORIENTED_EDGE ( 'NONE', *, *, #134, .F. ) ;
#174 = CARTESIAN_POINT ( 'NONE',  ( 16.74963468570207700, 25.29971779253193300, 0.8958813141763963800 ) ) ;
#175 = COORDINATED_UNIVERSAL_TIME_OFFSET ( 2, 0, .AHEAD. ) ;
#176 = CARTESIAN_POINT ( 'NONE',  ( 25.16176612201013900, 8.441223873426672200, 0.4415350938475524600 ) ) ;
#177 = APPLICATION_CONTEXT ( 'configuration controlled 3d designs of mechanical parts and assemblies' ) ;
#178 = APPLICATION_PROTOCOL_DEFINITION ( 'international standard', 'config_control_design', 1994, #177 ) ;
#179 = ORIENTED_EDGE ( 'NONE', *, *, #17, .T. ) ;
#180 = PERSON_AND_ORGANIZATION ( #258, #242 ) ;
#181 = CIRCLE ( 'NONE', #240, 25.00000000000000000 ) ;
#182 = DIRECTION ( 'NONE',  ( 1.000000000000000000, -1.776356839400250500E-015, 0.0000000000000000000 ) ) ;
#183 = CARTESIAN_POINT ( 'NONE',  ( -4.440892098500630100E-016, 4.440892098500630100E-015, 0.6582122114452659800 ) ) ;
#184 = CC_DESIGN_APPROVAL ( #170, ( #137 ) ) ;
#185 = ORIENTED_EDGE ( 'NONE', *, *, #50, .F. ) ;
#186 = CARTESIAN_POINT ( 'NONE',  ( 1.526556658859590500E-013, -8.441223873426674000, 6.224912855873748500 ) ) ;
#187 = CARTESIAN_POINT ( 'NONE',  ( -1.491862189340054100E-013, 8.441223873426679300, -0.2249128558737001100 ) ) ;
#188 =( BOUNDED_SURFACE ( )  B_SPLINE_SURFACE ( 3, 3, ( 
 ( #67, #252, #226, #68 ),
 ( #228, #276, #169, #143 ),
 ( #166, #141, #39, #189 ),
 ( #77, #259, #280, #234 ) ),
 .UNSPECIFIED., .F., .F., .F. ) 
 B_SPLINE_SURFACE_WITH_KNOTS ( ( 4, 4 ),
 ( 4, 4 ),
 ( 0.0000000000000000000, 1.000000000000000000 ),
 ( 0.0000000000000000000, 1.000000000000000000 ),
 .UNSPECIFIED. ) 
 GEOMETRIC_REPRESENTATION_ITEM ( )  RATIONAL_B_SPLINE_SURFACE ( (
 ( 1.000000000000000000, 0.9997662774889727300, 0.9997662774889727300, 1.000000000000000000),
 ( 0.9990540934147663600, 0.9988205919834013400, 0.9988205919834013400, 0.9990540934147663600),
 ( 0.9990540934147663600, 0.9988205919834013400, 0.9988205919834013400, 0.9990540934147663600),
 ( 1.000000000000000000, 0.9997662774889727300, 0.9997662774889727300, 1.000000000000000000) ) ) 
 REPRESENTATION_ITEM ( '' )  SURFACE ( )  );
#189 = CARTESIAN_POINT ( 'NONE',  ( -25.16176612201014300, 8.441223873426837400, 5.558464906152491600 ) ) ;
#190 = CARTESIAN_POINT ( 'NONE',  ( -8.376285637735515300, 25.29971779253194000, 0.6741003279666489800 ) ) ;
#191 = DIRECTION ( 'NONE',  ( 0.0000000000000000000, 0.0000000000000000000, 1.000000000000000000 ) ) ;
#192 = VERTEX_POINT ( 'NONE', #73 ) ;
#193 = PERSON_AND_ORGANIZATION ( #258, #242 ) ;
#194 = APPLICATION_PROTOCOL_DEFINITION ( 'international standard', 'config_control_design', 1994, #290 ) ;
#195 = LOCAL_TIME ( 14, 5, 7.000000000000000000, #83 ) ;
#196 = DATE_TIME_ROLE ( 'creation_date' ) ;
#197 = CC_DESIGN_PERSON_AND_ORGANIZATION_ASSIGNMENT ( #163, #45, ( #137 ) ) ;
#198 = PERSON_AND_ORGANIZATION ( #258, #242 ) ;
#199 = AXIS2_PLACEMENT_3D ( 'NONE', #167, #210, #281 ) ;
#200 = ORIENTED_EDGE ( 'NONE', *, *, #88, .F. ) ;
#201 = DATE_TIME_ROLE ( 'classification_date' ) ;
#202 = CARTESIAN_POINT ( 'NONE',  ( -4.440892098500630100E-016, 4.440892098500630100E-015, 0.6582122114452659800 ) ) ;
#203 = CIRCLE ( 'NONE', #111, 475.1000000000000200 ) ;
#204 = CARTESIAN_POINT ( 'NONE',  ( 3.372636322072967800E-014, 25.00000000000050800, 5.341787788554714000 ) ) ;
#205 = EDGE_LOOP ( 'NONE', ( #74, #257, #285 ) ) ;
#206 = CARTESIAN_POINT ( 'NONE',  ( 8.392158277119547100, 8.441223873426846300, 6.224912855873743200 ) ) ;
#207 = EDGE_CURVE ( 'NONE', #161, #154, #248, .T. ) ;
#208 = DIRECTION ( 'NONE',  ( 1.000000000000000000, 0.0000000000000000000, 0.0000000000000000000 ) ) ;
#209 = DIRECTION ( 'NONE',  ( -1.000000000000000000, -2.446522920465759900E-016, -3.583315967625219900E-017 ) ) ;
#210 = DIRECTION ( 'NONE',  ( -0.0000000000000000000, -0.0000000000000000000, -1.000000000000000000 ) ) ;
#211 = SECURITY_CLASSIFICATION ( '', '', #51 ) ;
#212 = CARTESIAN_POINT ( 'NONE',  ( -4.440892098500630100E-016, 4.440892098500630100E-015, 5.341787788554720300 ) ) ;
#213 = CIRCLE ( 'NONE', #199, 25.00000000000000000 ) ;
#214 = ORIENTED_EDGE ( 'NONE', *, *, #225, .F. ) ;
#215 = CC_DESIGN_DATE_AND_TIME_ASSIGNMENT ( #58, #196, ( #137 ) ) ;
#216 = CARTESIAN_POINT ( 'NONE',  ( -4.440892098500630100E-016, 4.440892098500630100E-015, 0.6582122114452659800 ) ) ;
#217 = VECTOR ( 'NONE', #132, 1000.000000000000000 ) ;
#218 = CALENDAR_DATE ( 2019, 8, 1 ) ;
#219 = DIRECTION ( 'NONE',  ( 1.000000000000000000, 0.0000000000000000000, 0.0000000000000000000 ) ) ;
#220 = ADVANCED_FACE ( 'NONE', ( #147 ), #168, .T. ) ;
#221 = PERSON_AND_ORGANIZATION_ROLE ( 'design_owner' ) ;
#222 = DIRECTION ( 'NONE',  ( -2.446522920465759400E-016, -1.000000000000000000, 0.0000000000000000000 ) ) ;
#223 =( GEOMETRIC_REPRESENTATION_CONTEXT ( 3 ) GLOBAL_UNCERTAINTY_ASSIGNED_CONTEXT ( ( #57 ) ) GLOBAL_UNIT_ASSIGNED_CONTEXT ( ( #21, #87, #129 ) ) REPRESENTATION_CONTEXT ( 'NONE', 'WORKASPACE' ) );
#224 = ADVANCED_FACE ( 'NONE', ( #33 ), #157, .T. ) ;
#225 = EDGE_CURVE ( 'NONE', #274, #161, #203, .T. ) ;
#226 = CARTESIAN_POINT ( 'NONE',  ( -16.74963468570206600, -25.29971779253229500, 5.104118685823608300 ) ) ;
#227 = PERSON_AND_ORGANIZATION ( #258, #242 ) ;
#228 = CARTESIAN_POINT ( 'NONE',  ( 4.187619012865497000E-014, -8.441223873426675800, 6.224912855873731700 ) ) ;
#229 = CARTESIAN_POINT ( 'NONE',  ( 25.11417602340515400, 25.29971779253246600, 4.660712219031193400 ) ) ;
#230 =( BOUNDED_SURFACE ( )  B_SPLINE_SURFACE ( 3, 3, ( 
 ( #279, #235, #125, #286 ),
 ( #287, #239, #82, #16 ),
 ( #105, #18, #15, #176 ),
 ( #126, #106, #174, #283 ) ),
 .UNSPECIFIED., .F., .F., .F. ) 
 B_SPLINE_SURFACE_WITH_KNOTS ( ( 4, 4 ),
 ( 4, 4 ),
 ( 0.0000000000000000000, 1.000000000000000000 ),
 ( 0.0000000000000000000, 1.000000000000000000 ),
 .UNSPECIFIED. ) 
 GEOMETRIC_REPRESENTATION_ITEM ( )  RATIONAL_B_SPLINE_SURFACE ( (
 ( 1.000000000000000000, 0.9997662774889727300, 0.9997662774889727300, 1.000000000000000000),
 ( 0.9990540934147663600, 0.9988205919834013400, 0.9988205919834013400, 0.9990540934147663600),
 ( 0.9990540934147663600, 0.9988205919834013400, 0.9988205919834013400, 0.9990540934147663600),
 ( 1.000000000000000000, 0.9997662774889727300, 0.9997662774889727300, 1.000000000000000000) ) ) 
 REPRESENTATION_ITEM ( '' )  SURFACE ( )  );
#231 = CLOSED_SHELL ( 'NONE', ( #266, #158, #164, #224, #220, #133 ) ) ;
#232 = CC_DESIGN_SECURITY_CLASSIFICATION ( #211, ( #49 ) ) ;
#233 = APPROVAL_PERSON_ORGANIZATION ( #180, #152, #52 ) ;
#234 = CARTESIAN_POINT ( 'NONE',  ( -25.11417602340478400, 25.29971779253245100, 4.660712219031165800 ) ) ;
#235 = CARTESIAN_POINT ( 'NONE',  ( 8.376285637735257700, -25.29971779253176600, 0.6741003279666650800 ) ) ;
#236 = CARTESIAN_POINT ( 'NONE',  ( -16.78137439978073800, 8.441223873426682900, -0.002711605865855988200 ) ) ;
#237 = SHAPE_DEFINITION_REPRESENTATION ( #247, #107 ) ;
#238 = CARTESIAN_POINT ( 'NONE',  ( -8.376285637735529500, -25.29971779253175900, 0.6741003279666493200 ) ) ;
#239 = CARTESIAN_POINT ( 'NONE',  ( 8.392158277119289500, -8.441223873426503500, -0.2249128558736883100 ) ) ;
#240 = AXIS2_PLACEMENT_3D ( 'NONE', #1, #31, #182 ) ;
#241 = ORIENTED_EDGE ( 'NONE', *, *, #207, .T. ) ;
#242 = ORGANIZATION ( 'UNSPECIFIED', 'UNSPECIFIED', '' ) ;
#243 = APPROVAL_ROLE ( '' ) ;
#244 = EDGE_CURVE ( 'NONE', #154, #274, #213, .T. ) ;
#245 = COORDINATED_UNIVERSAL_TIME_OFFSET ( 2, 0, .AHEAD. ) ;
#246 = DATE_AND_TIME ( #34, #14 ) ;
#247 = PRODUCT_DEFINITION_SHAPE ( 'NONE', 'NONE',  #137 ) ;
#248 = CIRCLE ( 'NONE', #251, 25.00000000000000000 ) ;
#249 = DIRECTION ( 'NONE',  ( 1.000000000000000000, 0.0000000000000000000, 0.0000000000000000000 ) ) ;
#250 = CARTESIAN_POINT ( 'NONE',  ( -4.440892098500630100E-016, 4.440892098500630100E-015, 5.341787788554720300 ) ) ;
#251 = AXIS2_PLACEMENT_3D ( 'NONE', #212, #145, #6 ) ;
#252 = CARTESIAN_POINT ( 'NONE',  ( -8.376285637735257700, -25.29971779253229500, 5.325899672033341600 ) ) ;
#253 = MANIFOLD_SOLID_BREP ( 'Imported1', #231 ) ;
#254 = ORIENTED_EDGE ( 'NONE', *, *, #104, .F. ) ;
#255 = CARTESIAN_POINT ( 'NONE',  ( -16.74963468570238200, 25.29971779253194000, 0.8958813141763609700 ) ) ;
#256 = CARTESIAN_POINT ( 'NONE',  ( -1.561251128379126100E-013, -8.441223873426501700, -0.2249128558737059900 ) ) ;
#257 = ORIENTED_EDGE ( 'NONE', *, *, #288, .T. ) ;
#258 = PERSON ( 'UNSPECIFIED', 'UNSPECIFIED', 'UNSPECIFIED', ('UNSPECIFIED'), ('UNSPECIFIED'), ('UNSPECIFIED') ) ;
#259 = CARTESIAN_POINT ( 'NONE',  ( -8.376285637735271900, 25.29971779253245500, 5.325899672033341600 ) ) ;
#260 = PERSON_AND_ORGANIZATION ( #258, #242 ) ;
#261 = CARTESIAN_POINT ( 'NONE',  ( -8.392158277119547100, 8.441223873426679300, -0.2249128558736985000 ) ) ;
#262 = LOCAL_TIME ( 14, 5, 7.000000000000000000, #245 ) ;
#263 = CC_DESIGN_APPROVAL ( #152, ( #49 ) ) ;
#264 = LINE ( 'NONE', #156, #217 ) ;
#265 = EDGE_LOOP ( 'NONE', ( #27, #121, #185 ) ) ;
#266 = ADVANCED_FACE ( 'NONE', ( #47 ), #230, .T. ) ;
#267 = APPROVAL_STATUS ( 'not_yet_approved' ) ;
#268 = VERTEX_POINT ( 'NONE', #100 ) ;
#269 = CARTESIAN_POINT ( 'NONE',  ( -4.595897782305853800E-014, -24.99999999999978000, 0.6582122114452536600 ) ) ;
#270 = CARTESIAN_POINT ( 'NONE',  ( 8.376285637735515300, 25.29971779253246200, 5.325899672033358500 ) ) ;
#271 = CC_DESIGN_DATE_AND_TIME_ASSIGNMENT ( #246, #201, ( #211 ) ) ;
#272 = CIRCLE ( 'NONE', #60, 25.00000000000000000 ) ;
#273 = CARTESIAN_POINT ( 'NONE',  ( 1.491862189340054100E-013, 8.441223873426842800, 6.224912855873743200 ) ) ;
#274 = VERTEX_POINT ( 'NONE', #284 ) ;
#275 = AXIS2_PLACEMENT_3D ( 'NONE', #202, #96, #249 ) ;
#276 = CARTESIAN_POINT ( 'NONE',  ( -8.392158277119293100, -8.441223873426677600, 6.224912855873733400 ) ) ;
#277 = CARTESIAN_POINT ( 'NONE',  ( 8.392158277119548900, -8.441223873426672200, 6.224912855873747700 ) ) ;
#278 = CARTESIAN_POINT ( 'NONE',  ( 25.11417602340516800, -25.29971779253228400, 4.660712219031193400 ) ) ;
#279 = CARTESIAN_POINT ( 'NONE',  ( -4.603287378938489900E-014, -25.29971779253176200, 0.6741003279666646400 ) ) ;
#280 = CARTESIAN_POINT ( 'NONE',  ( -16.74963468570208000, 25.29971779253245500, 5.104118685823608300 ) ) ;
#281 = DIRECTION ( 'NONE',  ( 1.000000000000000000, 0.0000000000000000000, 0.0000000000000000000 ) ) ;
#282 = DIRECTION ( 'NONE',  ( 1.000000000000000000, 0.0000000000000000000, 0.0000000000000000000 ) ) ;
#283 = CARTESIAN_POINT ( 'NONE',  ( 25.11417602340478100, 25.29971779253193300, 1.339287780968839000 ) ) ;
#284 = CARTESIAN_POINT ( 'NONE',  ( 4.595897782305867700E-014, -25.00000000000033400, 5.341787788554714000 ) ) ;
#285 = ORIENTED_EDGE ( 'NONE', *, *, #88, .T. ) ;
#286 = CARTESIAN_POINT ( 'NONE',  ( 25.11417602340477000, -25.29971779253176900, 1.339287780968839000 ) ) ;
#287 = CARTESIAN_POINT ( 'NONE',  ( -4.187619012865492600E-014, -8.441223873426501700, -0.2249128558736886400 ) ) ;
#288 = EDGE_CURVE ( 'NONE', #37, #268, #109, .T. ) ;
#289 = CALENDAR_DATE ( 2019, 8, 1 ) ;
#290 = APPLICATION_CONTEXT ( 'configuration controlled 3d designs of mechanical parts and assemblies' ) ;
#291 = APPROVAL_STATUS ( 'not_yet_approved' ) ;
#292 = ORIENTED_EDGE ( 'NONE', *, *, #207, .F. ) ;
#293 = APPROVAL_PERSON_ORGANIZATION ( #198, #170, #243 ) ;
#294 = CARTESIAN_POINT ( 'NONE',  ( -5.684341886080800200E-014, 1.705302565824239900E-013, 475.1000000000000200 ) ) ;
#295 = CIRCLE ( 'NONE', #30, 475.1000000000000200 ) ;
ENDSEC;
END-ISO-10303-21;
