ISO-10303-21;
HEADER;
FILE_DESCRIPTION (( 'STEP AP203' ),
    '1' );
FILE_NAME ('111-1530E UVFS bi-cx 50.8 F300.STEP',
    '2019-01-08T11:54:14',
    ( '' ),
    ( '' ),
    'SwSTEP 2.0',
    'SolidWorks 2017',
    '' );
FILE_SCHEMA (( 'CONFIG_CONTROL_DESIGN' ));
ENDSEC;

DATA;
#1 = DIRECTION ( 'NONE',  ( 1.000000000000000000, 0.0000000000000000000, 0.0000000000000000000 ) ) ;
#2 = CARTESIAN_POINT ( 'NONE',  ( -25.44763694448740700, 25.70397406218753400, 3.693012469062282800 ) ) ;
#3 = VECTOR ( 'NONE', #271, 1000.000000000000000 ) ;
#4 = DIRECTION ( 'NONE',  ( -0.0000000000000000000, -0.0000000000000000000, -1.000000000000000000 ) ) ;
#5 = CARTESIAN_POINT ( 'NONE',  ( 8.543324253632375700, 8.591382696967912100, 6.388627570335202700 ) ) ;
#6 = AXIS2_PLACEMENT_3D ( 'NONE', #91, #4, #277 ) ;
#7 = CARTESIAN_POINT ( 'NONE',  ( 8.496834968909469800, -25.70397406218750500, 4.837291581566693000 ) ) ;
#8 = ADVANCED_FACE ( 'NONE', ( #187 ), #258, .T. ) ;
#9 = CC_DESIGN_PERSON_AND_ORGANIZATION_ASSIGNMENT ( #77, #82, ( #226 ) ) ;
#10 = AXIS2_PLACEMENT_3D ( 'NONE', #113, #70, #115 ) ;
#11 = CIRCLE ( 'NONE', #6, 25.39999999999999900 ) ;
#12 = APPROVAL_STATUS ( 'not_yet_approved' ) ;
#13 =( GEOMETRIC_REPRESENTATION_CONTEXT ( 3 ) GLOBAL_UNCERTAINTY_ASSIGNED_CONTEXT ( ( #218 ) ) GLOBAL_UNIT_ASSIGNED_CONTEXT ( ( #173, #80, #195 ) ) REPRESENTATION_CONTEXT ( 'NONE', 'WORKASPACE' ) );
#14 = DESIGN_CONTEXT ( 'detailed design', #152, 'design' ) ;
#15 = LOCAL_TIME ( 13, 54, 14.00000000000000000, #75 ) ;
#16 = PERSON_AND_ORGANIZATION ( #140, #228 ) ;
#17 = ORIENTED_EDGE ( 'NONE', *, *, #252, .F. ) ;
#18 = AXIS2_PLACEMENT_3D ( 'NONE', #166, #185, #249 ) ;
#19 = PRODUCT_DEFINITION_SHAPE ( 'NONE', 'NONE',  #221 ) ;
#20 = ORIENTED_EDGE ( 'NONE', *, *, #67, .T. ) ;
#21 = CARTESIAN_POINT ( 'NONE',  ( -17.07802452340159100, -8.591382696967896100, -0.004856013412697301000 ) ) ;
#22 = APPROVAL ( #106, 'UNSPECIFIED' ) ;
#23 = AXIS2_PLACEMENT_3D ( 'NONE', #34, #51, #146 ) ;
#24 = CARTESIAN_POINT ( 'NONE',  ( -25.58687025239159900, 8.591382696967912100, 5.238087689243568200 ) ) ;
#25 = CYLINDRICAL_SURFACE ( 'NONE', #175, 25.39999999999999900 ) ;
#26 = VERTEX_POINT ( 'NONE', #109 ) ;
#27 = CARTESIAN_POINT ( 'NONE',  ( 4.049227234697319300E-014, 25.70397406218753000, 4.837291581566760500 ) ) ;
#28 = CARTESIAN_POINT ( 'NONE',  ( 9.714451465470119700E-014, 8.591382696967908600, 6.388627570335201800 ) ) ;
#29 = CARTESIAN_POINT ( 'NONE',  ( -25.39999999999999900, 7.995584178184967200E-015, 4.864683978805800300 ) ) ;
#30 = CARTESIAN_POINT ( 'NONE',  ( 25.44763694448740700, 25.70397406218753700, 2.306987530937722600 ) ) ;
#31 = DIRECTION ( 'NONE',  ( 1.000000000000000000, 0.0000000000000000000, 0.0000000000000000000 ) ) ;
#32 = CARTESIAN_POINT ( 'NONE',  ( 17.07802452340152000, 8.591382696967915700, -0.004856013412755629300 ) ) ;
#33 = LOCAL_TIME ( 13, 54, 14.00000000000000000, #225 ) ;
#34 = CARTESIAN_POINT ( 'NONE',  ( -8.526512829121199700E-014, 2.842170943040400100E-014, 284.6999999999999900 ) ) ;
#35 = DATE_TIME_ROLE ( 'creation_date' ) ;
#36 = FACE_OUTER_BOUND ( 'NONE', #142, .T. ) ;
#37 = SECURITY_CLASSIFICATION_LEVEL ( 'unclassified' ) ;
#38 = EDGE_LOOP ( 'NONE', ( #120, #178, #112, #129, #159, #17 ) ) ;
#39 = CC_DESIGN_APPROVAL ( #92, ( #53 ) ) ;
#40 = CIRCLE ( 'NONE', #10, 25.39999999999999900 ) ;
#41 = CYLINDRICAL_SURFACE ( 'NONE', #273, 25.39999999999999900 ) ;
#42 = CARTESIAN_POINT ( 'NONE',  ( -8.496834968909480400, 25.70397406218753000, 1.162708418433255900 ) ) ;
#43 = FACE_OUTER_BOUND ( 'NONE', #135, .T. ) ;
#44 = CARTESIAN_POINT ( 'NONE',  ( -8.543324253632274400, 8.591382696967913900, 6.388627570335212400 ) ) ;
#45 = DIRECTION ( 'NONE',  ( 0.0000000000000000000, 0.0000000000000000000, 1.000000000000000000 ) ) ;
#46 = CARTESIAN_POINT ( 'NONE',  ( -16.98509288215712200, 25.70397406218753000, 4.455608352869792700 ) ) ;
#47 = CARTESIAN_POINT ( 'NONE',  ( 8.543324253632370400, -8.591382696967894400, 6.388627570335147600 ) ) ;
#48 = PERSON_AND_ORGANIZATION ( #140, #228 ) ;
#49 = VERTEX_POINT ( 'NONE', #242 ) ;
#50 = CARTESIAN_POINT ( 'NONE',  ( 25.44763694448746300, 25.70397406218752700, 3.693012469062284500 ) ) ;
#51 = DIRECTION ( 'NONE',  ( 1.000000000000000000, 2.041347101358070100E-016, 1.764139346882770000E-016 ) ) ;
#52 = DIRECTION ( 'NONE',  ( 1.000000000000000000, 8.881784197001252300E-016, 0.0000000000000000000 ) ) ;
#53 = SECURITY_CLASSIFICATION ( '', '', #37 ) ;
#54 = CIRCLE ( 'NONE', #128, 25.39999999999999900 ) ;
#55 = CLOSED_SHELL ( 'NONE', ( #211, #117, #145, #8, #130, #198 ) ) ;
#56 = CARTESIAN_POINT ( 'NONE',  ( 4.042538828932226700E-014, 25.40000000000007300, 4.864683978805797600 ) ) ;
#57 = CARTESIAN_POINT ( 'NONE',  ( 16.98509288215713300, -25.70397406218749800, 1.544391647130269200 ) ) ;
#58 = CALENDAR_DATE ( 2019, 8, 1 ) ;
#59 = PERSON_AND_ORGANIZATION_ROLE ( 'classification_officer' ) ;
#60 = ORIENTED_EDGE ( 'NONE', *, *, #232, .F. ) ;
#61 = LINE ( 'NONE', #133, #3 ) ;
#62 = AXIS2_PLACEMENT_3D ( 'NONE', #119, #281, #251 ) ;
#63 = CARTESIAN_POINT ( 'NONE',  ( 2.999812575792730400E-014, -25.70397406218750900, 4.837291581566704600 ) ) ;
#64 = EDGE_CURVE ( 'NONE', #279, #49, #238, .T. ) ;
#65 = CARTESIAN_POINT ( 'NONE',  ( -9.367506770274759600E-014, -8.591382696967887300, -0.3886275703351427200 ) ) ;
#66 = CARTESIAN_POINT ( 'NONE',  ( -25.58687025239159900, -8.591382696967885500, 5.238087689243514900 ) ) ;
#67 = EDGE_CURVE ( 'NONE', #279, #194, #61, .T. ) ;
#68 = CIRCLE ( 'NONE', #206, 25.39999999999999900 ) ;
#69 = FACE_OUTER_BOUND ( 'NONE', #85, .T. ) ;
#70 = DIRECTION ( 'NONE',  ( -0.0000000000000000000, -0.0000000000000000000, -1.000000000000000000 ) ) ;
#71 = CARTESIAN_POINT ( 'NONE',  ( 17.07802452340159900, 8.591382696967910300, 6.004856013412757300 ) ) ;
#72 = CARTESIAN_POINT ( 'NONE',  ( 8.496834968909480400, 25.70397406218752700, 4.837291581566748100 ) ) ;
#73 = CARTESIAN_POINT ( 'NONE',  ( 8.543324253632276200, -8.591382696967892600, -0.3886275703351532200 ) ) ;
#74 = CARTESIAN_POINT ( 'NONE',  ( 25.58687025239159900, -8.591382696967885500, 0.7619123107564899100 ) ) ;
#75 = COORDINATED_UNIVERSAL_TIME_OFFSET ( 2, 0, .AHEAD. ) ;
#76 = CC_DESIGN_APPROVAL ( #269, ( #226 ) ) ;
#77 = PERSON_AND_ORGANIZATION ( #140, #228 ) ;
#78 = CARTESIAN_POINT ( 'NONE',  ( 25.44763694448741400, -25.70397406218750200, 2.306987530937778100 ) ) ;
#79 = ORIENTED_EDGE ( 'NONE', *, *, #287, .T. ) ;
#80 =( NAMED_UNIT ( * ) PLANE_ANGLE_UNIT ( ) SI_UNIT ( $, .RADIAN. ) );
#81 = APPLICATION_CONTEXT ( 'configuration controlled 3d designs of mechanical parts and assemblies' ) ;
#82 = PERSON_AND_ORGANIZATION_ROLE ( 'creator' ) ;
#83 = CC_DESIGN_APPROVAL ( #22, ( #221 ) ) ;
#84 = LOCAL_TIME ( 13, 54, 14.00000000000000000, #163 ) ;
#85 = EDGE_LOOP ( 'NONE', ( #94, #210, #132 ) ) ;
#86 = CARTESIAN_POINT ( 'NONE',  ( -8.543324253632375700, 8.591382696967912100, -0.3886275703351964600 ) ) ;
#87 = AXIS2_PLACEMENT_3D ( 'NONE', #170, #107, #171 ) ;
#88 = CARTESIAN_POINT ( 'NONE',  ( -1.040834085586084300E-013, 25.70397406218753400, 1.162708418433255700 ) ) ;
#89 = APPROVAL_DATE_TIME ( #193, #22 ) ;
#90 = DIRECTION ( 'NONE',  ( 1.000000000000000000, 0.0000000000000000000, 0.0000000000000000000 ) ) ;
#91 = CARTESIAN_POINT ( 'NONE',  ( 9.992007221626412800E-016, 4.884981308350691100E-015, 4.864683978805800300 ) ) ;
#92 = APPROVAL ( #284, 'UNSPECIFIED' ) ;
#93 = CARTESIAN_POINT ( 'NONE',  ( -8.543324253632276200, -8.591382696967892600, 6.388627570335157400 ) ) ;
#94 = ORIENTED_EDGE ( 'NONE', *, *, #259, .F. ) ;
#95 = CARTESIAN_POINT ( 'NONE',  ( 1.040834085586084300E-013, 25.70397406218753000, 4.837291581566749000 ) ) ;
#96 = ORIENTED_EDGE ( 'NONE', *, *, #236, .T. ) ;
#97 = AXIS2_PLACEMENT_3D ( 'NONE', #230, #188, #52 ) ;
#98 = DIRECTION ( 'NONE',  ( -0.0000000000000000000, -0.0000000000000000000, -1.000000000000000000 ) ) ;
#99 = CARTESIAN_POINT ( 'NONE',  ( 8.496834968909377400, -25.70397406218750500, 1.162708418433301600 ) ) ;
#100 = DATE_AND_TIME ( #254, #15 ) ;
#101 = PERSON_AND_ORGANIZATION ( #140, #228 ) ;
#102 = EDGE_LOOP ( 'NONE', ( #161, #79, #96 ) ) ;
#103 =( BOUNDED_SURFACE ( )  B_SPLINE_SURFACE ( 3, 3, ( 
 ( #63, #239, #264, #160 ),
 ( #220, #93, #116, #66 ),
 ( #224, #44, #184, #24 ),
 ( #27, #247, #46, #2 ) ),
 .UNSPECIFIED., .F., .F., .T. ) 
 B_SPLINE_SURFACE_WITH_KNOTS ( ( 4, 4 ),
 ( 4, 4 ),
 ( 0.0000000000000000000, 1.000000000000000000 ),
 ( 0.0000000000000000000, 1.000000000000000000 ),
 .UNSPECIFIED. ) 
 GEOMETRIC_REPRESENTATION_ITEM ( )  RATIONAL_B_SPLINE_SURFACE ( (
 ( 1.000000000000000000, 0.9993270391706218200, 0.9993270391706218200, 1.000000000000000000),
 ( 0.9972773482767047800, 0.9966062196852884000, 0.9966062196852884000, 0.9972773482767047800),
 ( 0.9972773482767047800, 0.9966062196852884000, 0.9966062196852884000, 0.9972773482767047800),
 ( 1.000000000000000000, 0.9993270391706218200, 0.9993270391706218200, 1.000000000000000000) ) ) 
 REPRESENTATION_ITEM ( '' )  SURFACE ( )  );
#104 = CARTESIAN_POINT ( 'NONE',  ( 25.58687025239160200, 8.591382696967912100, 0.7619123107564366200 ) ) ;
#105 = DIRECTION ( 'NONE',  ( 1.000000000000000000, 0.0000000000000000000, 0.0000000000000000000 ) ) ;
#106 = APPROVAL_STATUS ( 'not_yet_approved' ) ;
#107 = DIRECTION ( 'NONE',  ( -0.0000000000000000000, -0.0000000000000000000, -1.000000000000000000 ) ) ;
#108 = LINE ( 'NONE', #121, #278 ) ;
#109 = CARTESIAN_POINT ( 'NONE',  ( -4.042538828932255100E-014, 25.40000000000007300, 1.135316021194205300 ) ) ;
#110 = CARTESIAN_POINT ( 'NONE',  ( -17.07802452340159900, 8.591382696967910300, -0.004856013412750858800 ) ) ;
#111 = CARTESIAN_POINT ( 'NONE',  ( -25.44763694448744600, -25.70397406218751300, 2.306987530937776300 ) ) ;
#112 = ORIENTED_EDGE ( 'NONE', *, *, #151, .T. ) ;
#113 = CARTESIAN_POINT ( 'NONE',  ( 9.992007221626412800E-016, 4.884981308350691100E-015, 4.864683978805800300 ) ) ;
#114 = LOCAL_TIME ( 13, 54, 14.00000000000000000, #285 ) ;
#115 = DIRECTION ( 'NONE',  ( 1.000000000000000000, 0.0000000000000000000, 0.0000000000000000000 ) ) ;
#116 = CARTESIAN_POINT ( 'NONE',  ( -17.07802452340152000, -8.591382696967890800, 6.004856013412707600 ) ) ;
#117 = ADVANCED_FACE ( 'NONE', ( #69 ), #103, .T. ) ;
#118 = DIRECTION ( 'NONE',  ( 1.000000000000000000, 0.0000000000000000000, 0.0000000000000000000 ) ) ;
#119 = CARTESIAN_POINT ( 'NONE',  ( 9.992007221626412800E-016, 4.884981308350691100E-015, 4.864683978805800300 ) ) ;
#120 = ORIENTED_EDGE ( 'NONE', *, *, #236, .F. ) ;
#121 = CARTESIAN_POINT ( 'NONE',  ( -25.39999999999999900, 7.995584178184967200E-015, 1.135316021194199900 ) ) ;
#122 = CARTESIAN_POINT ( 'NONE',  ( 8.496834968909368500, 25.70397406218752700, 1.162708418433246100 ) ) ;
#123 = CIRCLE ( 'NONE', #23, 284.6999999999999900 ) ;
#124 = ORIENTED_EDGE ( 'NONE', *, *, #64, .T. ) ;
#125 = PERSON_AND_ORGANIZATION_ROLE ( 'design_supplier' ) ;
#126 = CC_DESIGN_SECURITY_CLASSIFICATION ( #53, ( #226 ) ) ;
#127 = PERSON_AND_ORGANIZATION_ROLE ( 'creator' ) ;
#128 = AXIS2_PLACEMENT_3D ( 'NONE', #253, #147, #31 ) ;
#129 = ORIENTED_EDGE ( 'NONE', *, *, #246, .T. ) ;
#130 = ADVANCED_FACE ( 'NONE', ( #290 ), #25, .T. ) ;
#131 = CIRCLE ( 'NONE', #18, 284.6999999999999900 ) ;
#132 = ORIENTED_EDGE ( 'NONE', *, *, #151, .F. ) ;
#133 = CARTESIAN_POINT ( 'NONE',  ( 25.39999999999999900, 4.884981308350691100E-015, 1.135316021194199900 ) ) ;
#134 = CC_DESIGN_PERSON_AND_ORGANIZATION_ASSIGNMENT ( #101, #288, ( #268 ) ) ;
#135 = EDGE_LOOP ( 'NONE', ( #124, #293, #265 ) ) ;
#136 =( BOUNDED_SURFACE ( )  B_SPLINE_SURFACE ( 3, 3, ( 
 ( #192, #99, #57, #78 ),
 ( #250, #73, #167, #74 ),
 ( #283, #148, #32, #104 ),
 ( #213, #122, #168, #30 ) ),
 .UNSPECIFIED., .F., .F., .T. ) 
 B_SPLINE_SURFACE_WITH_KNOTS ( ( 4, 4 ),
 ( 4, 4 ),
 ( 0.0000000000000000000, 1.000000000000000000 ),
 ( 0.0000000000000000000, 1.000000000000000000 ),
 .UNSPECIFIED. ) 
 GEOMETRIC_REPRESENTATION_ITEM ( )  RATIONAL_B_SPLINE_SURFACE ( (
 ( 1.000000000000000000, 0.9993270391706218200, 0.9993270391706218200, 1.000000000000000000),
 ( 0.9972773482767047800, 0.9966062196852884000, 0.9966062196852884000, 0.9972773482767047800),
 ( 0.9972773482767047800, 0.9966062196852884000, 0.9966062196852884000, 0.9972773482767047800),
 ( 1.000000000000000000, 0.9993270391706218200, 0.9993270391706218200, 1.000000000000000000) ) ) 
 REPRESENTATION_ITEM ( '' )  SURFACE ( )  );
#137 = CARTESIAN_POINT ( 'NONE',  ( -8.543324253632370400, -8.591382696967894400, -0.3886275703351423900 ) ) ;
#138 = DIRECTION ( 'NONE',  ( -0.0000000000000000000, -0.0000000000000000000, -1.000000000000000000 ) ) ;
#139 = APPROVAL_DATE_TIME ( #100, #92 ) ;
#140 = PERSON ( 'UNSPECIFIED', 'UNSPECIFIED', 'UNSPECIFIED', ('UNSPECIFIED'), ('UNSPECIFIED'), ('UNSPECIFIED') ) ;
#141 = APPROVAL_DATE_TIME ( #199, #269 ) ;
#142 = EDGE_LOOP ( 'NONE', ( #60, #241, #183 ) ) ;
#143 = CC_DESIGN_PERSON_AND_ORGANIZATION_ASSIGNMENT ( #16, #127, ( #221 ) ) ;
#144 = CARTESIAN_POINT ( 'NONE',  ( 25.44763694448744600, -25.70397406218751300, 3.693012469062229000 ) ) ;
#145 = ADVANCED_FACE ( 'NONE', ( #176 ), #41, .T. ) ;
#146 = DIRECTION ( 'NONE',  ( 2.041347101358070100E-016, -1.000000000000000000, 0.0000000000000000000 ) ) ;
#147 = DIRECTION ( 'NONE',  ( -0.0000000000000000000, -0.0000000000000000000, -1.000000000000000000 ) ) ;
#148 = CARTESIAN_POINT ( 'NONE',  ( 8.543324253632274400, 8.591382696967913900, -0.3886275703352064500 ) ) ;
#149 = PERSON_AND_ORGANIZATION ( #140, #228 ) ;
#150 = DIRECTION ( 'NONE',  ( 0.0000000000000000000, 0.0000000000000000000, 1.000000000000000000 ) ) ;
#151 = EDGE_CURVE ( 'NONE', #235, #286, #11, .T. ) ;
#152 = APPLICATION_CONTEXT ( 'configuration controlled 3d designs of mechanical parts and assemblies' ) ;
#153 = APPLICATION_PROTOCOL_DEFINITION ( 'international standard', 'config_control_design', 1994, #81 ) ;
#154 = DATE_TIME_ROLE ( 'classification_date' ) ;
#155 = MECHANICAL_CONTEXT ( 'NONE', #81, 'mechanical' ) ;
#156 = APPROVAL_PERSON_ORGANIZATION ( #179, #92, #216 ) ;
#157 = COORDINATED_UNIVERSAL_TIME_OFFSET ( 2, 0, .AHEAD. ) ;
#158 = CARTESIAN_POINT ( 'NONE',  ( -25.58687025239164800, 8.591382696967903200, 0.7619123107564348400 ) ) ;
#159 = ORIENTED_EDGE ( 'NONE', *, *, #67, .F. ) ;
#160 = CARTESIAN_POINT ( 'NONE',  ( -25.44763694448741000, -25.70397406218750500, 3.693012469062227200 ) ) ;
#161 = ORIENTED_EDGE ( 'NONE', *, *, #202, .F. ) ;
#162 = CARTESIAN_POINT ( 'NONE',  ( 25.58687025239163800, -8.591382696967892600, 5.238087689243516600 ) ) ;
#163 = COORDINATED_UNIVERSAL_TIME_OFFSET ( 2, 0, .AHEAD. ) ;
#164 = ORIENTED_EDGE ( 'NONE', *, *, #259, .T. ) ;
#165 = CARTESIAN_POINT ( 'NONE',  ( 9.367506770274758300E-014, -25.70397406218750900, 4.837291581566693000 ) ) ;
#166 = CARTESIAN_POINT ( 'NONE',  ( 8.526512829121199700E-014, 2.842170943040400100E-014, -278.6999999999999900 ) ) ;
#167 = CARTESIAN_POINT ( 'NONE',  ( 17.07802452340152000, -8.591382696967890800, -0.004856013412702287400 ) ) ;
#168 = CARTESIAN_POINT ( 'NONE',  ( 16.98509288215712200, 25.70397406218753400, 1.544391647130213700 ) ) ;
#169 = LOCAL_TIME ( 13, 54, 14.00000000000000000, #157 ) ;
#170 = CARTESIAN_POINT ( 'NONE',  ( 9.992007221626412800E-016, 4.884981308350691100E-015, 1.135316021194199900 ) ) ;
#171 = DIRECTION ( 'NONE',  ( 1.000000000000000000, 0.0000000000000000000, 0.0000000000000000000 ) ) ;
#172 = PERSON_AND_ORGANIZATION ( #140, #228 ) ;
#173 =( LENGTH_UNIT ( ) NAMED_UNIT ( * ) SI_UNIT ( .MILLI., .METRE. ) );
#174 = ORIENTED_EDGE ( 'NONE', *, *, #287, .F. ) ;
#175 = AXIS2_PLACEMENT_3D ( 'NONE', #203, #274, #181 ) ;
#176 = FACE_OUTER_BOUND ( 'NONE', #38, .T. ) ;
#177 = CARTESIAN_POINT ( 'NONE',  ( -8.496834968909469800, -25.70397406218750200, 1.162708418433312100 ) ) ;
#178 = ORIENTED_EDGE ( 'NONE', *, *, #280, .T. ) ;
#179 = PERSON_AND_ORGANIZATION ( #140, #228 ) ;
#180 = VERTEX_POINT ( 'NONE', #276 ) ;
#181 = DIRECTION ( 'NONE',  ( 1.000000000000000000, 0.0000000000000000000, 0.0000000000000000000 ) ) ;
#182 = CARTESIAN_POINT ( 'NONE',  ( 25.39999999999999900, 4.884981308350691100E-015, 4.864683978805800300 ) ) ;
#183 = ORIENTED_EDGE ( 'NONE', *, *, #246, .F. ) ;
#184 = CARTESIAN_POINT ( 'NONE',  ( -17.07802452340152000, 8.591382696967915700, 6.004856013412761800 ) ) ;
#185 = DIRECTION ( 'NONE',  ( -1.000000000000000000, 2.041347101358070100E-016, -1.764139346882780100E-016 ) ) ;
#186 = EDGE_CURVE ( 'NONE', #194, #245, #40, .T. ) ;
#187 = FACE_OUTER_BOUND ( 'NONE', #102, .T. ) ;
#188 = DIRECTION ( 'NONE',  ( -0.0000000000000000000, -0.0000000000000000000, -1.000000000000000000 ) ) ;
#189 = CARTESIAN_POINT ( 'NONE',  ( 3.005534501442325400E-014, -25.40000000000004100, 4.864683978805797600 ) ) ;
#190 = AXIS2_PLACEMENT_3D ( 'NONE', #214, #150, #105 ) ;
#191 = DIRECTION ( 'NONE',  ( 0.0000000000000000000, 0.0000000000000000000, 1.000000000000000000 ) ) ;
#192 = CARTESIAN_POINT ( 'NONE',  ( -2.999812575792758200E-014, -25.70397406218750900, 1.162708418433300300 ) ) ;
#193 = DATE_AND_TIME ( #237, #169 ) ;
#194 = VERTEX_POINT ( 'NONE', #182 ) ;
#195 =( NAMED_UNIT ( * ) SI_UNIT ( $, .STERADIAN. ) SOLID_ANGLE_UNIT ( ) );
#196 = EDGE_LOOP ( 'NONE', ( #215, #174, #266, #20, #256, #164 ) ) ;
#197 = APPROVAL_ROLE ( '' ) ;
#198 = ADVANCED_FACE ( 'NONE', ( #36 ), #291, .T. ) ;
#199 = DATE_AND_TIME ( #255, #84 ) ;
#200 = CC_DESIGN_PERSON_AND_ORGANIZATION_ASSIGNMENT ( #172, #125, ( #226 ) ) ;
#201 = CARTESIAN_POINT ( 'NONE',  ( -9.714451465470119700E-014, 8.591382696967908600, -0.3886275703351967400 ) ) ;
#202 = EDGE_CURVE ( 'NONE', #49, #26, #123, .T. ) ;
#203 = CARTESIAN_POINT ( 'NONE',  ( 9.992007221626412800E-016, 4.884981308350691100E-015, 1.135316021194199900 ) ) ;
#204 = DATE_AND_TIME ( #261, #33 ) ;
#205 = CARTESIAN_POINT ( 'NONE',  ( 17.07802452340159100, -8.591382696967896100, 6.004856013412702300 ) ) ;
#206 = AXIS2_PLACEMENT_3D ( 'NONE', #212, #98, #118 ) ;
#207 = CARTESIAN_POINT ( 'NONE',  ( 25.58687025239164800, 8.591382696967903200, 5.238087689243570800 ) ) ;
#208 = CARTESIAN_POINT ( 'NONE',  ( 16.98509288215720800, 25.70397406218752300, 4.455608352869787400 ) ) ;
#209 = CIRCLE ( 'NONE', #97, 25.39999999999999900 ) ;
#210 = ORIENTED_EDGE ( 'NONE', *, *, #232, .T. ) ;
#211 = ADVANCED_FACE ( 'NONE', ( #43 ), #136, .T. ) ;
#212 = CARTESIAN_POINT ( 'NONE',  ( 9.992007221626412800E-016, 4.884981308350691100E-015, 1.135316021194199900 ) ) ;
#213 = CARTESIAN_POINT ( 'NONE',  ( -4.049227234697347100E-014, 25.70397406218753000, 1.162708418433244800 ) ) ;
#214 = CARTESIAN_POINT ( 'NONE',  ( 0.0000000000000000000, 0.0000000000000000000, 0.0000000000000000000 ) ) ;
#215 = ORIENTED_EDGE ( 'NONE', *, *, #280, .F. ) ;
#216 = APPROVAL_ROLE ( '' ) ;
#217 = CC_DESIGN_PERSON_AND_ORGANIZATION_ASSIGNMENT ( #48, #59, ( #53 ) ) ;
#218 = UNCERTAINTY_MEASURE_WITH_UNIT (LENGTH_MEASURE( 1.000000000000000100E-005 ), #173, 'distance_accuracy_value', 'NONE');
#219 = SHAPE_DEFINITION_REPRESENTATION ( #19, #231 ) ;
#220 = CARTESIAN_POINT ( 'NONE',  ( 3.321772235013674800E-014, -8.591382696967889000, 6.388627570335160000 ) ) ;
#221 = PRODUCT_DEFINITION ( 'UNKNOWN', '', #226, #14 ) ;
#222 = DATE_AND_TIME ( #58, #114 ) ;
#223 = CARTESIAN_POINT ( 'NONE',  ( -25.44763694448746300, 25.70397406218752700, 2.306987530937720800 ) ) ;
#224 = CARTESIAN_POINT ( 'NONE',  ( 3.672532118315938600E-014, 8.591382696967906800, 6.388627570335213300 ) ) ;
#225 = COORDINATED_UNIVERSAL_TIME_OFFSET ( 2, 0, .AHEAD. ) ;
#226 = PRODUCT_DEFINITION_FORMATION_WITH_SPECIFIED_SOURCE ( 'ANY', '', #268, .NOT_KNOWN. ) ;
#227 = CARTESIAN_POINT ( 'NONE',  ( 9.992007221626412800E-016, 4.884981308350691100E-015, 1.135316021194199900 ) ) ;
#228 = ORGANIZATION ( 'UNSPECIFIED', 'UNSPECIFIED', '' ) ;
#229 = CARTESIAN_POINT ( 'NONE',  ( 25.39999999999999900, 4.884981308350691100E-015, 1.135316021194199900 ) ) ;
#230 = CARTESIAN_POINT ( 'NONE',  ( 9.992007221626412800E-016, 4.884981308350691100E-015, 4.864683978805800300 ) ) ;
#231 = ADVANCED_BREP_SHAPE_REPRESENTATION ( '111-1530E UVFS bi-cx 50.8 F300', ( #275, #190 ), #13 ) ;
#232 = EDGE_CURVE ( 'NONE', #245, #286, #131, .T. ) ;
#233 = CC_DESIGN_DATE_AND_TIME_ASSIGNMENT ( #222, #154, ( #53 ) ) ;
#234 = APPROVAL_ROLE ( '' ) ;
#235 = VERTEX_POINT ( 'NONE', #29 ) ;
#236 = EDGE_CURVE ( 'NONE', #180, #26, #68, .T. ) ;
#237 = CALENDAR_DATE ( 2019, 8, 1 ) ;
#238 = CIRCLE ( 'NONE', #262, 25.39999999999999900 ) ;
#239 = CARTESIAN_POINT ( 'NONE',  ( -8.496834968909377400, -25.70397406218750500, 4.837291581566703700 ) ) ;
#240 = CARTESIAN_POINT ( 'NONE',  ( -25.58687025239163800, -8.591382696967892600, 0.7619123107564882400 ) ) ;
#241 = ORIENTED_EDGE ( 'NONE', *, *, #186, .F. ) ;
#242 = CARTESIAN_POINT ( 'NONE',  ( -3.005534501442353200E-014, -25.40000000000004100, 1.135316021194205300 ) ) ;
#243 = CARTESIAN_POINT ( 'NONE',  ( 16.98509288215719300, -25.70397406218750900, 4.455608352869731400 ) ) ;
#244 = APPROVAL_PERSON_ORGANIZATION ( #149, #269, #234 ) ;
#245 = VERTEX_POINT ( 'NONE', #189 ) ;
#246 = EDGE_CURVE ( 'NONE', #286, #194, #209, .T. ) ;
#247 = CARTESIAN_POINT ( 'NONE',  ( -8.496834968909368500, 25.70397406218752700, 4.837291581566757900 ) ) ;
#248 = CARTESIAN_POINT ( 'NONE',  ( 9.367506770274759600E-014, -8.591382696967887300, 6.388627570335148500 ) ) ;
#249 = DIRECTION ( 'NONE',  ( -2.041347101358070100E-016, -1.000000000000000000, 0.0000000000000000000 ) ) ;
#250 = CARTESIAN_POINT ( 'NONE',  ( -3.321772235013702600E-014, -8.591382696967889000, -0.3886275703351547200 ) ) ;
#251 = DIRECTION ( 'NONE',  ( 1.000000000000000000, 0.0000000000000000000, 0.0000000000000000000 ) ) ;
#252 = EDGE_CURVE ( 'NONE', #26, #279, #54, .T. ) ;
#253 = CARTESIAN_POINT ( 'NONE',  ( 9.992007221626412800E-016, 4.884981308350691100E-015, 1.135316021194199900 ) ) ;
#254 = CALENDAR_DATE ( 2019, 8, 1 ) ;
#255 = CALENDAR_DATE ( 2019, 8, 1 ) ;
#256 = ORIENTED_EDGE ( 'NONE', *, *, #186, .T. ) ;
#257 = APPLICATION_PROTOCOL_DEFINITION ( 'international standard', 'config_control_design', 1994, #152 ) ;
#258 =( BOUNDED_SURFACE ( )  B_SPLINE_SURFACE ( 3, 3, ( 
 ( #111, #270, #177, #263 ),
 ( #240, #21, #137, #65 ),
 ( #158, #110, #86, #201 ),
 ( #223, #294, #42, #88 ) ),
 .UNSPECIFIED., .F., .F., .F. ) 
 B_SPLINE_SURFACE_WITH_KNOTS ( ( 4, 4 ),
 ( 4, 4 ),
 ( 0.0000000000000000000, 1.000000000000000000 ),
 ( 0.0000000000000000000, 1.000000000000000000 ),
 .UNSPECIFIED. ) 
 GEOMETRIC_REPRESENTATION_ITEM ( )  RATIONAL_B_SPLINE_SURFACE ( (
 ( 1.000000000000000000, 0.9993270391706218200, 0.9993270391706218200, 1.000000000000000000),
 ( 0.9972773482767047800, 0.9966062196852884000, 0.9966062196852884000, 0.9972773482767047800),
 ( 0.9972773482767047800, 0.9966062196852884000, 0.9966062196852884000, 0.9972773482767047800),
 ( 1.000000000000000000, 0.9993270391706218200, 0.9993270391706218200, 1.000000000000000000) ) ) 
 REPRESENTATION_ITEM ( '' )  SURFACE ( )  );
#259 = EDGE_CURVE ( 'NONE', #245, #235, #282, .T. ) ;
#260 = PRODUCT_RELATED_PRODUCT_CATEGORY ( 'detail', '', ( #268 ) ) ;
#261 = CALENDAR_DATE ( 2019, 8, 1 ) ;
#262 = AXIS2_PLACEMENT_3D ( 'NONE', #267, #138, #1 ) ;
#263 = CARTESIAN_POINT ( 'NONE',  ( -9.367506770274758300E-014, -25.70397406218750500, 1.162708418433311600 ) ) ;
#264 = CARTESIAN_POINT ( 'NONE',  ( -16.98509288215712600, -25.70397406218750200, 4.455608352869735900 ) ) ;
#265 = ORIENTED_EDGE ( 'NONE', *, *, #252, .T. ) ;
#266 = ORIENTED_EDGE ( 'NONE', *, *, #64, .F. ) ;
#267 = CARTESIAN_POINT ( 'NONE',  ( 9.992007221626412800E-016, 4.884981308350691100E-015, 1.135316021194199900 ) ) ;
#268 = PRODUCT ( '111-1530E UVFS bi-cx 50.8 F300', '111-1530E UVFS bi-cx 50.8 F300', '', ( #155 ) ) ;
#269 = APPROVAL ( #12, 'UNSPECIFIED' ) ;
#270 = CARTESIAN_POINT ( 'NONE',  ( -16.98509288215719300, -25.70397406218750900, 1.544391647130273900 ) ) ;
#271 = DIRECTION ( 'NONE',  ( 0.0000000000000000000, 0.0000000000000000000, 1.000000000000000000 ) ) ;
#272 = APPROVAL_PERSON_ORGANIZATION ( #292, #22, #197 ) ;
#273 = AXIS2_PLACEMENT_3D ( 'NONE', #227, #45, #90 ) ;
#274 = DIRECTION ( 'NONE',  ( 0.0000000000000000000, 0.0000000000000000000, 1.000000000000000000 ) ) ;
#275 = MANIFOLD_SOLID_BREP ( 'Imported1', #55 ) ;
#276 = CARTESIAN_POINT ( 'NONE',  ( -25.39999999999999900, 7.995584178184967200E-015, 1.135316021194199900 ) ) ;
#277 = DIRECTION ( 'NONE',  ( 1.000000000000000000, 0.0000000000000000000, 0.0000000000000000000 ) ) ;
#278 = VECTOR ( 'NONE', #191, 1000.000000000000000 ) ;
#279 = VERTEX_POINT ( 'NONE', #229 ) ;
#280 = EDGE_CURVE ( 'NONE', #180, #235, #108, .T. ) ;
#281 = DIRECTION ( 'NONE',  ( -0.0000000000000000000, -0.0000000000000000000, -1.000000000000000000 ) ) ;
#282 = CIRCLE ( 'NONE', #62, 25.39999999999999900 ) ;
#283 = CARTESIAN_POINT ( 'NONE',  ( -3.672532118315967700E-014, 8.591382696967906800, -0.3886275703352080100 ) ) ;
#284 = APPROVAL_STATUS ( 'not_yet_approved' ) ;
#285 = COORDINATED_UNIVERSAL_TIME_OFFSET ( 2, 0, .AHEAD. ) ;
#286 = VERTEX_POINT ( 'NONE', #56 ) ;
#287 = EDGE_CURVE ( 'NONE', #49, #180, #295, .T. ) ;
#288 = PERSON_AND_ORGANIZATION_ROLE ( 'design_owner' ) ;
#289 = CC_DESIGN_DATE_AND_TIME_ASSIGNMENT ( #204, #35, ( #221 ) ) ;
#290 = FACE_OUTER_BOUND ( 'NONE', #196, .T. ) ;
#291 =( BOUNDED_SURFACE ( )  B_SPLINE_SURFACE ( 3, 3, ( 
 ( #144, #243, #7, #165 ),
 ( #162, #205, #47, #248 ),
 ( #207, #71, #5, #28 ),
 ( #50, #208, #72, #95 ) ),
 .UNSPECIFIED., .F., .F., .T. ) 
 B_SPLINE_SURFACE_WITH_KNOTS ( ( 4, 4 ),
 ( 4, 4 ),
 ( 0.0000000000000000000, 1.000000000000000000 ),
 ( 0.0000000000000000000, 1.000000000000000000 ),
 .UNSPECIFIED. ) 
 GEOMETRIC_REPRESENTATION_ITEM ( )  RATIONAL_B_SPLINE_SURFACE ( (
 ( 1.000000000000000000, 0.9993270391706218200, 0.9993270391706218200, 1.000000000000000000),
 ( 0.9972773482767047800, 0.9966062196852884000, 0.9966062196852884000, 0.9972773482767047800),
 ( 0.9972773482767047800, 0.9966062196852884000, 0.9966062196852884000, 0.9972773482767047800),
 ( 1.000000000000000000, 0.9993270391706218200, 0.9993270391706218200, 1.000000000000000000) ) ) 
 REPRESENTATION_ITEM ( '' )  SURFACE ( )  );
#292 = PERSON_AND_ORGANIZATION ( #140, #228 ) ;
#293 = ORIENTED_EDGE ( 'NONE', *, *, #202, .T. ) ;
#294 = CARTESIAN_POINT ( 'NONE',  ( -16.98509288215720800, 25.70397406218752300, 1.544391647130218400 ) ) ;
#295 = CIRCLE ( 'NONE', #87, 25.39999999999999900 ) ;
ENDSEC;
END-ISO-10303-21;
