ISO-10303-21;
HEADER;
FILE_DESCRIPTION (( 'STEP AP203' ),
    '1' );
FILE_NAME ('111-1526E UVFS bi-cx 50.8 F250.STEP',
    '2019-01-08T11:50:08',
    ( '' ),
    ( '' ),
    'SwSTEP 2.0',
    'SolidWorks 2017',
    '' );
FILE_SCHEMA (( 'CONFIG_CONTROL_DESIGN' ));
ENDSEC;

DATA;
#1 = LINE ( 'NONE', #216, #44 ) ;
#2 = APPROVAL ( #143, 'UNSPECIFIED' ) ;
#3 = VECTOR ( 'NONE', #107, 1000.000000000000000 ) ;
#4 = AXIS2_PLACEMENT_3D ( 'NONE', #81, #243, #133 ) ;
#5 = EDGE_LOOP ( 'NONE', ( #26, #269, #211 ) ) ;
#6 = FACE_OUTER_BOUND ( 'NONE', #5, .T. ) ;
#7 = DIRECTION ( 'NONE',  ( 1.000000000000000000, 0.0000000000000000000, 0.0000000000000000000 ) ) ;
#8 = CALENDAR_DATE ( 2019, 8, 1 ) ;
#9 = CARTESIAN_POINT ( 'NONE',  ( -1.152344626448570600E-013, -25.70360746073935900, 4.602640128413105100 ) ) ;
#10 = DIRECTION ( 'NONE',  ( 1.000000000000000000, 0.0000000000000000000, 0.0000000000000000000 ) ) ;
#11 = CC_DESIGN_SECURITY_CLASSIFICATION ( #148, ( #98 ) ) ;
#12 = CARTESIAN_POINT ( 'NONE',  ( 9.992007221626412800E-016, 4.884981308350691100E-015, 1.364449011185439900 ) ) ;
#13 = CARTESIAN_POINT ( 'NONE',  ( 9.992007221626412800E-016, 4.884981308350691100E-015, 1.364449011185439900 ) ) ;
#14 = DIRECTION ( 'NONE',  ( -0.0000000000000000000, -0.0000000000000000000, -1.000000000000000000 ) ) ;
#15 = CARTESIAN_POINT ( 'NONE',  ( -16.96297764206485000, 25.70360746073932000, 1.855377247780631400 ) ) ;
#16 = FACE_OUTER_BOUND ( 'NONE', #180, .T. ) ;
#17 = AXIS2_PLACEMENT_3D ( 'NONE', #214, #196, #131 ) ;
#18 = DATE_TIME_ROLE ( 'classification_date' ) ;
#19 = ADVANCED_FACE ( 'NONE', ( #138 ), #160, .T. ) ;
#20 = ORIENTED_EDGE ( 'NONE', *, *, #23, .T. ) ;
#21 = PERSON_AND_ORGANIZATION_ROLE ( 'creator' ) ;
#22 = CARTESIAN_POINT ( 'NONE',  ( 25.60220395703614200, -8.601665363357831500, 5.084044959882696400 ) ) ;
#23 = EDGE_CURVE ( 'NONE', #239, #210, #292, .T. ) ;
#24 = ADVANCED_FACE ( 'NONE', ( #270 ), #237, .T. ) ;
#25 = CARTESIAN_POINT ( 'NONE',  ( 17.09719624292206300, -8.601665363357829700, 6.005982520016787300 ) ) ;
#26 = ORIENTED_EDGE ( 'NONE', *, *, #186, .F. ) ;
#27 = PRODUCT_RELATED_PRODUCT_CATEGORY ( 'detail', '', ( #103 ) ) ;
#28 = ORIENTED_EDGE ( 'NONE', *, *, #186, .T. ) ;
#29 = ORIENTED_EDGE ( 'NONE', *, *, #248, .T. ) ;
#30 = CARTESIAN_POINT ( 'NONE',  ( -25.60220395703613900, -8.601665363357831500, 5.084044959882712400 ) ) ;
#31 = DATE_AND_TIME ( #233, #289 ) ;
#32 = ORIENTED_EDGE ( 'NONE', *, *, #58, .T. ) ;
#33 = CC_DESIGN_PERSON_AND_ORGANIZATION_ASSIGNMENT ( #100, #119, ( #103 ) ) ;
#34 = CARTESIAN_POINT ( 'NONE',  ( -1.156964784751351800E-013, -8.601665363357831500, 6.467623932785857100 ) ) ;
#35 = COORDINATED_UNIVERSAL_TIME_OFFSET ( 2, 0, .AHEAD. ) ;
#36 = CARTESIAN_POINT ( 'NONE',  ( 8.487672284847706200, -25.70360746073926400, 1.397359871586874900 ) ) ;
#37 = DIRECTION ( 'NONE',  ( 1.000000000000000000, 0.0000000000000000000, 0.0000000000000000000 ) ) ;
#38 = AXIS2_PLACEMENT_3D ( 'NONE', #223, #225, #88 ) ;
#39 = DIRECTION ( 'NONE',  ( 1.000000000000000000, 0.0000000000000000000, 0.0000000000000000000 ) ) ;
#40 = CARTESIAN_POINT ( 'NONE',  ( 5.551115123125782700E-014, 8.601665363357874100, -0.4676239327858679500 ) ) ;
#41 = ORIENTED_EDGE ( 'NONE', *, *, #123, .F. ) ;
#42 = CARTESIAN_POINT ( 'NONE',  ( -25.60220395703614200, -8.601665363357817300, 0.9159550401173249800 ) ) ;
#43 =( BOUNDED_SURFACE ( )  B_SPLINE_SURFACE ( 3, 3, ( 
 ( #9, #61, #219, #134 ),
 ( #34, #178, #108, #30 ),
 ( #220, #242, #177, #154 ),
 ( #218, #181, #79, #106 ) ),
 .UNSPECIFIED., .F., .F., .F. ) 
 B_SPLINE_SURFACE_WITH_KNOTS ( ( 4, 4 ),
 ( 4, 4 ),
 ( 0.0000000000000000000, 1.000000000000000000 ),
 ( 0.0000000000000000000, 1.000000000000000000 ),
 .UNSPECIFIED. ) 
 GEOMETRIC_REPRESENTATION_ITEM ( )  RATIONAL_B_SPLINE_SURFACE ( (
 ( 1.000000000000000000, 0.9990286361038017700, 0.9990286361038017700, 1.000000000000000000),
 ( 0.9960709690100185700, 0.9951034216326710700, 0.9951034216326710700, 0.9960709690100185700),
 ( 0.9960709690100185700, 0.9951034216326710700, 0.9951034216326710700, 0.9960709690100185700),
 ( 1.000000000000000000, 0.9990286361038017700, 0.9990286361038017700, 1.000000000000000000) ) ) 
 REPRESENTATION_ITEM ( '' )  SURFACE ( )  );
#44 = VECTOR ( 'NONE', #215, 1000.000000000000000 ) ;
#45 = SECURITY_CLASSIFICATION_LEVEL ( 'unclassified' ) ;
#46 = CARTESIAN_POINT ( 'NONE',  ( -5.898059818321144100E-014, 8.601665363357957600, 6.467623932785896200 ) ) ;
#47 = EDGE_LOOP ( 'NONE', ( #121, #168, #280 ) ) ;
#48 = FACE_OUTER_BOUND ( 'NONE', #290, .T. ) ;
#49 = CARTESIAN_POINT ( 'NONE',  ( 25.40121825475193500, -25.70360746073935900, 3.229922704461013300 ) ) ;
#50 = CC_DESIGN_PERSON_AND_ORGANIZATION_ASSIGNMENT ( #167, #231, ( #86 ) ) ;
#51 = CARTESIAN_POINT ( 'NONE',  ( 9.992007221626412800E-016, 4.884981308350691100E-015, 4.635550988814560300 ) ) ;
#52 = CIRCLE ( 'NONE', #174, 25.39999999999999900 ) ;
#53 = DIRECTION ( 'NONE',  ( 1.000000000000000000, 0.0000000000000000000, 0.0000000000000000000 ) ) ;
#54 = CC_DESIGN_DATE_AND_TIME_ASSIGNMENT ( #31, #18, ( #148 ) ) ;
#55 = CARTESIAN_POINT ( 'NONE',  ( 25.39999999999999900, 4.884981308350691100E-015, 1.364449011185439900 ) ) ;
#56 = CALENDAR_DATE ( 2019, 8, 1 ) ;
#57 = DIRECTION ( 'NONE',  ( 1.000000000000000000, 0.0000000000000000000, 0.0000000000000000000 ) ) ;
#58 = EDGE_CURVE ( 'NONE', #209, #156, #70, .T. ) ;
#59 = DIRECTION ( 'NONE',  ( -0.0000000000000000000, -0.0000000000000000000, -1.000000000000000000 ) ) ;
#60 = CIRCLE ( 'NONE', #112, 25.39999999999999900 ) ;
#61 = CARTESIAN_POINT ( 'NONE',  ( -8.487672284847704400, -25.70360746073935900, 4.602640128413102400 ) ) ;
#62 =( BOUNDED_SURFACE ( )  B_SPLINE_SURFACE ( 3, 3, ( 
 ( #222, #291, #85, #92 ),
 ( #42, #286, #164, #161 ),
 ( #159, #182, #245, #40 ),
 ( #205, #15, #66, #227 ) ),
 .UNSPECIFIED., .F., .F., .F. ) 
 B_SPLINE_SURFACE_WITH_KNOTS ( ( 4, 4 ),
 ( 4, 4 ),
 ( 0.0000000000000000000, 1.000000000000000000 ),
 ( 0.0000000000000000000, 1.000000000000000000 ),
 .UNSPECIFIED. ) 
 GEOMETRIC_REPRESENTATION_ITEM ( )  RATIONAL_B_SPLINE_SURFACE ( (
 ( 1.000000000000000000, 0.9990286361038017700, 0.9990286361038017700, 1.000000000000000000),
 ( 0.9960709690100185700, 0.9951034216326710700, 0.9951034216326710700, 0.9960709690100185700),
 ( 0.9960709690100185700, 0.9951034216326710700, 0.9951034216326710700, 0.9960709690100185700),
 ( 1.000000000000000000, 0.9990286361038017700, 0.9990286361038017700, 1.000000000000000000) ) ) 
 REPRESENTATION_ITEM ( '' )  SURFACE ( )  );
#63 = CARTESIAN_POINT ( 'NONE',  ( -25.39999999999999900, 7.995584178184967200E-015, 1.364449011185439900 ) ) ;
#64 = CARTESIAN_POINT ( 'NONE',  ( -1.152426157121694200E-013, 25.40000000000023000, 4.635550988814539000 ) ) ;
#65 = CARTESIAN_POINT ( 'NONE',  ( 8.554830511583905000, 8.601665363357870600, -0.4676239327858827100 ) ) ;
#66 = CARTESIAN_POINT ( 'NONE',  ( -8.487672284847596100, 25.70360746073932000, 1.397359871586862500 ) ) ;
#67 = CC_DESIGN_DATE_AND_TIME_ASSIGNMENT ( #183, #252, ( #86 ) ) ;
#68 = APPLICATION_PROTOCOL_DEFINITION ( 'international standard', 'config_control_design', 1994, #188 ) ;
#69 = PERSON_AND_ORGANIZATION ( #195, #282 ) ;
#70 = CIRCLE ( 'NONE', #144, 25.39999999999999900 ) ;
#71 = CARTESIAN_POINT ( 'NONE',  ( 8.487672284847592500, 25.70360746073948400, 4.602640128413143300 ) ) ;
#72 = EDGE_CURVE ( 'NONE', #163, #230, #78, .T. ) ;
#73 = CARTESIAN_POINT ( 'NONE',  ( -1.152426157121694200E-013, -25.40000000000015800, 4.635550988814539000 ) ) ;
#74 = CARTESIAN_POINT ( 'NONE',  ( 9.992007221626412800E-016, 4.884981308350691100E-015, 1.364449011185439900 ) ) ;
#75 = DIRECTION ( 'NONE',  ( 1.000000000000000000, 0.0000000000000000000, 0.0000000000000000000 ) ) ;
#76 = CARTESIAN_POINT ( 'NONE',  ( 25.60220395703614200, -8.601665363357817300, 0.9159550401172811300 ) ) ;
#77 = APPROVAL_DATE_TIME ( #152, #254 ) ;
#78 = CIRCLE ( 'NONE', #197, 25.39999999999999900 ) ;
#79 = CARTESIAN_POINT ( 'NONE',  ( -16.96297764206490300, 25.70360746073948400, 4.144622752219381000 ) ) ;
#80 = AXIS2_PLACEMENT_3D ( 'NONE', #141, #136, #287 ) ;
#81 = CARTESIAN_POINT ( 'NONE',  ( 9.992007221626412800E-016, 4.884981308350691100E-015, 4.635550988814560300 ) ) ;
#82 = DIRECTION ( 'NONE',  ( -0.0000000000000000000, -0.0000000000000000000, -1.000000000000000000 ) ) ;
#83 = LOCAL_TIME ( 13, 50, 8.000000000000000000, #273 ) ;
#84 = EDGE_LOOP ( 'NONE', ( #285, #265, #111, #235, #32, #28 ) ) ;
#85 = CARTESIAN_POINT ( 'NONE',  ( -8.487672284847594300, -25.70360746073926400, 1.397359871586890200 ) ) ;
#86 = PRODUCT_DEFINITION ( 'UNKNOWN', '', #98, #101 ) ;
#87 =( LENGTH_UNIT ( ) NAMED_UNIT ( * ) SI_UNIT ( .MILLI., .METRE. ) );
#88 = DIRECTION ( 'NONE',  ( 1.000000000000000000, 0.0000000000000000000, 0.0000000000000000000 ) ) ;
#89 = EDGE_CURVE ( 'NONE', #239, #110, #253, .T. ) ;
#90 = COORDINATED_UNIVERSAL_TIME_OFFSET ( 2, 0, .AHEAD. ) ;
#91 = CARTESIAN_POINT ( 'NONE',  ( 1.152426157121694200E-013, -25.40000000000002000, 1.364449011185435700 ) ) ;
#92 = CARTESIAN_POINT ( 'NONE',  ( 5.204170427930421300E-014, -25.70360746073926400, 1.397359871586890000 ) ) ;
#93 = ORIENTED_EDGE ( 'NONE', *, *, #153, .T. ) ;
#94 = PERSON_AND_ORGANIZATION ( #195, #282 ) ;
#95 = EDGE_LOOP ( 'NONE', ( #275, #20, #29 ) ) ;
#96 = CARTESIAN_POINT ( 'NONE',  ( 8.554830511583785900, 8.601665363357954100, 6.467623932785895300 ) ) ;
#97 = CARTESIAN_POINT ( 'NONE',  ( -5.551115123125782700E-014, -25.70360746073935900, 4.602640128413115800 ) ) ;
#98 = PRODUCT_DEFINITION_FORMATION_WITH_SPECIFIED_SOURCE ( 'ANY', '', #103, .NOT_KNOWN. ) ;
#99 = DIRECTION ( 'NONE',  ( -0.0000000000000000000, -0.0000000000000000000, -1.000000000000000000 ) ) ;
#100 = PERSON_AND_ORGANIZATION ( #195, #282 ) ;
#101 = DESIGN_CONTEXT ( 'detailed design', #188, 'design' ) ;
#102 = DIRECTION ( 'NONE',  ( 0.0000000000000000000, 0.0000000000000000000, 1.000000000000000000 ) ) ;
#103 = PRODUCT ( '111-1526E UVFS bi-cx 50.8 F250', '111-1526E UVFS bi-cx 50.8 F250', '', ( #169 ) ) ;
#104 = CARTESIAN_POINT ( 'NONE',  ( 1.152426157121694200E-013, 25.40000000000009100, 1.364449011185435700 ) ) ;
#105 = VERTEX_POINT ( 'NONE', #55 ) ;
#106 = CARTESIAN_POINT ( 'NONE',  ( -25.40121825475193900, 25.70360746073948400, 3.229922704461056800 ) ) ;
#107 = DIRECTION ( 'NONE',  ( 0.0000000000000000000, 0.0000000000000000000, 1.000000000000000000 ) ) ;
#108 = CARTESIAN_POINT ( 'NONE',  ( -17.09719624292211600, -8.601665363357829700, 6.005982520016792700 ) ) ;
#109 = CARTESIAN_POINT ( 'NONE',  ( 9.992007221626412800E-016, 4.884981308350691100E-015, 4.635550988814560300 ) ) ;
#110 = VERTEX_POINT ( 'NONE', #104 ) ;
#111 = ORIENTED_EDGE ( 'NONE', *, *, #153, .F. ) ;
#112 = AXIS2_PLACEMENT_3D ( 'NONE', #12, #59, #10 ) ;
#113 =( NAMED_UNIT ( * ) PLANE_ANGLE_UNIT ( ) SI_UNIT ( $, .RADIAN. ) );
#114 = LOCAL_TIME ( 13, 50, 8.000000000000000000, #251 ) ;
#115 = LINE ( 'NONE', #63, #3 ) ;
#116 = CARTESIAN_POINT ( 'NONE',  ( 25.40121825475193900, 25.70360746073932000, 2.770077295538920600 ) ) ;
#117 = AXIS2_PLACEMENT_3D ( 'NONE', #278, #102, #75 ) ;
#118 = APPROVAL_STATUS ( 'not_yet_approved' ) ;
#119 = PERSON_AND_ORGANIZATION_ROLE ( 'design_owner' ) ;
#120 = APPROVAL_ROLE ( '' ) ;
#121 = ORIENTED_EDGE ( 'NONE', *, *, #189, .F. ) ;
#122 = CARTESIAN_POINT ( 'NONE',  ( 8.487672284847590700, -25.70360746073935900, 4.602640128413115800 ) ) ;
#123 = EDGE_CURVE ( 'NONE', #105, #209, #1, .T. ) ;
#124 = CARTESIAN_POINT ( 'NONE',  ( 16.96297764206484600, 25.70360746073948400, 4.144622752219375700 ) ) ;
#125 = CARTESIAN_POINT ( 'NONE',  ( 25.60220395703614600, 8.601665363357955800, 5.084044959882722200 ) ) ;
#126 = DIRECTION ( 'NONE',  ( 0.0000000000000000000, -1.000000000000000000, 0.0000000000000000000 ) ) ;
#127 = SHAPE_DEFINITION_REPRESENTATION ( #262, #288 ) ;
#128 = EDGE_CURVE ( 'NONE', #110, #105, #179, .T. ) ;
#129 = DIRECTION ( 'NONE',  ( -0.0000000000000000000, -0.0000000000000000000, -1.000000000000000000 ) ) ;
#130 = CLOSED_SHELL ( 'NONE', ( #187, #170, #236, #272, #24, #19 ) ) ;
#131 = DIRECTION ( 'NONE',  ( 1.000000000000000000, 0.0000000000000000000, 0.0000000000000000000 ) ) ;
#132 = CC_DESIGN_APPROVAL ( #254, ( #98 ) ) ;
#133 = DIRECTION ( 'NONE',  ( 1.000000000000000000, 0.0000000000000000000, 0.0000000000000000000 ) ) ;
#134 = CARTESIAN_POINT ( 'NONE',  ( -25.40121825475193200, -25.70360746073935900, 3.229922704461029200 ) ) ;
#135 = DIRECTION ( 'NONE',  ( 0.0000000000000000000, 0.0000000000000000000, 1.000000000000000000 ) ) ;
#136 = DIRECTION ( 'NONE',  ( -1.000000000000000000, -1.214463751540089900E-031, -2.477318190082090200E-016 ) ) ;
#137 = ORIENTED_EDGE ( 'NONE', *, *, #128, .F. ) ;
#138 = FACE_OUTER_BOUND ( 'NONE', #47, .T. ) ;
#139 = CARTESIAN_POINT ( 'NONE',  ( 1.152344626448570600E-013, 25.70360746073932000, 1.397359871586845200 ) ) ;
#140 = AXIS2_PLACEMENT_3D ( 'NONE', #241, #238, #126 ) ;
#141 = CARTESIAN_POINT ( 'NONE',  ( -5.684341886080800200E-014, 7.105427357601000600E-014, -231.0999999999999900 ) ) ;
#142 = COORDINATED_UNIVERSAL_TIME_OFFSET ( 2, 0, .AHEAD. ) ;
#143 = APPROVAL_STATUS ( 'not_yet_approved' ) ;
#144 = AXIS2_PLACEMENT_3D ( 'NONE', #51, #129, #57 ) ;
#145 = APPROVAL_ROLE ( '' ) ;
#146 = PERSON_AND_ORGANIZATION_ROLE ( 'design_supplier' ) ;
#147 = CARTESIAN_POINT ( 'NONE',  ( -5.551115123125782700E-014, 25.70360746073948400, 4.602640128413143300 ) ) ;
#148 = SECURITY_CLASSIFICATION ( '', '', #45 ) ;
#149 = PERSON_AND_ORGANIZATION ( #195, #282 ) ;
#150 = ORIENTED_EDGE ( 'NONE', *, *, #172, .T. ) ;
#151 = CARTESIAN_POINT ( 'NONE',  ( 9.992007221626412800E-016, 4.884981308350691100E-015, 4.635550988814560300 ) ) ;
#152 = DATE_AND_TIME ( #56, #83 ) ;
#153 = EDGE_CURVE ( 'NONE', #105, #239, #60, .T. ) ;
#154 = CARTESIAN_POINT ( 'NONE',  ( -25.60220395703614200, 8.601665363357955800, 5.084044959882740900 ) ) ;
#155 = APPROVAL_PERSON_ORGANIZATION ( #256, #2, #120 ) ;
#156 = VERTEX_POINT ( 'NONE', #73 ) ;
#157 = AXIS2_PLACEMENT_3D ( 'NONE', #229, #135, #39 ) ;
#158 = ORIENTED_EDGE ( 'NONE', *, *, #89, .T. ) ;
#159 = CARTESIAN_POINT ( 'NONE',  ( -25.60220395703614600, 8.601665363357874100, 0.9159550401173030000 ) ) ;
#160 =( BOUNDED_SURFACE ( )  B_SPLINE_SURFACE ( 3, 3, ( 
 ( #49, #171, #122, #97 ),
 ( #22, #25, #192, #213 ),
 ( #125, #193, #96, #46 ),
 ( #276, #124, #71, #147 ) ),
 .UNSPECIFIED., .F., .F., .F. ) 
 B_SPLINE_SURFACE_WITH_KNOTS ( ( 4, 4 ),
 ( 4, 4 ),
 ( 0.0000000000000000000, 1.000000000000000000 ),
 ( 0.0000000000000000000, 1.000000000000000000 ),
 .UNSPECIFIED. ) 
 GEOMETRIC_REPRESENTATION_ITEM ( )  RATIONAL_B_SPLINE_SURFACE ( (
 ( 1.000000000000000000, 0.9990286361038017700, 0.9990286361038017700, 1.000000000000000000),
 ( 0.9960709690100185700, 0.9951034216326710700, 0.9951034216326710700, 0.9960709690100185700),
 ( 0.9960709690100185700, 0.9951034216326710700, 0.9951034216326710700, 0.9960709690100185700),
 ( 1.000000000000000000, 0.9990286361038017700, 0.9990286361038017700, 1.000000000000000000) ) ) 
 REPRESENTATION_ITEM ( '' )  SURFACE ( )  );
#161 = CARTESIAN_POINT ( 'NONE',  ( 5.551115123125782700E-014, -8.601665363357817300, -0.4676239327858457400 ) ) ;
#162 = PERSON_AND_ORGANIZATION ( #195, #282 ) ;
#163 = VERTEX_POINT ( 'NONE', #281 ) ;
#164 = CARTESIAN_POINT ( 'NONE',  ( -8.554830511583789500, -8.601665363357815500, -0.4676239327858456300 ) ) ;
#165 = CC_DESIGN_PERSON_AND_ORGANIZATION_ASSIGNMENT ( #69, #166, ( #148 ) ) ;
#166 = PERSON_AND_ORGANIZATION_ROLE ( 'classification_officer' ) ;
#167 = PERSON_AND_ORGANIZATION ( #195, #282 ) ;
#168 = ORIENTED_EDGE ( 'NONE', *, *, #58, .F. ) ;
#169 = MECHANICAL_CONTEXT ( 'NONE', #204, 'mechanical' ) ;
#170 = ADVANCED_FACE ( 'NONE', ( #6 ), #43, .T. ) ;
#171 = CARTESIAN_POINT ( 'NONE',  ( 16.96297764206484300, -25.70360746073935900, 4.144622752219347300 ) ) ;
#172 = EDGE_CURVE ( 'NONE', #230, #209, #52, .T. ) ;
#173 = MANIFOLD_SOLID_BREP ( 'Imported1', #130 ) ;
#174 = AXIS2_PLACEMENT_3D ( 'NONE', #109, #82, #198 ) ;
#175 = DIRECTION ( 'NONE',  ( -0.0000000000000000000, -0.0000000000000000000, -1.000000000000000000 ) ) ;
#176 = CIRCLE ( 'NONE', #277, 25.39999999999999900 ) ;
#177 = CARTESIAN_POINT ( 'NONE',  ( -17.09719624292212000, 8.601665363357952300, 6.005982520016820200 ) ) ;
#178 = CARTESIAN_POINT ( 'NONE',  ( -8.554830511583903200, -8.601665363357829700, 6.467623932785855300 ) ) ;
#179 = CIRCLE ( 'NONE', #212, 25.39999999999999900 ) ;
#180 = EDGE_LOOP ( 'NONE', ( #293, #279, #184, #150, #41, #137 ) ) ;
#181 = CARTESIAN_POINT ( 'NONE',  ( -8.487672284847706200, 25.70360746073948400, 4.602640128413130900 ) ) ;
#182 = CARTESIAN_POINT ( 'NONE',  ( -17.09719624292206700, 8.601665363357870600, -0.005982520016788281600 ) ) ;
#183 = DATE_AND_TIME ( #8, #217 ) ;
#184 = ORIENTED_EDGE ( 'NONE', *, *, #72, .T. ) ;
#185 = CARTESIAN_POINT ( 'NONE',  ( 17.09719624292212000, 8.601665363357870600, -0.005982520016821349700 ) ) ;
#186 = EDGE_CURVE ( 'NONE', #156, #163, #226, .T. ) ;
#187 = ADVANCED_FACE ( 'NONE', ( #48 ), #284, .T. ) ;
#188 = APPLICATION_CONTEXT ( 'configuration controlled 3d designs of mechanical parts and assemblies' ) ;
#189 = EDGE_CURVE ( 'NONE', #156, #230, #234, .T. ) ;
#190 = APPROVAL_ROLE ( '' ) ;
#191 = CYLINDRICAL_SURFACE ( 'NONE', #157, 25.39999999999999900 ) ;
#192 = CARTESIAN_POINT ( 'NONE',  ( 8.554830511583785900, -8.601665363357827900, 6.467623932785867800 ) ) ;
#193 = CARTESIAN_POINT ( 'NONE',  ( 17.09719624292206700, 8.601665363357952300, 6.005982520016814000 ) ) ;
#194 = CC_DESIGN_APPROVAL ( #2, ( #86 ) ) ;
#195 = PERSON ( 'UNSPECIFIED', 'UNSPECIFIED', 'UNSPECIFIED', ('UNSPECIFIED'), ('UNSPECIFIED'), ('UNSPECIFIED') ) ;
#196 = DIRECTION ( 'NONE',  ( -0.0000000000000000000, -0.0000000000000000000, -1.000000000000000000 ) ) ;
#197 = AXIS2_PLACEMENT_3D ( 'NONE', #151, #175, #53 ) ;
#198 = DIRECTION ( 'NONE',  ( 1.000000000000000000, 8.881784197001252300E-016, 0.0000000000000000000 ) ) ;
#199 = CARTESIAN_POINT ( 'NONE',  ( 1.152344626448570600E-013, -25.70360746073926400, 1.397359871586872900 ) ) ;
#200 = CC_DESIGN_PERSON_AND_ORGANIZATION_ASSIGNMENT ( #162, #21, ( #98 ) ) ;
#201 = CALENDAR_DATE ( 2019, 8, 1 ) ;
#202 = CARTESIAN_POINT ( 'NONE',  ( 8.487672284847708000, 25.70360746073932000, 1.397359871586847200 ) ) ;
#203 = CARTESIAN_POINT ( 'NONE',  ( 25.60220395703614200, 8.601665363357874100, 0.9159550401172597000 ) ) ;
#204 = APPLICATION_CONTEXT ( 'configuration controlled 3d designs of mechanical parts and assemblies' ) ;
#205 = CARTESIAN_POINT ( 'NONE',  ( -25.40121825475194200, 25.70360746073932000, 2.770077295538964100 ) ) ;
#206 = DATE_AND_TIME ( #201, #114 ) ;
#207 = EDGE_CURVE ( 'NONE', #210, #163, #115, .T. ) ;
#208 = CALENDAR_DATE ( 2019, 8, 1 ) ;
#209 = VERTEX_POINT ( 'NONE', #266 ) ;
#210 = VERTEX_POINT ( 'NONE', #249 ) ;
#211 = ORIENTED_EDGE ( 'NONE', *, *, #72, .F. ) ;
#212 = AXIS2_PLACEMENT_3D ( 'NONE', #74, #99, #7 ) ;
#213 = CARTESIAN_POINT ( 'NONE',  ( -5.898059818321144100E-014, -8.601665363357829700, 6.467623932785866900 ) ) ;
#214 = CARTESIAN_POINT ( 'NONE',  ( 9.992007221626412800E-016, 4.884981308350691100E-015, 1.364449011185439900 ) ) ;
#215 = DIRECTION ( 'NONE',  ( 0.0000000000000000000, 0.0000000000000000000, 1.000000000000000000 ) ) ;
#216 = CARTESIAN_POINT ( 'NONE',  ( 25.39999999999999900, 4.884981308350691100E-015, 1.364449011185439900 ) ) ;
#217 = LOCAL_TIME ( 13, 50, 8.000000000000000000, #35 ) ;
#218 = CARTESIAN_POINT ( 'NONE',  ( -1.152344626448570800E-013, 25.70360746073948400, 4.602640128413132600 ) ) ;
#219 = CARTESIAN_POINT ( 'NONE',  ( -16.96297764206489900, -25.70360746073935900, 4.144622752219352600 ) ) ;
#220 = CARTESIAN_POINT ( 'NONE',  ( -1.156964784751352100E-013, 8.601665363357955800, 6.467623932785884700 ) ) ;
#221 = APPROVAL_DATE_TIME ( #259, #2 ) ;
#222 = CARTESIAN_POINT ( 'NONE',  ( -25.40121825475193900, -25.70360746073926400, 2.770077295538992100 ) ) ;
#223 = CARTESIAN_POINT ( 'NONE',  ( 0.0000000000000000000, 0.0000000000000000000, 0.0000000000000000000 ) ) ;
#224 = PERSON_AND_ORGANIZATION ( #195, #282 ) ;
#225 = DIRECTION ( 'NONE',  ( 0.0000000000000000000, 0.0000000000000000000, 1.000000000000000000 ) ) ;
#226 = CIRCLE ( 'NONE', #4, 25.39999999999999900 ) ;
#227 = CARTESIAN_POINT ( 'NONE',  ( 5.204170427930421300E-014, 25.70360746073932000, 1.397359871586862300 ) ) ;
#228 =( GEOMETRIC_REPRESENTATION_CONTEXT ( 3 ) GLOBAL_UNCERTAINTY_ASSIGNED_CONTEXT ( ( #240 ) ) GLOBAL_UNIT_ASSIGNED_CONTEXT ( ( #87, #113, #247 ) ) REPRESENTATION_CONTEXT ( 'NONE', 'WORKASPACE' ) );
#229 = CARTESIAN_POINT ( 'NONE',  ( 9.992007221626412800E-016, 4.884981308350691100E-015, 1.364449011185439900 ) ) ;
#230 = VERTEX_POINT ( 'NONE', #64 ) ;
#231 = PERSON_AND_ORGANIZATION_ROLE ( 'creator' ) ;
#232 = CC_DESIGN_PERSON_AND_ORGANIZATION_ASSIGNMENT ( #224, #146, ( #98 ) ) ;
#233 = CALENDAR_DATE ( 2019, 8, 1 ) ;
#234 = CIRCLE ( 'NONE', #80, 237.0999999999999900 ) ;
#235 = ORIENTED_EDGE ( 'NONE', *, *, #123, .T. ) ;
#236 = ADVANCED_FACE ( 'NONE', ( #16 ), #191, .T. ) ;
#237 = CYLINDRICAL_SURFACE ( 'NONE', #117, 25.39999999999999900 ) ;
#238 = DIRECTION ( 'NONE',  ( 1.000000000000000000, 0.0000000000000000000, 2.477318190082090200E-016 ) ) ;
#239 = VERTEX_POINT ( 'NONE', #91 ) ;
#240 = UNCERTAINTY_MEASURE_WITH_UNIT (LENGTH_MEASURE( 1.000000000000000100E-005 ), #87, 'distance_accuracy_value', 'NONE');
#241 = CARTESIAN_POINT ( 'NONE',  ( 5.684341886080800200E-014, 7.105427357601000600E-014, 237.0999999999999900 ) ) ;
#242 = CARTESIAN_POINT ( 'NONE',  ( -8.554830511583905000, 8.601665363357952300, 6.467623932785882000 ) ) ;
#243 = DIRECTION ( 'NONE',  ( -0.0000000000000000000, -0.0000000000000000000, -1.000000000000000000 ) ) ;
#244 = CARTESIAN_POINT ( 'NONE',  ( 25.40121825475193900, -25.70360746073926400, 2.770077295538948500 ) ) ;
#245 = CARTESIAN_POINT ( 'NONE',  ( -8.554830511583789500, 8.601665363357870600, -0.4676239327858680000 ) ) ;
#246 = FACE_OUTER_BOUND ( 'NONE', #95, .T. ) ;
#247 =( NAMED_UNIT ( * ) SI_UNIT ( $, .STERADIAN. ) SOLID_ANGLE_UNIT ( ) );
#248 = EDGE_CURVE ( 'NONE', #210, #110, #176, .T. ) ;
#249 = CARTESIAN_POINT ( 'NONE',  ( -25.39999999999999900, 7.995584178184967200E-015, 1.364449011185439900 ) ) ;
#250 = APPLICATION_PROTOCOL_DEFINITION ( 'international standard', 'config_control_design', 1994, #204 ) ;
#251 = COORDINATED_UNIVERSAL_TIME_OFFSET ( 2, 0, .AHEAD. ) ;
#252 = DATE_TIME_ROLE ( 'creation_date' ) ;
#253 = CIRCLE ( 'NONE', #140, 237.0999999999999900 ) ;
#254 = APPROVAL ( #118, 'UNSPECIFIED' ) ;
#255 = APPROVAL_DATE_TIME ( #206, #261 ) ;
#256 = PERSON_AND_ORGANIZATION ( #195, #282 ) ;
#257 = CARTESIAN_POINT ( 'NONE',  ( 1.156964784751351800E-013, -8.601665363357817300, -0.4676239327858630600 ) ) ;
#258 = CARTESIAN_POINT ( 'NONE',  ( 17.09719624292212400, -8.601665363357815500, -0.005982520016799665700 ) ) ;
#259 = DATE_AND_TIME ( #208, #263 ) ;
#260 = CARTESIAN_POINT ( 'NONE',  ( 16.96297764206490300, -25.70360746073926400, 1.855377247780625800 ) ) ;
#261 = APPROVAL ( #295, 'UNSPECIFIED' ) ;
#262 = PRODUCT_DEFINITION_SHAPE ( 'NONE', 'NONE',  #86 ) ;
#263 = LOCAL_TIME ( 13, 50, 8.000000000000000000, #90 ) ;
#264 = ORIENTED_EDGE ( 'NONE', *, *, #128, .T. ) ;
#265 = ORIENTED_EDGE ( 'NONE', *, *, #23, .F. ) ;
#266 = CARTESIAN_POINT ( 'NONE',  ( 25.39999999999999900, 4.884981308350691100E-015, 4.635550988814560300 ) ) ;
#267 = CARTESIAN_POINT ( 'NONE',  ( 1.156964784751351800E-013, 8.601665363357874100, -0.4676239327858849900 ) ) ;
#268 = APPROVAL_PERSON_ORGANIZATION ( #94, #261, #190 ) ;
#269 = ORIENTED_EDGE ( 'NONE', *, *, #189, .T. ) ;
#270 = FACE_OUTER_BOUND ( 'NONE', #84, .T. ) ;
#271 = CARTESIAN_POINT ( 'NONE',  ( 16.96297764206490300, 25.70360746073932000, 1.855377247780598100 ) ) ;
#272 = ADVANCED_FACE ( 'NONE', ( #246 ), #62, .T. ) ;
#273 = COORDINATED_UNIVERSAL_TIME_OFFSET ( 2, 0, .AHEAD. ) ;
#274 = APPROVAL_PERSON_ORGANIZATION ( #149, #254, #145 ) ;
#275 = ORIENTED_EDGE ( 'NONE', *, *, #89, .F. ) ;
#276 = CARTESIAN_POINT ( 'NONE',  ( 25.40121825475193900, 25.70360746073948400, 3.229922704461041200 ) ) ;
#277 = AXIS2_PLACEMENT_3D ( 'NONE', #13, #14, #37 ) ;
#278 = CARTESIAN_POINT ( 'NONE',  ( 9.992007221626412800E-016, 4.884981308350691100E-015, 1.364449011185439900 ) ) ;
#279 = ORIENTED_EDGE ( 'NONE', *, *, #207, .T. ) ;
#280 = ORIENTED_EDGE ( 'NONE', *, *, #172, .F. ) ;
#281 = CARTESIAN_POINT ( 'NONE',  ( -25.39999999999999900, 7.995584178184967200E-015, 4.635550988814560300 ) ) ;
#282 = ORGANIZATION ( 'UNSPECIFIED', 'UNSPECIFIED', '' ) ;
#283 = CARTESIAN_POINT ( 'NONE',  ( 8.554830511583905000, -8.601665363357815500, -0.4676239327858608400 ) ) ;
#284 =( BOUNDED_SURFACE ( )  B_SPLINE_SURFACE ( 3, 3, ( 
 ( #199, #36, #260, #244 ),
 ( #257, #283, #258, #76 ),
 ( #267, #65, #185, #203 ),
 ( #139, #202, #271, #116 ) ),
 .UNSPECIFIED., .F., .F., .F. ) 
 B_SPLINE_SURFACE_WITH_KNOTS ( ( 4, 4 ),
 ( 4, 4 ),
 ( 0.0000000000000000000, 1.000000000000000000 ),
 ( 0.0000000000000000000, 1.000000000000000000 ),
 .UNSPECIFIED. ) 
 GEOMETRIC_REPRESENTATION_ITEM ( )  RATIONAL_B_SPLINE_SURFACE ( (
 ( 1.000000000000000000, 0.9990286361038017700, 0.9990286361038017700, 1.000000000000000000),
 ( 0.9960709690100185700, 0.9951034216326710700, 0.9951034216326710700, 0.9960709690100185700),
 ( 0.9960709690100185700, 0.9951034216326710700, 0.9951034216326710700, 0.9960709690100185700),
 ( 1.000000000000000000, 0.9990286361038017700, 0.9990286361038017700, 1.000000000000000000) ) ) 
 REPRESENTATION_ITEM ( '' )  SURFACE ( )  );
#285 = ORIENTED_EDGE ( 'NONE', *, *, #207, .F. ) ;
#286 = CARTESIAN_POINT ( 'NONE',  ( -17.09719624292206300, -8.601665363357815500, -0.005982520016766271400 ) ) ;
#287 = DIRECTION ( 'NONE',  ( 0.0000000000000000000, -1.000000000000000000, 4.682509593526598400E-016 ) ) ;
#288 = ADVANCED_BREP_SHAPE_REPRESENTATION ( '111-1526E UVFS bi-cx 50.8 F250', ( #173, #38 ), #228 ) ;
#289 = LOCAL_TIME ( 13, 50, 8.000000000000000000, #142 ) ;
#290 = EDGE_LOOP ( 'NONE', ( #93, #158, #264 ) ) ;
#291 = CARTESIAN_POINT ( 'NONE',  ( -16.96297764206485000, -25.70360746073926400, 1.855377247780659200 ) ) ;
#292 = CIRCLE ( 'NONE', #17, 25.39999999999999900 ) ;
#293 = ORIENTED_EDGE ( 'NONE', *, *, #248, .F. ) ;
#294 = CC_DESIGN_APPROVAL ( #261, ( #148 ) ) ;
#295 = APPROVAL_STATUS ( 'not_yet_approved' ) ;
ENDSEC;
END-ISO-10303-21;
