ISO-10303-21;
HEADER;
FILE_DESCRIPTION (( 'STEP AP203' ),
    '1' );
FILE_NAME ('111-1522E UVFS bi-cx 50.8 F200.STEP',
    '2019-01-08T11:19:37',
    ( '' ),
    ( '' ),
    'SwSTEP 2.0',
    'SolidWorks 2017',
    '' );
FILE_SCHEMA (( 'CONFIG_CONTROL_DESIGN' ));
ENDSEC;

DATA;
#1 = FACE_OUTER_BOUND ( 'NONE', #275, .T. ) ;
#2 = CARTESIAN_POINT ( 'NONE',  ( -1.421085471520200100E-014, 25.70292423846425600, 1.753073377376401800 ) ) ;
#3 = ORIENTED_EDGE ( 'NONE', *, *, #293, .F. ) ;
#4 =( BOUNDED_SURFACE ( )  B_SPLINE_SURFACE ( 3, 3, ( 
 ( #180, #28, #179, #149 ),
 ( #44, #70, #68, #220 ),
 ( #135, #88, #171, #241 ),
 ( #2, #22, #43, #48 ) ),
 .UNSPECIFIED., .F., .F., .F. ) 
 B_SPLINE_SURFACE_WITH_KNOTS ( ( 4, 4 ),
 ( 4, 4 ),
 ( 0.0000000000000000000, 1.000000000000000000 ),
 ( 0.0000000000000000000, 1.000000000000000000 ),
 .UNSPECIFIED. ) 
 GEOMETRIC_REPRESENTATION_ITEM ( )  RATIONAL_B_SPLINE_SURFACE ( (
 ( 1.000000000000000000, 0.9984730009507633000, 0.9984730009507633000, 1.000000000000000000),
 ( 0.9938261194668905900, 0.9923085479273580100, 0.9923085479273580100, 0.9938261194668905900),
 ( 0.9938261194668905900, 0.9923085479273580100, 0.9923085479273580100, 0.9938261194668905900),
 ( 1.000000000000000000, 0.9984730009507633000, 0.9984730009507633000, 1.000000000000000000) ) ) 
 REPRESENTATION_ITEM ( '' )  SURFACE ( )  );
#5 = CYLINDRICAL_SURFACE ( 'NONE', #250, 25.39999999999999900 ) ;
#6 = CIRCLE ( 'NONE', #246, 25.39999999999999900 ) ;
#7 = CARTESIAN_POINT ( 'NONE',  ( 25.39999999999999900, 4.884981308350691100E-015, 1.711807407822200100 ) ) ;
#8 = VERTEX_POINT ( 'NONE', #147 ) ;
#9 = CARTESIAN_POINT ( 'NONE',  ( -25.39999999999999900, 7.995584178184967200E-015, 1.711807407822200100 ) ) ;
#10 = DIRECTION ( 'NONE',  ( 0.0000000000000000000, 0.0000000000000000000, 1.000000000000000000 ) ) ;
#11 = CARTESIAN_POINT ( 'NONE',  ( 25.63083630819976500, -8.620865607172104800, 5.850227747917033500 ) ) ;
#12 = PERSON_AND_ORGANIZATION ( #287, #266 ) ;
#13 = ADVANCED_FACE ( 'NONE', ( #117 ), #200, .T. ) ;
#14 = PERSON_AND_ORGANIZATION_ROLE ( 'creator' ) ;
#15 = AXIS2_PLACEMENT_3D ( 'NONE', #142, #79, #57 ) ;
#16 =( NAMED_UNIT ( * ) PLANE_ANGLE_UNIT ( ) SI_UNIT ( $, .RADIAN. ) );
#17 = CARTESIAN_POINT ( 'NONE',  ( -16.92177368215243000, -25.70292423846428800, 4.673939676916991600 ) ) ;
#18 = EDGE_CURVE ( 'NONE', #268, #25, #294, .T. ) ;
#19 = CARTESIAN_POINT ( 'NONE',  ( -17.13300033800036500, 8.620865607172090600, 7.007848683767979200 ) ) ;
#20 = DATE_AND_TIME ( #33, #146 ) ;
#21 = CARTESIAN_POINT ( 'NONE',  ( -8.470587775686167800, 25.70292423846427700, 5.246926622623632000 ) ) ;
#22 = CARTESIAN_POINT ( 'NONE',  ( 8.470587775686167800, 25.70292423846425900, 1.753073377376401800 ) ) ;
#23 = DATE_AND_TIME ( #217, #169 ) ;
#24 = DIRECTION ( 'NONE',  ( 0.0000000000000000000, 0.0000000000000000000, 1.000000000000000000 ) ) ;
#25 = VERTEX_POINT ( 'NONE', #100 ) ;
#26 = CARTESIAN_POINT ( 'NONE',  ( -8.576322195879518200, -8.620865607172115500, -0.5879879598780104500 ) ) ;
#27 = PERSON_AND_ORGANIZATION ( #287, #266 ) ;
#28 = CARTESIAN_POINT ( 'NONE',  ( 8.470587775686166100, -25.70292423846429800, 1.753073377376374000 ) ) ;
#29 = FACE_OUTER_BOUND ( 'NONE', #45, .T. ) ;
#30 = CARTESIAN_POINT ( 'NONE',  ( -1.421085471520200100E-014, -1.421085471520200100E-014, 189.3000000000000100 ) ) ;
#31 = ORIENTED_EDGE ( 'NONE', *, *, #193, .F. ) ;
#32 = CARTESIAN_POINT ( 'NONE',  ( 17.13300033800039300, -8.620865607172103000, 7.007848683767975700 ) ) ;
#33 = CALENDAR_DATE ( 2019, 8, 1 ) ;
#34 = AXIS2_PLACEMENT_3D ( 'NONE', #281, #93, #94 ) ;
#35 = CARTESIAN_POINT ( 'NONE',  ( 25.31484286086648400, 25.70292423846427400, 3.530590637067648500 ) ) ;
#36 = ORIENTED_EDGE ( 'NONE', *, *, #131, .F. ) ;
#37 = CC_DESIGN_PERSON_AND_ORGANIZATION_ASSIGNMENT ( #201, #291, ( #166 ) ) ;
#38 = APPROVAL_ROLE ( '' ) ;
#39 = EDGE_CURVE ( 'NONE', #271, #83, #6, .T. ) ;
#40 = PRODUCT_DEFINITION_SHAPE ( 'NONE', 'NONE',  #85 ) ;
#41 = CARTESIAN_POINT ( 'NONE',  ( 1.421085471520200100E-014, 8.620865607172094200, 7.587987959878010900 ) ) ;
#42 = CARTESIAN_POINT ( 'NONE',  ( -8.470587775686167800, -25.70292423846428800, 5.246926622623632000 ) ) ;
#43 = CARTESIAN_POINT ( 'NONE',  ( 16.92177368215242700, 25.70292423846425900, 2.326060323083042600 ) ) ;
#44 = CARTESIAN_POINT ( 'NONE',  ( -1.421085471520200100E-014, -8.620865607172115500, -0.5879879598780029000 ) ) ;
#45 = EDGE_LOOP ( 'NONE', ( #36, #72, #249 ) ) ;
#46 = AXIS2_PLACEMENT_3D ( 'NONE', #284, #139, #160 ) ;
#47 = VECTOR ( 'NONE', #270, 1000.000000000000000 ) ;
#48 = CARTESIAN_POINT ( 'NONE',  ( 25.31484286086648100, 25.70292423846425600, 3.469409362932387900 ) ) ;
#49 = DIRECTION ( 'NONE',  ( -0.0000000000000000000, -0.0000000000000000000, -1.000000000000000000 ) ) ;
#50 = CARTESIAN_POINT ( 'NONE',  ( -25.39999999999999900, 7.995584178184967200E-015, 1.711807407822200100 ) ) ;
#51 = ORIENTED_EDGE ( 'NONE', *, *, #221, .F. ) ;
#52 = DIRECTION ( 'NONE',  ( 1.000000000000000000, 0.0000000000000000000, 0.0000000000000000000 ) ) ;
#53 = CARTESIAN_POINT ( 'NONE',  ( -1.421085471520200100E-014, 25.40000000000011600, 1.711807407822215200 ) ) ;
#54 = CARTESIAN_POINT ( 'NONE',  ( 1.421085471520200100E-014, -1.421085471520200100E-014, -182.3000000000000100 ) ) ;
#55 = CIRCLE ( 'NONE', #176, 25.39999999999999900 ) ;
#56 = ORIENTED_EDGE ( 'NONE', *, *, #223, .F. ) ;
#57 = DIRECTION ( 'NONE',  ( 1.000000000000000000, 0.0000000000000000000, 0.0000000000000000000 ) ) ;
#58 = APPROVAL_ROLE ( '' ) ;
#59 = ORIENTED_EDGE ( 'NONE', *, *, #124, .T. ) ;
#60 = APPROVAL_ROLE ( '' ) ;
#61 = DATE_AND_TIME ( #65, #123 ) ;
#62 = CARTESIAN_POINT ( 'NONE',  ( 1.421085471520200100E-014, -25.70292423846428400, 5.246926622623632000 ) ) ;
#63 = FACE_OUTER_BOUND ( 'NONE', #227, .T. ) ;
#64 = CARTESIAN_POINT ( 'NONE',  ( -25.63083630819976500, -8.620865607172104800, 5.850227747917030800 ) ) ;
#65 = CALENDAR_DATE ( 2019, 8, 1 ) ;
#66 = ORIENTED_EDGE ( 'NONE', *, *, #223, .T. ) ;
#67 = LOCAL_TIME ( 13, 19, 37.00000000000000000, #185 ) ;
#68 = CARTESIAN_POINT ( 'NONE',  ( 17.13300033800036500, -8.620865607172113700, -0.007848683767972550500 ) ) ;
#69 = CC_DESIGN_APPROVAL ( #107, ( #267 ) ) ;
#70 = CARTESIAN_POINT ( 'NONE',  ( 8.576322195879470200, -8.620865607172111900, -0.5879879598780029000 ) ) ;
#71 = DIRECTION ( 'NONE',  ( -0.0000000000000000000, -0.0000000000000000000, -1.000000000000000000 ) ) ;
#72 = ORIENTED_EDGE ( 'NONE', *, *, #276, .F. ) ;
#73 = CARTESIAN_POINT ( 'NONE',  ( 1.421085471520200100E-014, 25.40000000000011600, 5.288192592177802400 ) ) ;
#74 = DIRECTION ( 'NONE',  ( 0.0000000000000000000, 0.0000000000000000000, 1.000000000000000000 ) ) ;
#75 = EDGE_CURVE ( 'NONE', #83, #145, #232, .T. ) ;
#76 = CARTESIAN_POINT ( 'NONE',  ( 16.92177368215245500, -25.70292423846428800, 4.673939676916989900 ) ) ;
#77 = APPLICATION_PROTOCOL_DEFINITION ( 'international standard', 'config_control_design', 1994, #233 ) ;
#78 = ORIENTED_EDGE ( 'NONE', *, *, #193, .T. ) ;
#79 = DIRECTION ( 'NONE',  ( 0.0000000000000000000, 0.0000000000000000000, 1.000000000000000000 ) ) ;
#80 = CARTESIAN_POINT ( 'NONE',  ( 1.421085471520200100E-014, -8.620865607172104800, 7.587987959878009100 ) ) ;
#81 = CARTESIAN_POINT ( 'NONE',  ( -25.31484286086648400, 25.70292423846427400, 3.530590637067645900 ) ) ;
#82 = COORDINATED_UNIVERSAL_TIME_OFFSET ( 2, 0, .AHEAD. ) ;
#83 = VERTEX_POINT ( 'NONE', #215 ) ;
#84 = DIRECTION ( 'NONE',  ( 0.0000000000000000000, -1.000000000000000000, -5.864886553751486600E-016 ) ) ;
#85 = PRODUCT_DEFINITION ( 'UNKNOWN', '', #279, #95 ) ;
#86 = CALENDAR_DATE ( 2019, 8, 1 ) ;
#87 = CARTESIAN_POINT ( 'NONE',  ( -25.31484286086648100, -25.70292423846429800, 3.469409362932357700 ) ) ;
#88 = CARTESIAN_POINT ( 'NONE',  ( 8.576322195879468400, 8.620865607172079900, -0.5879879598779742500 ) ) ;
#89 = CC_DESIGN_APPROVAL ( #138, ( #279 ) ) ;
#90 = CARTESIAN_POINT ( 'NONE',  ( 9.992007221626412800E-016, 4.884981308350691100E-015, 1.711807407822200100 ) ) ;
#91 = CARTESIAN_POINT ( 'NONE',  ( 5.551115123125782700E-014, -8.620865607172104800, 7.587987959878019800 ) ) ;
#92 = ORIENTED_EDGE ( 'NONE', *, *, #131, .T. ) ;
#93 = DIRECTION ( 'NONE',  ( -0.0000000000000000000, -0.0000000000000000000, -1.000000000000000000 ) ) ;
#94 = DIRECTION ( 'NONE',  ( 1.000000000000000000, -8.881784197001252300E-016, 0.0000000000000000000 ) ) ;
#95 = DESIGN_CONTEXT ( 'detailed design', #97, 'design' ) ;
#96 = CARTESIAN_POINT ( 'NONE',  ( 5.551115123125782700E-014, 8.620865607172094200, 7.587987959878021500 ) ) ;
#97 = APPLICATION_CONTEXT ( 'configuration controlled 3d designs of mechanical parts and assemblies' ) ;
#98 = DATE_TIME_ROLE ( 'creation_date' ) ;
#99 =( NAMED_UNIT ( * ) SI_UNIT ( $, .STERADIAN. ) SOLID_ANGLE_UNIT ( ) );
#100 = CARTESIAN_POINT ( 'NONE',  ( 25.39999999999999900, 4.884981308350691100E-015, 5.288192592177799700 ) ) ;
#101 = CIRCLE ( 'NONE', #34, 25.39999999999999900 ) ;
#102 = ORIENTED_EDGE ( 'NONE', *, *, #75, .F. ) ;
#103 = CARTESIAN_POINT ( 'NONE',  ( 1.421085471520200100E-014, 25.70292423846427400, 5.246926622623632000 ) ) ;
#104 = CARTESIAN_POINT ( 'NONE',  ( 9.992007221626412800E-016, 4.884981308350691100E-015, 1.711807407822200100 ) ) ;
#105 = ORIENTED_EDGE ( 'NONE', *, *, #210, .F. ) ;
#106 = CARTESIAN_POINT ( 'NONE',  ( -6.245004513516508100E-014, 8.620865607172076400, -0.5879879598779838000 ) ) ;
#107 = APPROVAL ( #292, 'UNSPECIFIED' ) ;
#108 = CARTESIAN_POINT ( 'NONE',  ( -5.898059818321144100E-014, -25.70292423846429500, 1.753073377376364900 ) ) ;
#109 = AXIS2_PLACEMENT_3D ( 'NONE', #140, #184, #230 ) ;
#110 = CARTESIAN_POINT ( 'NONE',  ( -5.898059818321144100E-014, -8.620865607172119000, -0.5879879598780125600 ) ) ;
#111 = ORIENTED_EDGE ( 'NONE', *, *, #195, .F. ) ;
#112 = CARTESIAN_POINT ( 'NONE',  ( 16.92177368215245500, 25.70292423846427700, 4.673939676916989900 ) ) ;
#113 = APPROVAL ( #260, 'UNSPECIFIED' ) ;
#114 = DIRECTION ( 'NONE',  ( 0.0000000000000000000, -1.000000000000000000, 0.0000000000000000000 ) ) ;
#115 = APPROVAL_PERSON_ORGANIZATION ( #231, #107, #38 ) ;
#116 = CALENDAR_DATE ( 2019, 8, 1 ) ;
#117 = FACE_OUTER_BOUND ( 'NONE', #208, .T. ) ;
#118 = ADVANCED_FACE ( 'NONE', ( #63 ), #295, .T. ) ;
#119 = PERSON_AND_ORGANIZATION_ROLE ( 'classification_officer' ) ;
#120 = DIRECTION ( 'NONE',  ( 1.000000000000000000, 8.881784197001252300E-016, 0.0000000000000000000 ) ) ;
#121 = ADVANCED_FACE ( 'NONE', ( #170 ), #4, .T. ) ;
#122 = CC_DESIGN_PERSON_AND_ORGANIZATION_ASSIGNMENT ( #173, #211, ( #85 ) ) ;
#123 = LOCAL_TIME ( 13, 19, 37.00000000000000000, #177 ) ;
#124 = EDGE_CURVE ( 'NONE', #271, #25, #165, .T. ) ;
#125 = DIRECTION ( 'NONE',  ( 1.000000000000000000, -1.776356839400250500E-015, 0.0000000000000000000 ) ) ;
#126 = CIRCLE ( 'NONE', #290, 25.39999999999999900 ) ;
#127 = CC_DESIGN_PERSON_AND_ORGANIZATION_ASSIGNMENT ( #130, #14, ( #279 ) ) ;
#128 = CARTESIAN_POINT ( 'NONE',  ( -8.576322195879521700, 8.620865607172076400, -0.5879879598779816900 ) ) ;
#129 = CARTESIAN_POINT ( 'NONE',  ( -25.63083630819976500, 8.620865607172076400, 1.149772252083001800 ) ) ;
#130 = PERSON_AND_ORGANIZATION ( #287, #266 ) ;
#131 = EDGE_CURVE ( 'NONE', #198, #268, #158, .T. ) ;
#132 = ORIENTED_EDGE ( 'NONE', *, *, #39, .T. ) ;
#133 = LINE ( 'NONE', #50, #263 ) ;
#134 = MANIFOLD_SOLID_BREP ( 'Imported1', #137 ) ;
#135 = CARTESIAN_POINT ( 'NONE',  ( -1.421085471520200100E-014, 8.620865607172079900, -0.5879879598779743600 ) ) ;
#136 = APPROVAL_PERSON_ORGANIZATION ( #247, #138, #58 ) ;
#137 = CLOSED_SHELL ( 'NONE', ( #121, #13, #143, #118, #151, #192 ) ) ;
#138 = APPROVAL ( #285, 'UNSPECIFIED' ) ;
#139 = DIRECTION ( 'NONE',  ( -0.0000000000000000000, -0.0000000000000000000, -1.000000000000000000 ) ) ;
#140 = CARTESIAN_POINT ( 'NONE',  ( 9.992007221626412800E-016, 4.884981308350691100E-015, 5.288192592177799700 ) ) ;
#141 = APPROVAL_DATE_TIME ( #23, #113 ) ;
#142 = CARTESIAN_POINT ( 'NONE',  ( 0.0000000000000000000, 0.0000000000000000000, 0.0000000000000000000 ) ) ;
#143 = ADVANCED_FACE ( 'NONE', ( #1 ), #157, .T. ) ;
#144 = COORDINATED_UNIVERSAL_TIME_OFFSET ( 2, 0, .AHEAD. ) ;
#145 = VERTEX_POINT ( 'NONE', #53 ) ;
#146 = LOCAL_TIME ( 13, 19, 37.00000000000000000, #82 ) ;
#147 = CARTESIAN_POINT ( 'NONE',  ( -25.39999999999999900, 7.995584178184967200E-015, 5.288192592177799700 ) ) ;
#148 = CIRCLE ( 'NONE', #46, 25.39999999999999900 ) ;
#149 = CARTESIAN_POINT ( 'NONE',  ( 25.31484286086648100, -25.70292423846429500, 3.469409362932359900 ) ) ;
#150 = EDGE_LOOP ( 'NONE', ( #132, #161, #78 ) ) ;
#151 = ADVANCED_FACE ( 'NONE', ( #274 ), #5, .T. ) ;
#152 = CC_DESIGN_APPROVAL ( #113, ( #85 ) ) ;
#153 = LOCAL_TIME ( 13, 19, 37.00000000000000000, #280 ) ;
#154 = AXIS2_PLACEMENT_3D ( 'NONE', #54, #228, #114 ) ;
#155 = ORIENTED_EDGE ( 'NONE', *, *, #39, .F. ) ;
#156 = APPROVAL_DATE_TIME ( #254, #107 ) ;
#157 = CYLINDRICAL_SURFACE ( 'NONE', #204, 25.39999999999999900 ) ;
#158 = CIRCLE ( 'NONE', #154, 189.3000000000000100 ) ;
#159 = DIRECTION ( 'NONE',  ( 1.000000000000000000, 0.0000000000000000000, 0.0000000000000000000 ) ) ;
#160 = DIRECTION ( 'NONE',  ( 1.000000000000000000, 0.0000000000000000000, 0.0000000000000000000 ) ) ;
#161 = ORIENTED_EDGE ( 'NONE', *, *, #75, .T. ) ;
#162 = CARTESIAN_POINT ( 'NONE',  ( 17.13300033800039300, 8.620865607172090600, 7.007848683767977400 ) ) ;
#163 = CARTESIAN_POINT ( 'NONE',  ( 5.898059818321144100E-014, -25.70292423846428400, 5.246926622623642600 ) ) ;
#164 = CARTESIAN_POINT ( 'NONE',  ( 9.992007221626412800E-016, 4.884981308350691100E-015, 1.711807407822200100 ) ) ;
#165 = LINE ( 'NONE', #7, #47 ) ;
#166 = PRODUCT ( '111-1522E UVFS bi-cx 50.8 F200', '111-1522E UVFS bi-cx 50.8 F200', '', ( #168 ) ) ;
#167 = DIRECTION ( 'NONE',  ( 1.000000000000000000, 0.0000000000000000000, 0.0000000000000000000 ) ) ;
#168 = MECHANICAL_CONTEXT ( 'NONE', #233, 'mechanical' ) ;
#169 = LOCAL_TIME ( 13, 19, 37.00000000000000000, #144 ) ;
#170 = FACE_OUTER_BOUND ( 'NONE', #150, .T. ) ;
#171 = CARTESIAN_POINT ( 'NONE',  ( 17.13300033800036500, 8.620865607172078200, -0.007848683767943927600 ) ) ;
#172 = ADVANCED_BREP_SHAPE_REPRESENTATION ( '111-1522E UVFS bi-cx 50.8 F200', ( #134, #15 ), #213 ) ;
#173 = PERSON_AND_ORGANIZATION ( #287, #266 ) ;
#174 = CARTESIAN_POINT ( 'NONE',  ( -17.13300033800039300, -8.620865607172115500, -0.007848683767970815800 ) ) ;
#175 = ORIENTED_EDGE ( 'NONE', *, *, #18, .T. ) ;
#176 = AXIS2_PLACEMENT_3D ( 'NONE', #164, #258, #120 ) ;
#177 = COORDINATED_UNIVERSAL_TIME_OFFSET ( 2, 0, .AHEAD. ) ;
#178 = ORIENTED_EDGE ( 'NONE', *, *, #293, .T. ) ;
#179 = CARTESIAN_POINT ( 'NONE',  ( 16.92177368215242700, -25.70292423846429800, 2.326060323083014600 ) ) ;
#180 = CARTESIAN_POINT ( 'NONE',  ( -1.421085471520200100E-014, -25.70292423846429500, 1.753073377376374000 ) ) ;
#181 = CARTESIAN_POINT ( 'NONE',  ( 9.992007221626412800E-016, 4.884981308350691100E-015, 1.711807407822200100 ) ) ;
#182 = ORIENTED_EDGE ( 'NONE', *, *, #210, .T. ) ;
#183 = CARTESIAN_POINT ( 'NONE',  ( 9.992007221626412800E-016, 4.884981308350691100E-015, 5.288192592177799700 ) ) ;
#184 = DIRECTION ( 'NONE',  ( -0.0000000000000000000, -0.0000000000000000000, -1.000000000000000000 ) ) ;
#185 = COORDINATED_UNIVERSAL_TIME_OFFSET ( 2, 0, .AHEAD. ) ;
#186 =( LENGTH_UNIT ( ) NAMED_UNIT ( * ) SI_UNIT ( .MILLI., .METRE. ) );
#187 = AXIS2_PLACEMENT_3D ( 'NONE', #183, #206, #167 ) ;
#188 = APPLICATION_PROTOCOL_DEFINITION ( 'international standard', 'config_control_design', 1994, #97 ) ;
#189 = APPROVAL_DATE_TIME ( #248, #138 ) ;
#190 = ORIENTED_EDGE ( 'NONE', *, *, #276, .T. ) ;
#191 = CC_DESIGN_DATE_AND_TIME_ASSIGNMENT ( #61, #289, ( #267 ) ) ;
#192 = ADVANCED_FACE ( 'NONE', ( #29 ), #203, .T. ) ;
#193 = EDGE_CURVE ( 'NONE', #145, #271, #101, .T. ) ;
#194 = CARTESIAN_POINT ( 'NONE',  ( -8.576322195879470200, -8.620865607172103000, 7.587987959878008200 ) ) ;
#195 = EDGE_CURVE ( 'NONE', #282, #8, #133, .T. ) ;
#196 = CARTESIAN_POINT ( 'NONE',  ( 9.992007221626412800E-016, 4.884981308350691100E-015, 1.711807407822200100 ) ) ;
#197 = APPROVAL_PERSON_ORGANIZATION ( #27, #113, #60 ) ;
#198 = VERTEX_POINT ( 'NONE', #229 ) ;
#199 = DIRECTION ( 'NONE',  ( 1.000000000000000000, 0.0000000000000000000, 0.0000000000000000000 ) ) ;
#200 =( BOUNDED_SURFACE ( )  B_SPLINE_SURFACE ( 3, 3, ( 
 ( #62, #42, #17, #240 ),
 ( #80, #194, #264, #64 ),
 ( #41, #265, #19, #236 ),
 ( #103, #21, #218, #81 ) ),
 .UNSPECIFIED., .F., .F., .F. ) 
 B_SPLINE_SURFACE_WITH_KNOTS ( ( 4, 4 ),
 ( 4, 4 ),
 ( 0.0000000000000000000, 1.000000000000000000 ),
 ( 0.0000000000000000000, 1.000000000000000000 ),
 .UNSPECIFIED. ) 
 GEOMETRIC_REPRESENTATION_ITEM ( )  RATIONAL_B_SPLINE_SURFACE ( (
 ( 1.000000000000000000, 0.9984730009507633000, 0.9984730009507633000, 1.000000000000000000),
 ( 0.9938261194668905900, 0.9923085479273580100, 0.9923085479273580100, 0.9938261194668905900),
 ( 0.9938261194668905900, 0.9923085479273580100, 0.9923085479273580100, 0.9938261194668905900),
 ( 1.000000000000000000, 0.9984730009507633000, 0.9984730009507633000, 1.000000000000000000) ) ) 
 REPRESENTATION_ITEM ( '' )  SURFACE ( )  );
#201 = PERSON_AND_ORGANIZATION ( #287, #266 ) ;
#202 = CARTESIAN_POINT ( 'NONE',  ( -25.31484286086648400, 25.70292423846425200, 3.469409362932385200 ) ) ;
#203 =( BOUNDED_SURFACE ( )  B_SPLINE_SURFACE ( 3, 3, ( 
 ( #207, #76, #252, #163 ),
 ( #11, #32, #283, #91 ),
 ( #255, #162, #251, #96 ),
 ( #35, #112, #256, #278 ) ),
 .UNSPECIFIED., .F., .F., .T. ) 
 B_SPLINE_SURFACE_WITH_KNOTS ( ( 4, 4 ),
 ( 4, 4 ),
 ( 0.0000000000000000000, 1.000000000000000000 ),
 ( 0.0000000000000000000, 1.000000000000000000 ),
 .UNSPECIFIED. ) 
 GEOMETRIC_REPRESENTATION_ITEM ( )  RATIONAL_B_SPLINE_SURFACE ( (
 ( 1.000000000000000000, 0.9984730009507633000, 0.9984730009507633000, 1.000000000000000000),
 ( 0.9938261194668905900, 0.9923085479273580100, 0.9923085479273580100, 0.9938261194668905900),
 ( 0.9938261194668905900, 0.9923085479273580100, 0.9923085479273580100, 0.9938261194668905900),
 ( 1.000000000000000000, 0.9984730009507633000, 0.9984730009507633000, 1.000000000000000000) ) ) 
 REPRESENTATION_ITEM ( '' )  SURFACE ( )  );
#204 = AXIS2_PLACEMENT_3D ( 'NONE', #196, #24, #209 ) ;
#205 = DIRECTION ( 'NONE',  ( 1.000000000000000000, 0.0000000000000000000, 0.0000000000000000000 ) ) ;
#206 = DIRECTION ( 'NONE',  ( -0.0000000000000000000, -0.0000000000000000000, -1.000000000000000000 ) ) ;
#207 = CARTESIAN_POINT ( 'NONE',  ( 25.31484286086648400, -25.70292423846428400, 3.530590637067648500 ) ) ;
#208 = EDGE_LOOP ( 'NONE', ( #51, #92, #105 ) ) ;
#209 = DIRECTION ( 'NONE',  ( 1.000000000000000000, 0.0000000000000000000, 0.0000000000000000000 ) ) ;
#210 = EDGE_CURVE ( 'NONE', #8, #268, #234, .T. ) ;
#211 = PERSON_AND_ORGANIZATION_ROLE ( 'creator' ) ;
#212 = PERSON_AND_ORGANIZATION_ROLE ( 'design_supplier' ) ;
#213 =( GEOMETRIC_REPRESENTATION_CONTEXT ( 3 ) GLOBAL_UNCERTAINTY_ASSIGNED_CONTEXT ( ( #214 ) ) GLOBAL_UNIT_ASSIGNED_CONTEXT ( ( #186, #16, #99 ) ) REPRESENTATION_CONTEXT ( 'NONE', 'WORKASPACE' ) );
#214 = UNCERTAINTY_MEASURE_WITH_UNIT (LENGTH_MEASURE( 1.000000000000000100E-005 ), #186, 'distance_accuracy_value', 'NONE');
#215 = CARTESIAN_POINT ( 'NONE',  ( -1.421085471520200100E-014, -25.40000000000013000, 1.711807407822187400 ) ) ;
#216 = CARTESIAN_POINT ( 'NONE',  ( 9.992007221626412800E-016, 4.884981308350691100E-015, 5.288192592177799700 ) ) ;
#217 = CALENDAR_DATE ( 2019, 8, 1 ) ;
#218 = CARTESIAN_POINT ( 'NONE',  ( -16.92177368215243000, 25.70292423846427700, 4.673939676916991600 ) ) ;
#219 = ORIENTED_EDGE ( 'NONE', *, *, #124, .F. ) ;
#220 = CARTESIAN_POINT ( 'NONE',  ( 25.63083630819976500, -8.620865607172117300, 1.149772252082975400 ) ) ;
#221 = EDGE_CURVE ( 'NONE', #198, #8, #148, .T. ) ;
#222 = CARTESIAN_POINT ( 'NONE',  ( -17.13300033800039300, 8.620865607172076400, -0.007848683767941759200 ) ) ;
#223 = EDGE_CURVE ( 'NONE', #83, #282, #126, .T. ) ;
#224 = CARTESIAN_POINT ( 'NONE',  ( -8.470587775686215800, -25.70292423846429800, 1.753073377376366500 ) ) ;
#225 = CARTESIAN_POINT ( 'NONE',  ( -5.898059818321144100E-014, 25.70292423846425600, 1.753073377376391800 ) ) ;
#226 = CARTESIAN_POINT ( 'NONE',  ( 25.39999999999999900, 4.884981308350691100E-015, 1.711807407822200100 ) ) ;
#227 = EDGE_LOOP ( 'NONE', ( #102, #66, #178 ) ) ;
#228 = DIRECTION ( 'NONE',  ( -1.000000000000000000, 0.0000000000000000000, 0.0000000000000000000 ) ) ;
#229 = CARTESIAN_POINT ( 'NONE',  ( 1.421085471520200100E-014, -25.40000000000013000, 5.288192592177802400 ) ) ;
#230 = DIRECTION ( 'NONE',  ( 1.000000000000000000, 8.881784197001252300E-016, 0.0000000000000000000 ) ) ;
#231 = PERSON_AND_ORGANIZATION ( #287, #266 ) ;
#232 = CIRCLE ( 'NONE', #262, 189.3000000000000100 ) ;
#233 = APPLICATION_CONTEXT ( 'configuration controlled 3d designs of mechanical parts and assemblies' ) ;
#234 = CIRCLE ( 'NONE', #109, 25.39999999999999900 ) ;
#235 = ORIENTED_EDGE ( 'NONE', *, *, #195, .T. ) ;
#236 = CARTESIAN_POINT ( 'NONE',  ( -25.63083630819976500, 8.620865607172094200, 5.850227747917032600 ) ) ;
#237 = CC_DESIGN_DATE_AND_TIME_ASSIGNMENT ( #20, #98, ( #85 ) ) ;
#238 = PERSON_AND_ORGANIZATION ( #287, #266 ) ;
#239 = AXIS2_PLACEMENT_3D ( 'NONE', #216, #261, #125 ) ;
#240 = CARTESIAN_POINT ( 'NONE',  ( -25.31484286086648400, -25.70292423846428400, 3.530590637067645900 ) ) ;
#241 = CARTESIAN_POINT ( 'NONE',  ( 25.63083630819976100, 8.620865607172078200, 1.149772252083003800 ) ) ;
#242 = CIRCLE ( 'NONE', #187, 25.39999999999999900 ) ;
#243 = CARTESIAN_POINT ( 'NONE',  ( -16.92177368215245500, 25.70292423846425600, 2.326060323083044300 ) ) ;
#244 = EDGE_LOOP ( 'NONE', ( #111, #56, #155, #59, #190, #288 ) ) ;
#245 = CC_DESIGN_PERSON_AND_ORGANIZATION_ASSIGNMENT ( #12, #212, ( #279 ) ) ;
#246 = AXIS2_PLACEMENT_3D ( 'NONE', #104, #71, #159 ) ;
#247 = PERSON_AND_ORGANIZATION ( #287, #266 ) ;
#248 = DATE_AND_TIME ( #116, #67 ) ;
#249 = ORIENTED_EDGE ( 'NONE', *, *, #18, .F. ) ;
#250 = AXIS2_PLACEMENT_3D ( 'NONE', #90, #74, #52 ) ;
#251 = CARTESIAN_POINT ( 'NONE',  ( 8.576322195879514600, 8.620865607172090600, 7.587987959878018900 ) ) ;
#252 = CARTESIAN_POINT ( 'NONE',  ( 8.470587775686217600, -25.70292423846428800, 5.246926622623640800 ) ) ;
#253 = CC_DESIGN_PERSON_AND_ORGANIZATION_ASSIGNMENT ( #238, #119, ( #267 ) ) ;
#254 = DATE_AND_TIME ( #86, #153 ) ;
#255 = CARTESIAN_POINT ( 'NONE',  ( 25.63083630819976500, 8.620865607172094200, 5.850227747917035300 ) ) ;
#256 = CARTESIAN_POINT ( 'NONE',  ( 8.470587775686217600, 25.70292423846427700, 5.246926622623640800 ) ) ;
#257 = SECURITY_CLASSIFICATION_LEVEL ( 'unclassified' ) ;
#258 = DIRECTION ( 'NONE',  ( -0.0000000000000000000, -0.0000000000000000000, -1.000000000000000000 ) ) ;
#259 = PRODUCT_RELATED_PRODUCT_CATEGORY ( 'detail', '', ( #166 ) ) ;
#260 = APPROVAL_STATUS ( 'not_yet_approved' ) ;
#261 = DIRECTION ( 'NONE',  ( -0.0000000000000000000, -0.0000000000000000000, -1.000000000000000000 ) ) ;
#262 = AXIS2_PLACEMENT_3D ( 'NONE', #30, #199, #84 ) ;
#263 = VECTOR ( 'NONE', #10, 1000.000000000000000 ) ;
#264 = CARTESIAN_POINT ( 'NONE',  ( -17.13300033800036500, -8.620865607172103000, 7.007848683767977400 ) ) ;
#265 = CARTESIAN_POINT ( 'NONE',  ( -8.576322195879470200, 8.620865607172090600, 7.587987959878010000 ) ) ;
#266 = ORGANIZATION ( 'UNSPECIFIED', 'UNSPECIFIED', '' ) ;
#267 = SECURITY_CLASSIFICATION ( '', '', #257 ) ;
#268 = VERTEX_POINT ( 'NONE', #73 ) ;
#269 = CARTESIAN_POINT ( 'NONE',  ( -16.92177368215245500, -25.70292423846430200, 2.326060323083016400 ) ) ;
#270 = DIRECTION ( 'NONE',  ( 0.0000000000000000000, 0.0000000000000000000, 1.000000000000000000 ) ) ;
#271 = VERTEX_POINT ( 'NONE', #226 ) ;
#272 = CC_DESIGN_SECURITY_CLASSIFICATION ( #267, ( #279 ) ) ;
#273 = CARTESIAN_POINT ( 'NONE',  ( -8.470587775686217600, 25.70292423846425900, 1.753073377376393800 ) ) ;
#274 = FACE_OUTER_BOUND ( 'NONE', #244, .T. ) ;
#275 = EDGE_LOOP ( 'NONE', ( #3, #235, #182, #175, #219, #31 ) ) ;
#276 = EDGE_CURVE ( 'NONE', #25, #198, #242, .T. ) ;
#277 = CARTESIAN_POINT ( 'NONE',  ( -25.63083630819976500, -8.620865607172119000, 1.149772252082972700 ) ) ;
#278 = CARTESIAN_POINT ( 'NONE',  ( 5.898059818321144100E-014, 25.70292423846427400, 5.246926622623642600 ) ) ;
#279 = PRODUCT_DEFINITION_FORMATION_WITH_SPECIFIED_SOURCE ( 'ANY', '', #166, .NOT_KNOWN. ) ;
#280 = COORDINATED_UNIVERSAL_TIME_OFFSET ( 2, 0, .AHEAD. ) ;
#281 = CARTESIAN_POINT ( 'NONE',  ( 9.992007221626412800E-016, 4.884981308350691100E-015, 1.711807407822200100 ) ) ;
#282 = VERTEX_POINT ( 'NONE', #9 ) ;
#283 = CARTESIAN_POINT ( 'NONE',  ( 8.576322195879514600, -8.620865607172103000, 7.587987959878017100 ) ) ;
#284 = CARTESIAN_POINT ( 'NONE',  ( 9.992007221626412800E-016, 4.884981308350691100E-015, 5.288192592177799700 ) ) ;
#285 = APPROVAL_STATUS ( 'not_yet_approved' ) ;
#286 = SHAPE_DEFINITION_REPRESENTATION ( #40, #172 ) ;
#287 = PERSON ( 'UNSPECIFIED', 'UNSPECIFIED', 'UNSPECIFIED', ('UNSPECIFIED'), ('UNSPECIFIED'), ('UNSPECIFIED') ) ;
#288 = ORIENTED_EDGE ( 'NONE', *, *, #221, .T. ) ;
#289 = DATE_TIME_ROLE ( 'classification_date' ) ;
#290 = AXIS2_PLACEMENT_3D ( 'NONE', #181, #49, #205 ) ;
#291 = PERSON_AND_ORGANIZATION_ROLE ( 'design_owner' ) ;
#292 = APPROVAL_STATUS ( 'not_yet_approved' ) ;
#293 = EDGE_CURVE ( 'NONE', #282, #145, #55, .T. ) ;
#294 = CIRCLE ( 'NONE', #239, 25.39999999999999900 ) ;
#295 =( BOUNDED_SURFACE ( )  B_SPLINE_SURFACE ( 3, 3, ( 
 ( #87, #269, #224, #108 ),
 ( #277, #174, #26, #110 ),
 ( #129, #222, #128, #106 ),
 ( #202, #243, #273, #225 ) ),
 .UNSPECIFIED., .F., .F., .T. ) 
 B_SPLINE_SURFACE_WITH_KNOTS ( ( 4, 4 ),
 ( 4, 4 ),
 ( 0.0000000000000000000, 1.000000000000000000 ),
 ( 0.0000000000000000000, 1.000000000000000000 ),
 .UNSPECIFIED. ) 
 GEOMETRIC_REPRESENTATION_ITEM ( )  RATIONAL_B_SPLINE_SURFACE ( (
 ( 1.000000000000000000, 0.9984730009507633000, 0.9984730009507633000, 1.000000000000000000),
 ( 0.9938261194668905900, 0.9923085479273580100, 0.9923085479273580100, 0.9938261194668905900),
 ( 0.9938261194668905900, 0.9923085479273580100, 0.9923085479273580100, 0.9938261194668905900),
 ( 1.000000000000000000, 0.9984730009507633000, 0.9984730009507633000, 1.000000000000000000) ) ) 
 REPRESENTATION_ITEM ( '' )  SURFACE ( )  );
ENDSEC;
END-ISO-10303-21;
