ISO-10303-21;
HEADER;
FILE_DESCRIPTION (( 'STEP AP203' ),
    '1' );
FILE_NAME ('111-1520E UVFS bi-cx 50.8 F175.STEP',
    '2019-01-08T11:05:56',
    ( '' ),
    ( '' ),
    'SwSTEP 2.0',
    'SolidWorks 2017',
    '' );
FILE_SCHEMA (( 'CONFIG_CONTROL_DESIGN' ));
ENDSEC;

DATA;
#1 = SHAPE_DEFINITION_REPRESENTATION ( #41, #48 ) ;
#2 = EDGE_LOOP ( 'NONE', ( #201, #235, #142 ) ) ;
#3 = APPROVAL_ROLE ( '' ) ;
#4 = VERTEX_POINT ( 'NONE', #254 ) ;
#5 = ORIENTED_EDGE ( 'NONE', *, *, #170, .T. ) ;
#6 = AXIS2_PLACEMENT_3D ( 'NONE', #127, #289, #172 ) ;
#7 = APPROVAL_PERSON_ORGANIZATION ( #262, #57, #226 ) ;
#8 = VERTEX_POINT ( 'NONE', #163 ) ;
#9 = CARTESIAN_POINT ( 'NONE',  ( 17.16351398666054400, 8.637225597857668200, -0.009319329481554056500 ) ) ;
#10 = CARTESIAN_POINT ( 'NONE',  ( -7.318726234282433600E-014, 8.637225597857668200, -0.6743666296307463400 ) ) ;
#11 = CC_DESIGN_APPROVAL ( #291, ( #167 ) ) ;
#12 = VECTOR ( 'NONE', #60, 1000.000000000000000 ) ;
#13 = CARTESIAN_POINT ( 'NONE',  ( -16.88675766189067700, -25.70234342750023900, 3.938920563769445300 ) ) ;
#14 = CARTESIAN_POINT ( 'NONE',  ( 9.992007221626412800E-016, 4.884981308350691100E-015, 4.640459544698179800 ) ) ;
#15 = COORDINATED_UNIVERSAL_TIME_OFFSET ( 2, 0, .AHEAD. ) ;
#16 = CARTESIAN_POINT ( 'NONE',  ( -8.456055610209833900, -25.70234342750023500, 4.593244183049410600 ) ) ;
#17 = CARTESIAN_POINT ( 'NONE',  ( -8.456055610210041700, -25.70234342750032400, 2.006755816950582800 ) ) ;
#18 = EDGE_CURVE ( 'NONE', #277, #8, #256, .T. ) ;
#19 = CARTESIAN_POINT ( 'NONE',  ( 8.594641531769884300, 8.637225597857643300, 7.274366629630734800 ) ) ;
#20 = CARTESIAN_POINT ( 'NONE',  ( -25.24155107173617200, 25.70234342750034200, 3.965802993834977000 ) ) ;
#21 = APPLICATION_PROTOCOL_DEFINITION ( 'international standard', 'config_control_design', 1994, #270 ) ;
#22 = CARTESIAN_POINT ( 'NONE',  ( 25.39999999999999900, 4.884981308350691100E-015, 1.959540455301820100 ) ) ;
#23 = CIRCLE ( 'NONE', #263, 165.5999999999999900 ) ;
#24 = CC_DESIGN_SECURITY_CLASSIFICATION ( #167, ( #138 ) ) ;
#25 = CARTESIAN_POINT ( 'NONE',  ( 9.992007221626412800E-016, 4.884981308350691100E-015, 1.959540455301820100 ) ) ;
#26 = APPROVAL_STATUS ( 'not_yet_approved' ) ;
#27 = ADVANCED_FACE ( 'NONE', ( #165 ), #92, .T. ) ;
#28 = EDGE_CURVE ( 'NONE', #136, #277, #103, .T. ) ;
#29 = CARTESIAN_POINT ( 'NONE',  ( 16.88675766189070500, -25.70234342750032400, 2.661079436230557400 ) ) ;
#30 = CIRCLE ( 'NONE', #6, 25.39999999999999900 ) ;
#31 = CARTESIAN_POINT ( 'NONE',  ( 8.456055610209871200, -25.70234342750032400, 2.006755816950586400 ) ) ;
#32 = CC_DESIGN_PERSON_AND_ORGANIZATION_ASSIGNMENT ( #124, #129, ( #216 ) ) ;
#33 = CARTESIAN_POINT ( 'NONE',  ( 16.88675766189080500, -25.70234342750022800, 3.938920563769412000 ) ) ;
#34 = APPROVAL_PERSON_ORGANIZATION ( #229, #242, #109 ) ;
#35 = DIRECTION ( 'NONE',  ( -0.0000000000000000000, -0.0000000000000000000, -1.000000000000000000 ) ) ;
#36 = LOCAL_TIME ( 13, 5, 56.00000000000000000, #44 ) ;
#37 = DIRECTION ( 'NONE',  ( -0.0000000000000000000, -0.0000000000000000000, -1.000000000000000000 ) ) ;
#38 = ORIENTED_EDGE ( 'NONE', *, *, #217, .F. ) ;
#39 = CARTESIAN_POINT ( 'NONE',  ( 17.16351398666063600, -8.637225597857616700, 6.609319329481505400 ) ) ;
#40 = CC_DESIGN_APPROVAL ( #57, ( #177 ) ) ;
#41 = PRODUCT_DEFINITION_SHAPE ( 'NONE', 'NONE',  #177 ) ;
#42 = ORIENTED_EDGE ( 'NONE', *, *, #61, .T. ) ;
#43 = DIRECTION ( 'NONE',  ( 3.509489853602912100E-016, -1.000000000000000000, 3.352122658892381000E-016 ) ) ;
#44 = COORDINATED_UNIVERSAL_TIME_OFFSET ( 2, 0, .AHEAD. ) ;
#45 = ADVANCED_FACE ( 'NONE', ( #243 ), #71, .T. ) ;
#46 = EDGE_CURVE ( 'NONE', #135, #180, #105, .T. ) ;
#47 = PERSON_AND_ORGANIZATION_ROLE ( 'creator' ) ;
#48 = ADVANCED_BREP_SHAPE_REPRESENTATION ( '111-1520E UVFS bi-cx 50.8 F175', ( #257, #204 ), #160 ) ;
#49 = CIRCLE ( 'NONE', #209, 25.39999999999999900 ) ;
#50 = APPROVAL_DATE_TIME ( #114, #291 ) ;
#51 = ORIENTED_EDGE ( 'NONE', *, *, #28, .F. ) ;
#52 = CARTESIAN_POINT ( 'NONE',  ( 1.128324902948473100E-013, 25.70234342750025600, 4.593244183049432800 ) ) ;
#53 = CARTESIAN_POINT ( 'NONE',  ( -25.65523373634068300, -8.637225597857630900, 5.283212715172399300 ) ) ;
#54 = CARTESIAN_POINT ( 'NONE',  ( -1.179611963664229300E-013, 8.637225597857668200, -0.6743666296307587700 ) ) ;
#55 = VERTEX_POINT ( 'NONE', #70 ) ;
#56 = CARTESIAN_POINT ( 'NONE',  ( -8.456055610210041700, 25.70234342750033800, 2.006755816950582800 ) ) ;
#57 = APPROVAL ( #253, 'UNSPECIFIED' ) ;
#58 = CARTESIAN_POINT ( 'NONE',  ( -25.39999999999999900, 7.995584178184967200E-015, 1.959540455301820100 ) ) ;
#59 = AXIS2_PLACEMENT_3D ( 'NONE', #211, #117, #186 ) ;
#60 = DIRECTION ( 'NONE',  ( 0.0000000000000000000, 0.0000000000000000000, 1.000000000000000000 ) ) ;
#61 = EDGE_CURVE ( 'NONE', #4, #55, #224, .T. ) ;
#62 = PERSON_AND_ORGANIZATION_ROLE ( 'design_supplier' ) ;
#63 = APPROVAL_PERSON_ORGANIZATION ( #67, #291, #3 ) ;
#64 = VECTOR ( 'NONE', #176, 1000.000000000000000 ) ;
#65 = PERSON_AND_ORGANIZATION ( #191, #255 ) ;
#66 = CARTESIAN_POINT ( 'NONE',  ( 9.992007221626412800E-016, 4.884981308350691100E-015, 1.959540455301820100 ) ) ;
#67 = PERSON_AND_ORGANIZATION ( #191, #255 ) ;
#68 = CLOSED_SHELL ( 'NONE', ( #27, #45, #206, #112, #227, #110 ) ) ;
#69 = AXIS2_PLACEMENT_3D ( 'NONE', #66, #278, #111 ) ;
#70 = CARTESIAN_POINT ( 'NONE',  ( 1.129696643981523600E-013, 25.39999999999995600, 4.640459544698170900 ) ) ;
#71 =( BOUNDED_SURFACE ( )  B_SPLINE_SURFACE ( 3, 3, ( 
 ( #184, #16, #13, #261 ),
 ( #236, #287, #146, #53 ),
 ( #210, #164, #75, #239 ),
 ( #52, #168, #284, #260 ) ),
 .UNSPECIFIED., .F., .F., .F. ) 
 B_SPLINE_SURFACE_WITH_KNOTS ( ( 4, 4 ),
 ( 4, 4 ),
 ( 0.0000000000000000000, 1.000000000000000000 ),
 ( 0.0000000000000000000, 1.000000000000000000 ),
 .UNSPECIFIED. ) 
 GEOMETRIC_REPRESENTATION_ITEM ( )  RATIONAL_B_SPLINE_SURFACE ( (
 ( 1.000000000000000000, 0.9980011517033625700, 0.9980011517033625700, 1.000000000000000000),
 ( 0.9919212728786208600, 0.9899385727319289800, 0.9899385727319289800, 0.9919212728786208600),
 ( 0.9919212728786208600, 0.9899385727319289800, 0.9899385727319289800, 0.9919212728786208600),
 ( 1.000000000000000000, 0.9980011517033625700, 0.9980011517033625700, 1.000000000000000000) ) ) 
 REPRESENTATION_ITEM ( '' )  SURFACE ( )  );
#72 = AXIS2_PLACEMENT_3D ( 'NONE', #121, #259, #116 ) ;
#73 = DIRECTION ( 'NONE',  ( -0.0000000000000000000, -0.0000000000000000000, -1.000000000000000000 ) ) ;
#74 = CALENDAR_DATE ( 2019, 8, 1 ) ;
#75 = CARTESIAN_POINT ( 'NONE',  ( -17.16351398666052600, 8.637225597857634400, 6.609319329481569300 ) ) ;
#76 = CARTESIAN_POINT ( 'NONE',  ( 17.16351398666063200, 8.637225597857645100, 6.609319329481534700 ) ) ;
#77 = ORIENTED_EDGE ( 'NONE', *, *, #202, .F. ) ;
#78 = CARTESIAN_POINT ( 'NONE',  ( 8.456055610210025700, 25.70234342750025300, 4.593244183049418600 ) ) ;
#79 = CARTESIAN_POINT ( 'NONE',  ( 16.88675766189079000, 25.70234342750025600, 3.938920563769440000 ) ) ;
#80 = DIRECTION ( 'NONE',  ( 1.000000000000000000, 0.0000000000000000000, 0.0000000000000000000 ) ) ;
#81 = CC_DESIGN_PERSON_AND_ORGANIZATION_ASSIGNMENT ( #128, #47, ( #138 ) ) ;
#82 = ORIENTED_EDGE ( 'NONE', *, *, #170, .F. ) ;
#83 = APPROVAL_STATUS ( 'not_yet_approved' ) ;
#84 = DATE_TIME_ROLE ( 'classification_date' ) ;
#85 = APPROVAL_DATE_TIME ( #213, #57 ) ;
#86 = DESIGN_CONTEXT ( 'detailed design', #250, 'design' ) ;
#87 = AXIS2_PLACEMENT_3D ( 'NONE', #96, #73, #189 ) ;
#88 = CARTESIAN_POINT ( 'NONE',  ( 17.16351398666054400, -8.637225597857654000, -0.009319329481552755500 ) ) ;
#89 = CALENDAR_DATE ( 2019, 8, 1 ) ;
#90 = CYLINDRICAL_SURFACE ( 'NONE', #156, 25.39999999999999900 ) ;
#91 = CARTESIAN_POINT ( 'NONE',  ( 25.24155107173605100, 25.70234342750034200, 3.965802993834965000 ) ) ;
#92 =( BOUNDED_SURFACE ( )  B_SPLINE_SURFACE ( 3, 3, ( 
 ( #207, #31, #29, #231 ),
 ( #115, #230, #88, #140 ),
 ( #10, #185, #9, #161 ),
 ( #281, #141, #232, #91 ) ),
 .UNSPECIFIED., .F., .F., .F. ) 
 B_SPLINE_SURFACE_WITH_KNOTS ( ( 4, 4 ),
 ( 4, 4 ),
 ( 0.0000000000000000000, 1.000000000000000000 ),
 ( 0.0000000000000000000, 1.000000000000000000 ),
 .UNSPECIFIED. ) 
 GEOMETRIC_REPRESENTATION_ITEM ( )  RATIONAL_B_SPLINE_SURFACE ( (
 ( 1.000000000000000000, 0.9980011517033625700, 0.9980011517033625700, 1.000000000000000000),
 ( 0.9919212728786207500, 0.9899385727319288700, 0.9899385727319288700, 0.9919212728786207500),
 ( 0.9919212728786207500, 0.9899385727319288700, 0.9899385727319288700, 0.9919212728786207500),
 ( 1.000000000000000000, 0.9980011517033625700, 0.9980011517033625700, 1.000000000000000000) ) ) 
 REPRESENTATION_ITEM ( '' )  SURFACE ( )  );
#93 = ORIENTED_EDGE ( 'NONE', *, *, #202, .T. ) ;
#94 = ORIENTED_EDGE ( 'NONE', *, *, #113, .F. ) ;
#95 = CARTESIAN_POINT ( 'NONE',  ( 8.456055610210047000, -25.70234342750023200, 4.593244183049391100 ) ) ;
#96 = CARTESIAN_POINT ( 'NONE',  ( 9.992007221626412800E-016, 4.884981308350691100E-015, 4.640459544698179800 ) ) ;
#97 = CC_DESIGN_DATE_AND_TIME_ASSIGNMENT ( #279, #84, ( #167 ) ) ;
#98 = EDGE_CURVE ( 'NONE', #55, #135, #251, .T. ) ;
#99 = LOCAL_TIME ( 13, 5, 56.00000000000000000, #15 ) ;
#100 = CIRCLE ( 'NONE', #147, 165.5999999999999900 ) ;
#101 = CARTESIAN_POINT ( 'NONE',  ( -1.179611963664229300E-013, -8.637225597857654000, -0.6743666296307570000 ) ) ;
#102 = CARTESIAN_POINT ( 'NONE',  ( -8.594641531769893200, -8.637225597857654000, -0.6743666296307514500 ) ) ;
#103 = CIRCLE ( 'NONE', #59, 25.39999999999999900 ) ;
#104 = CARTESIAN_POINT ( 'NONE',  ( 25.39999999999999900, 4.884981308350691100E-015, 1.959540455301820100 ) ) ;
#105 = CIRCLE ( 'NONE', #87, 25.39999999999999900 ) ;
#106 = DIRECTION ( 'NONE',  ( 0.0000000000000000000, 0.0000000000000000000, 1.000000000000000000 ) ) ;
#107 = EDGE_CURVE ( 'NONE', #180, #4, #248, .T. ) ;
#108 = DIRECTION ( 'NONE',  ( 0.0000000000000000000, 0.0000000000000000000, 1.000000000000000000 ) ) ;
#109 = APPROVAL_ROLE ( '' ) ;
#110 = ADVANCED_FACE ( 'NONE', ( #158 ), #150, .T. ) ;
#111 = DIRECTION ( 'NONE',  ( 1.000000000000000000, 0.0000000000000000000, 0.0000000000000000000 ) ) ;
#112 = ADVANCED_FACE ( 'NONE', ( #208 ), #234, .T. ) ;
#113 = EDGE_CURVE ( 'NONE', #8, #275, #30, .T. ) ;
#114 = DATE_AND_TIME ( #223, #238 ) ;
#115 = CARTESIAN_POINT ( 'NONE',  ( -7.318726234282432300E-014, -8.637225597857654000, -0.6743666296307452300 ) ) ;
#116 = DIRECTION ( 'NONE',  ( 1.000000000000000000, 0.0000000000000000000, 0.0000000000000000000 ) ) ;
#117 = DIRECTION ( 'NONE',  ( -0.0000000000000000000, -0.0000000000000000000, -1.000000000000000000 ) ) ;
#118 = CARTESIAN_POINT ( 'NONE',  ( 25.24155107173608300, -25.70234342750022800, 2.634197006165017700 ) ) ;
#119 = COORDINATED_UNIVERSAL_TIME_OFFSET ( 2, 0, .AHEAD. ) ;
#120 = ORIENTED_EDGE ( 'NONE', *, *, #107, .F. ) ;
#121 = CARTESIAN_POINT ( 'NONE',  ( 9.992007221626412800E-016, 4.884981308350691100E-015, 4.640459544698179800 ) ) ;
#122 = CARTESIAN_POINT ( 'NONE',  ( 8.594641531769893200, -8.637225597857618500, 7.274366629630707200 ) ) ;
#123 = CARTESIAN_POINT ( 'NONE',  ( 25.39999999999999900, 4.884981308350691100E-015, 4.640459544698179800 ) ) ;
#124 = PERSON_AND_ORGANIZATION ( #191, #255 ) ;
#125 = CARTESIAN_POINT ( 'NONE',  ( -16.88675766189084700, 25.70234342750033800, 2.661079436230569000 ) ) ;
#126 = LINE ( 'NONE', #265, #12 ) ;
#127 = CARTESIAN_POINT ( 'NONE',  ( 9.992007221626412800E-016, 4.884981308350691100E-015, 1.959540455301820100 ) ) ;
#128 = PERSON_AND_ORGANIZATION ( #191, #255 ) ;
#129 = PERSON_AND_ORGANIZATION_ROLE ( 'design_owner' ) ;
#130 = EDGE_CURVE ( 'NONE', #275, #136, #49, .T. ) ;
#131 =( NAMED_UNIT ( * ) PLANE_ANGLE_UNIT ( ) SI_UNIT ( $, .RADIAN. ) );
#132 = APPLICATION_PROTOCOL_DEFINITION ( 'international standard', 'config_control_design', 1994, #250 ) ;
#133 = CARTESIAN_POINT ( 'NONE',  ( -1.421085471520200100E-014, 0.0000000000000000000, 165.5999999999999900 ) ) ;
#134 = DATE_AND_TIME ( #200, #192 ) ;
#135 = VERTEX_POINT ( 'NONE', #123 ) ;
#136 = VERTEX_POINT ( 'NONE', #219 ) ;
#137 = DATE_TIME_ROLE ( 'creation_date' ) ;
#138 = PRODUCT_DEFINITION_FORMATION_WITH_SPECIFIED_SOURCE ( 'ANY', '', #216, .NOT_KNOWN. ) ;
#139 = DATE_AND_TIME ( #89, #197 ) ;
#140 = CARTESIAN_POINT ( 'NONE',  ( 25.65523373634069400, -8.637225597857654000, 1.316787284827582300 ) ) ;
#141 = CARTESIAN_POINT ( 'NONE',  ( 8.456055610209871200, 25.70234342750033800, 2.006755816950586400 ) ) ;
#142 = ORIENTED_EDGE ( 'NONE', *, *, #113, .T. ) ;
#143 = AXIS2_PLACEMENT_3D ( 'NONE', #25, #196, #249 ) ;
#144 = COORDINATED_UNIVERSAL_TIME_OFFSET ( 2, 0, .AHEAD. ) ;
#145 = CARTESIAN_POINT ( 'NONE',  ( 1.700029006457271000E-013, -25.70234342750023900, 4.593244183049398200 ) ) ;
#146 = CARTESIAN_POINT ( 'NONE',  ( -17.16351398666051500, -8.637225597857627300, 6.609319329481537300 ) ) ;
#147 = AXIS2_PLACEMENT_3D ( 'NONE', #222, #272, #43 ) ;
#148 = CARTESIAN_POINT ( 'NONE',  ( -25.24155107173617200, -25.70234342750033100, 3.965802993834977000 ) ) ;
#149 = CYLINDRICAL_SURFACE ( 'NONE', #143, 25.39999999999999900 ) ;
#150 =( BOUNDED_SURFACE ( )  B_SPLINE_SURFACE ( 3, 3, ( 
 ( #118, #33, #95, #145 ),
 ( #286, #39, #122, #171 ),
 ( #290, #76, #19, #174 ),
 ( #190, #79, #78, #294 ) ),
 .UNSPECIFIED., .F., .F., .T. ) 
 B_SPLINE_SURFACE_WITH_KNOTS ( ( 4, 4 ),
 ( 4, 4 ),
 ( 0.0000000000000000000, 1.000000000000000000 ),
 ( 0.0000000000000000000, 1.000000000000000000 ),
 .UNSPECIFIED. ) 
 GEOMETRIC_REPRESENTATION_ITEM ( )  RATIONAL_B_SPLINE_SURFACE ( (
 ( 1.000000000000000000, 0.9980011517033625700, 0.9980011517033625700, 1.000000000000000000),
 ( 0.9919212728786208600, 0.9899385727319289800, 0.9899385727319289800, 0.9919212728786208600),
 ( 0.9919212728786208600, 0.9899385727319289800, 0.9899385727319289800, 0.9919212728786208600),
 ( 1.000000000000000000, 0.9980011517033625700, 0.9980011517033625700, 1.000000000000000000) ) ) 
 REPRESENTATION_ITEM ( '' )  SURFACE ( )  );
#151 = CARTESIAN_POINT ( 'NONE',  ( -17.16351398666068200, 8.637225597857668200, -0.009319329481544081800 ) ) ;
#152 = CARTESIAN_POINT ( 'NONE',  ( 0.0000000000000000000, 0.0000000000000000000, 0.0000000000000000000 ) ) ;
#153 =( NAMED_UNIT ( * ) SI_UNIT ( $, .STERADIAN. ) SOLID_ANGLE_UNIT ( ) );
#154 = COORDINATED_UNIVERSAL_TIME_OFFSET ( 2, 0, .AHEAD. ) ;
#155 = FACE_OUTER_BOUND ( 'NONE', #228, .T. ) ;
#156 = AXIS2_PLACEMENT_3D ( 'NONE', #175, #108, #179 ) ;
#157 = SECURITY_CLASSIFICATION_LEVEL ( 'unclassified' ) ;
#158 = FACE_OUTER_BOUND ( 'NONE', #288, .T. ) ;
#159 = ORIENTED_EDGE ( 'NONE', *, *, #61, .F. ) ;
#160 =( GEOMETRIC_REPRESENTATION_CONTEXT ( 3 ) GLOBAL_UNCERTAINTY_ASSIGNED_CONTEXT ( ( #245 ) ) GLOBAL_UNIT_ASSIGNED_CONTEXT ( ( #269, #131, #153 ) ) REPRESENTATION_CONTEXT ( 'NONE', 'WORKASPACE' ) );
#161 = CARTESIAN_POINT ( 'NONE',  ( 25.65523373634069400, 8.637225597857668200, 1.316787284827581000 ) ) ;
#162 = AXIS2_PLACEMENT_3D ( 'NONE', #237, #166, #264 ) ;
#163 = CARTESIAN_POINT ( 'NONE',  ( -7.225303308642742200E-014, 25.40000000000005900, 1.959540455301826700 ) ) ;
#164 = CARTESIAN_POINT ( 'NONE',  ( -8.594641531769697800, 8.637225597857636200, 7.274366629630756100 ) ) ;
#165 = FACE_OUTER_BOUND ( 'NONE', #2, .T. ) ;
#166 = DIRECTION ( 'NONE',  ( -0.0000000000000000000, -0.0000000000000000000, -1.000000000000000000 ) ) ;
#167 = SECURITY_CLASSIFICATION ( '', '', #157 ) ;
#168 = CARTESIAN_POINT ( 'NONE',  ( -8.456055610209851600, 25.70234342750024900, 4.593244183049438200 ) ) ;
#169 = EDGE_LOOP ( 'NONE', ( #178, #93, #42, #240, #38, #94 ) ) ;
#170 = EDGE_CURVE ( 'NONE', #180, #55, #100, .T. ) ;
#171 = CARTESIAN_POINT ( 'NONE',  ( 1.665334536937734800E-013, -8.637225597857622000, 7.274366629630715200 ) ) ;
#172 = DIRECTION ( 'NONE',  ( 1.000000000000000000, 8.881784197001252300E-016, 0.0000000000000000000 ) ) ;
#173 = ORIENTED_EDGE ( 'NONE', *, *, #28, .T. ) ;
#174 = CARTESIAN_POINT ( 'NONE',  ( 1.561251128379126100E-013, 8.637225597857638000, 7.274366629630742800 ) ) ;
#175 = CARTESIAN_POINT ( 'NONE',  ( 9.992007221626412800E-016, 4.884981308350691100E-015, 1.959540455301820100 ) ) ;
#176 = DIRECTION ( 'NONE',  ( 0.0000000000000000000, 0.0000000000000000000, 1.000000000000000000 ) ) ;
#177 = PRODUCT_DEFINITION ( 'UNKNOWN', '', #138, #86 ) ;
#178 = ORIENTED_EDGE ( 'NONE', *, *, #18, .F. ) ;
#179 = DIRECTION ( 'NONE',  ( 1.000000000000000000, 0.0000000000000000000, 0.0000000000000000000 ) ) ;
#180 = VERTEX_POINT ( 'NONE', #292 ) ;
#181 = PERSON_AND_ORGANIZATION_ROLE ( 'creator' ) ;
#182 = CALENDAR_DATE ( 2019, 8, 1 ) ;
#183 = EDGE_LOOP ( 'NONE', ( #233, #173, #203 ) ) ;
#184 = CARTESIAN_POINT ( 'NONE',  ( 1.308729129893732000E-013, -25.70234342750023500, 4.593244183049405300 ) ) ;
#185 = CARTESIAN_POINT ( 'NONE',  ( 8.594641531769724500, 8.637225597857668200, -0.6743666296307496700 ) ) ;
#186 = DIRECTION ( 'NONE',  ( 1.000000000000000000, 8.881784197001252300E-016, 0.0000000000000000000 ) ) ;
#187 = DIRECTION ( 'NONE',  ( 1.000000000000000000, 0.0000000000000000000, 0.0000000000000000000 ) ) ;
#188 = APPROVAL_DATE_TIME ( #139, #242 ) ;
#189 = DIRECTION ( 'NONE',  ( 1.000000000000000000, 0.0000000000000000000, 0.0000000000000000000 ) ) ;
#190 = CARTESIAN_POINT ( 'NONE',  ( 25.24155107173606900, 25.70234342750026400, 2.634197006165045700 ) ) ;
#191 = PERSON ( 'UNSPECIFIED', 'UNSPECIFIED', 'UNSPECIFIED', ('UNSPECIFIED'), ('UNSPECIFIED'), ('UNSPECIFIED') ) ;
#192 = LOCAL_TIME ( 13, 5, 56.00000000000000000, #154 ) ;
#193 = CARTESIAN_POINT ( 'NONE',  ( -25.65523373634081100, -8.637225597857654000, 1.316787284827594100 ) ) ;
#194 = EDGE_LOOP ( 'NONE', ( #120, #5, #159 ) ) ;
#195 = CARTESIAN_POINT ( 'NONE',  ( -25.65523373634081100, 8.637225597857668200, 1.316787284827592300 ) ) ;
#196 = DIRECTION ( 'NONE',  ( 0.0000000000000000000, 0.0000000000000000000, 1.000000000000000000 ) ) ;
#197 = LOCAL_TIME ( 13, 5, 56.00000000000000000, #144 ) ;
#198 = DIRECTION ( 'NONE',  ( 1.000000000000000000, 0.0000000000000000000, 0.0000000000000000000 ) ) ;
#199 = DIRECTION ( 'NONE',  ( 1.000000000000000000, 0.0000000000000000000, -3.546933229882020000E-016 ) ) ;
#200 = CALENDAR_DATE ( 2019, 8, 1 ) ;
#201 = ORIENTED_EDGE ( 'NONE', *, *, #130, .T. ) ;
#202 = EDGE_CURVE ( 'NONE', #277, #4, #126, .T. ) ;
#203 = ORIENTED_EDGE ( 'NONE', *, *, #18, .T. ) ;
#204 = AXIS2_PLACEMENT_3D ( 'NONE', #152, #106, #198 ) ;
#205 = PERSON_AND_ORGANIZATION_ROLE ( 'classification_officer' ) ;
#206 = ADVANCED_FACE ( 'NONE', ( #280 ), #149, .T. ) ;
#207 = CARTESIAN_POINT ( 'NONE',  ( -7.223628611290813700E-014, -25.70234342750033100, 2.006755816950589500 ) ) ;
#208 = FACE_OUTER_BOUND ( 'NONE', #183, .T. ) ;
#209 = AXIS2_PLACEMENT_3D ( 'NONE', #266, #37, #80 ) ;
#210 = CARTESIAN_POINT ( 'NONE',  ( 1.205856135527339000E-013, 8.637225597857638000, 7.274366629630749000 ) ) ;
#211 = CARTESIAN_POINT ( 'NONE',  ( 9.992007221626412800E-016, 4.884981308350691100E-015, 1.959540455301820100 ) ) ;
#212 = CARTESIAN_POINT ( 'NONE',  ( -1.179611963664228800E-013, 25.70234342750034200, 2.006755816950577900 ) ) ;
#213 = DATE_AND_TIME ( #74, #36 ) ;
#214 = LINE ( 'NONE', #22, #64 ) ;
#215 = CARTESIAN_POINT ( 'NONE',  ( -17.16351398666068200, -8.637225597857654000, -0.009319329481542345400 ) ) ;
#216 = PRODUCT ( '111-1520E UVFS bi-cx 50.8 F175', '111-1520E UVFS bi-cx 50.8 F175', '', ( #247 ) ) ;
#217 = EDGE_CURVE ( 'NONE', #275, #135, #214, .T. ) ;
#218 = CARTESIAN_POINT ( 'NONE',  ( -16.88675766189084700, -25.70234342750032400, 2.661079436230569000 ) ) ;
#219 = CARTESIAN_POINT ( 'NONE',  ( -7.225303308642742200E-014, -25.40000000000005500, 1.959540455301826700 ) ) ;
#220 = CC_DESIGN_PERSON_AND_ORGANIZATION_ASSIGNMENT ( #65, #62, ( #138 ) ) ;
#221 = ORIENTED_EDGE ( 'NONE', *, *, #217, .T. ) ;
#222 = CARTESIAN_POINT ( 'NONE',  ( 1.421085471520200100E-014, 0.0000000000000000000, -159.0000000000000000 ) ) ;
#223 = CALENDAR_DATE ( 2019, 8, 1 ) ;
#224 = CIRCLE ( 'NONE', #162, 25.39999999999999900 ) ;
#225 = DIRECTION ( 'NONE',  ( 0.0000000000000000000, -1.000000000000000000, 0.0000000000000000000 ) ) ;
#226 = APPROVAL_ROLE ( '' ) ;
#227 = ADVANCED_FACE ( 'NONE', ( #155 ), #90, .T. ) ;
#228 = EDGE_LOOP ( 'NONE', ( #77, #51, #285, #221, #293, #252 ) ) ;
#229 = PERSON_AND_ORGANIZATION ( #191, #255 ) ;
#230 = CARTESIAN_POINT ( 'NONE',  ( 8.594641531769724500, -8.637225597857654000, -0.6743666296307483400 ) ) ;
#231 = CARTESIAN_POINT ( 'NONE',  ( 25.24155107173605100, -25.70234342750033100, 3.965802993834965000 ) ) ;
#232 = CARTESIAN_POINT ( 'NONE',  ( 16.88675766189070500, 25.70234342750033800, 2.661079436230557400 ) ) ;
#233 = ORIENTED_EDGE ( 'NONE', *, *, #282, .F. ) ;
#234 =( BOUNDED_SURFACE ( )  B_SPLINE_SURFACE ( 3, 3, ( 
 ( #148, #218, #17, #244 ),
 ( #193, #215, #102, #101 ),
 ( #195, #151, #241, #54 ),
 ( #20, #125, #56, #212 ) ),
 .UNSPECIFIED., .F., .F., .F. ) 
 B_SPLINE_SURFACE_WITH_KNOTS ( ( 4, 4 ),
 ( 4, 4 ),
 ( 0.0000000000000000000, 1.000000000000000000 ),
 ( 0.0000000000000000000, 1.000000000000000000 ),
 .UNSPECIFIED. ) 
 GEOMETRIC_REPRESENTATION_ITEM ( )  RATIONAL_B_SPLINE_SURFACE ( (
 ( 1.000000000000000000, 0.9980011517033625700, 0.9980011517033625700, 1.000000000000000000),
 ( 0.9919212728786207500, 0.9899385727319288700, 0.9899385727319288700, 0.9919212728786207500),
 ( 0.9919212728786207500, 0.9899385727319288700, 0.9899385727319288700, 0.9919212728786207500),
 ( 1.000000000000000000, 0.9980011517033625700, 0.9980011517033625700, 1.000000000000000000) ) ) 
 REPRESENTATION_ITEM ( '' )  SURFACE ( )  );
#235 = ORIENTED_EDGE ( 'NONE', *, *, #282, .T. ) ;
#236 = CARTESIAN_POINT ( 'NONE',  ( 1.266480646725260500E-013, -8.637225597857622000, 7.274366629630720600 ) ) ;
#237 = CARTESIAN_POINT ( 'NONE',  ( 9.992007221626412800E-016, 4.884981308350691100E-015, 4.640459544698179800 ) ) ;
#238 = LOCAL_TIME ( 13, 5, 56.00000000000000000, #119 ) ;
#239 = CARTESIAN_POINT ( 'NONE',  ( -25.65523373634069400, 8.637225597857630900, 5.283212715172431300 ) ) ;
#240 = ORIENTED_EDGE ( 'NONE', *, *, #98, .T. ) ;
#241 = CARTESIAN_POINT ( 'NONE',  ( -8.594641531769893200, 8.637225597857668200, -0.6743666296307532200 ) ) ;
#242 = APPROVAL ( #83, 'UNSPECIFIED' ) ;
#243 = FACE_OUTER_BOUND ( 'NONE', #194, .T. ) ;
#244 = CARTESIAN_POINT ( 'NONE',  ( -1.179611963664228800E-013, -25.70234342750033100, 2.006755816950577900 ) ) ;
#245 = UNCERTAINTY_MEASURE_WITH_UNIT (LENGTH_MEASURE( 1.000000000000000100E-005 ), #269, 'distance_accuracy_value', 'NONE');
#246 = CC_DESIGN_APPROVAL ( #242, ( #138 ) ) ;
#247 = MECHANICAL_CONTEXT ( 'NONE', #270, 'mechanical' ) ;
#248 = CIRCLE ( 'NONE', #72, 25.39999999999999900 ) ;
#249 = DIRECTION ( 'NONE',  ( 1.000000000000000000, 0.0000000000000000000, 0.0000000000000000000 ) ) ;
#250 = APPLICATION_CONTEXT ( 'configuration controlled 3d designs of mechanical parts and assemblies' ) ;
#251 = CIRCLE ( 'NONE', #271, 25.39999999999999900 ) ;
#252 = ORIENTED_EDGE ( 'NONE', *, *, #107, .T. ) ;
#253 = APPROVAL_STATUS ( 'not_yet_approved' ) ;
#254 = CARTESIAN_POINT ( 'NONE',  ( -25.39999999999999900, 7.995584178184967200E-015, 4.640459544698179800 ) ) ;
#255 = ORGANIZATION ( 'UNSPECIFIED', 'UNSPECIFIED', '' ) ;
#256 = CIRCLE ( 'NONE', #69, 25.39999999999999900 ) ;
#257 = MANIFOLD_SOLID_BREP ( 'Imported1', #68 ) ;
#258 = CC_DESIGN_DATE_AND_TIME_ASSIGNMENT ( #134, #137, ( #177 ) ) ;
#259 = DIRECTION ( 'NONE',  ( -0.0000000000000000000, -0.0000000000000000000, -1.000000000000000000 ) ) ;
#260 = CARTESIAN_POINT ( 'NONE',  ( -25.24155107173607200, 25.70234342750024600, 2.634197006165064400 ) ) ;
#261 = CARTESIAN_POINT ( 'NONE',  ( -25.24155107173604800, -25.70234342750024600, 2.634197006165036800 ) ) ;
#262 = PERSON_AND_ORGANIZATION ( #191, #255 ) ;
#263 = AXIS2_PLACEMENT_3D ( 'NONE', #133, #199, #225 ) ;
#264 = DIRECTION ( 'NONE',  ( 1.000000000000000000, 0.0000000000000000000, 0.0000000000000000000 ) ) ;
#265 = CARTESIAN_POINT ( 'NONE',  ( -25.39999999999999900, 7.995584178184967200E-015, 1.959540455301820100 ) ) ;
#266 = CARTESIAN_POINT ( 'NONE',  ( 9.992007221626412800E-016, 4.884981308350691100E-015, 1.959540455301820100 ) ) ;
#267 = PRODUCT_RELATED_PRODUCT_CATEGORY ( 'detail', '', ( #216 ) ) ;
#268 = PERSON_AND_ORGANIZATION ( #191, #255 ) ;
#269 =( LENGTH_UNIT ( ) NAMED_UNIT ( * ) SI_UNIT ( .MILLI., .METRE. ) );
#270 = APPLICATION_CONTEXT ( 'configuration controlled 3d designs of mechanical parts and assemblies' ) ;
#271 = AXIS2_PLACEMENT_3D ( 'NONE', #14, #35, #187 ) ;
#272 = DIRECTION ( 'NONE',  ( -1.000000000000000000, -3.509489853602910200E-016, 6.579846708490269700E-016 ) ) ;
#273 = PERSON_AND_ORGANIZATION ( #191, #255 ) ;
#274 = ORIENTED_EDGE ( 'NONE', *, *, #46, .F. ) ;
#275 = VERTEX_POINT ( 'NONE', #104 ) ;
#276 = CC_DESIGN_PERSON_AND_ORGANIZATION_ASSIGNMENT ( #273, #205, ( #167 ) ) ;
#277 = VERTEX_POINT ( 'NONE', #58 ) ;
#278 = DIRECTION ( 'NONE',  ( -0.0000000000000000000, -0.0000000000000000000, -1.000000000000000000 ) ) ;
#279 = DATE_AND_TIME ( #182, #99 ) ;
#280 = FACE_OUTER_BOUND ( 'NONE', #169, .T. ) ;
#281 = CARTESIAN_POINT ( 'NONE',  ( -7.223628611290813700E-014, 25.70234342750034200, 2.006755816950589500 ) ) ;
#282 = EDGE_CURVE ( 'NONE', #136, #8, #23, .T. ) ;
#283 = ORIENTED_EDGE ( 'NONE', *, *, #98, .F. ) ;
#284 = CARTESIAN_POINT ( 'NONE',  ( -16.88675766189070500, 25.70234342750024600, 3.938920563769472900 ) ) ;
#285 = ORIENTED_EDGE ( 'NONE', *, *, #130, .F. ) ;
#286 = CARTESIAN_POINT ( 'NONE',  ( 25.65523373634070500, -8.637225597857616700, 5.283212715172380700 ) ) ;
#287 = CARTESIAN_POINT ( 'NONE',  ( -8.594641531769690700, -8.637225597857625600, 7.274366629630724100 ) ) ;
#288 = EDGE_LOOP ( 'NONE', ( #82, #274, #283 ) ) ;
#289 = DIRECTION ( 'NONE',  ( -0.0000000000000000000, -0.0000000000000000000, -1.000000000000000000 ) ) ;
#290 = CARTESIAN_POINT ( 'NONE',  ( 25.65523373634070100, 8.637225597857645100, 5.283212715172410900 ) ) ;
#291 = APPROVAL ( #26, 'UNSPECIFIED' ) ;
#292 = CARTESIAN_POINT ( 'NONE',  ( 1.307978728544550900E-013, -25.39999999999994900, 4.640459544698170900 ) ) ;
#293 = ORIENTED_EDGE ( 'NONE', *, *, #46, .T. ) ;
#294 = CARTESIAN_POINT ( 'NONE',  ( 1.491862189340054100E-013, 25.70234342750025300, 4.593244183049425700 ) ) ;
#295 = CC_DESIGN_PERSON_AND_ORGANIZATION_ASSIGNMENT ( #268, #181, ( #177 ) ) ;
ENDSEC;
END-ISO-10303-21;
