ISO-10303-21;
HEADER;
FILE_DESCRIPTION (( 'STEP AP203' ),
    '1' );
FILE_NAME ('111-1517E UVFS bi-cx 50.8 F150.STEP',
    '2019-01-08T10:52:38',
    ( '' ),
    ( '' ),
    'SwSTEP 2.0',
    'SolidWorks 2017',
    '' );
FILE_SCHEMA (( 'CONFIG_CONTROL_DESIGN' ));
ENDSEC;

DATA;
#1 = CIRCLE ( 'NONE', #156, 25.39999999999999900 ) ;
#2 = AXIS2_PLACEMENT_3D ( 'NONE', #155, #115, #182 ) ;
#3 = DIRECTION ( 'NONE',  ( -0.0000000000000000000, -0.0000000000000000000, -1.000000000000000000 ) ) ;
#4 = CARTESIAN_POINT ( 'NONE',  ( 25.69378244633646000, 8.663074146995377600, 5.955475096939197900 ) ) ;
#5 = CARTESIAN_POINT ( 'NONE',  ( 8.623598683256732400, 8.663074146995377600, 8.292789708710408500 ) ) ;
#6 = ORIENTED_EDGE ( 'NONE', *, *, #102, .F. ) ;
#7 = DIRECTION ( 'NONE',  ( -0.0000000000000000000, -0.0000000000000000000, -1.000000000000000000 ) ) ;
#8 = DIRECTION ( 'NONE',  ( -0.0000000000000000000, -0.0000000000000000000, -1.000000000000000000 ) ) ;
#9 = DIRECTION ( 'NONE',  ( 1.000000000000000000, 0.0000000000000000000, 0.0000000000000000000 ) ) ;
#10 = DATE_AND_TIME ( #37, #222 ) ;
#11 = DATE_TIME_ROLE ( 'creation_date' ) ;
#12 = APPROVAL_ROLE ( '' ) ;
#13 = DATE_AND_TIME ( #53, #78 ) ;
#14 = ORIENTED_EDGE ( 'NONE', *, *, #185, .T. ) ;
#15 = DIRECTION ( 'NONE',  ( 1.000000000000000000, 8.881784197001252300E-016, 0.0000000000000000000 ) ) ;
#16 = VERTEX_POINT ( 'NONE', #128 ) ;
#17 = AXIS2_PLACEMENT_3D ( 'NONE', #160, #229, #157 ) ;
#18 = COORDINATED_UNIVERSAL_TIME_OFFSET ( 2, 0, .AHEAD. ) ;
#19 = ORIENTED_EDGE ( 'NONE', *, *, #236, .T. ) ;
#20 = ADVANCED_FACE ( 'NONE', ( #218 ), #41, .T. ) ;
#21 = SECURITY_CLASSIFICATION ( '', '', #241 ) ;
#22 = AXIS2_PLACEMENT_3D ( 'NONE', #82, #7, #235 ) ;
#23 = CARTESIAN_POINT ( 'NONE',  ( 16.83160581749991300, 25.70142826265567800, 3.116024348529928400 ) ) ;
#24 = ORIENTED_EDGE ( 'NONE', *, *, #123, .T. ) ;
#25 = CARTESIAN_POINT ( 'NONE',  ( 8.433141844715168000, 25.70142826265567800, 2.352032024666271100 ) ) ;
#26 = CARTESIAN_POINT ( 'NONE',  ( 9.992007221626412800E-016, 4.884981308350691100E-015, 2.296733706635580000 ) ) ;
#27 = CARTESIAN_POINT ( 'NONE',  ( 8.433141844715240900, 25.70142826265570300, 5.147967975333740400 ) ) ;
#28 =( BOUNDED_SURFACE ( )  B_SPLINE_SURFACE ( 3, 3, ( 
 ( #67, #151, #45, #228 ),
 ( #255, #133, #208, #206 ),
 ( #137, #73, #116, #277 ),
 ( #95, #25, #23, #275 ) ),
 .UNSPECIFIED., .F., .F., .F. ) 
 B_SPLINE_SURFACE_WITH_KNOTS ( ( 4, 4 ),
 ( 4, 4 ),
 ( 0.0000000000000000000, 1.000000000000000000 ),
 ( 0.0000000000000000000, 1.000000000000000000 ),
 .UNSPECIFIED. ) 
 GEOMETRIC_REPRESENTATION_ITEM ( )  RATIONAL_B_SPLINE_SURFACE ( (
 ( 1.000000000000000000, 0.9972586040039828100, 0.9972586040039828100, 1.000000000000000000),
 ( 0.9889264028970512500, 0.9862153640157935700, 0.9862153640157935700, 0.9889264028970512500),
 ( 0.9889264028970512500, 0.9862153640157935700, 0.9862153640157935700, 0.9889264028970512500),
 ( 1.000000000000000000, 0.9972586040039828100, 0.9972586040039828100, 1.000000000000000000) ) ) 
 REPRESENTATION_ITEM ( '' )  SURFACE ( )  );
#29 = DIRECTION ( 'NONE',  ( 1.000000000000000000, -8.512579223063600000E-032, -2.074054176795419900E-016 ) ) ;
#30 = APPROVAL ( #145, 'UNSPECIFIED' ) ;
#31 = CARTESIAN_POINT ( 'NONE',  ( -25.39999999999999900, 7.995584178184967200E-015, 2.296733706635580000 ) ) ;
#32 =( LENGTH_UNIT ( ) NAMED_UNIT ( * ) SI_UNIT ( .MILLI., .METRE. ) );
#33 = CIRCLE ( 'NONE', #267, 25.39999999999999900 ) ;
#34 = DIRECTION ( 'NONE',  ( 0.0000000000000000000, 0.0000000000000000000, 1.000000000000000000 ) ) ;
#35 = AXIS2_PLACEMENT_3D ( 'NONE', #103, #118, #264 ) ;
#36 = PERSON_AND_ORGANIZATION_ROLE ( 'design_owner' ) ;
#37 = CALENDAR_DATE ( 2019, 8, 1 ) ;
#38 = VERTEX_POINT ( 'NONE', #129 ) ;
#39 = DIRECTION ( 'NONE',  ( 0.0000000000000000000, 0.0000000000000000000, 1.000000000000000000 ) ) ;
#40 = EDGE_LOOP ( 'NONE', ( #130, #125, #105 ) ) ;
#41 =( BOUNDED_SURFACE ( )  B_SPLINE_SURFACE ( 3, 3, ( 
 ( #245, #251, #271, #201 ),
 ( #292, #224, #112, #91 ),
 ( #132, #152, #70, #110 ),
 ( #295, #66, #202, #291 ) ),
 .UNSPECIFIED., .F., .F., .F. ) 
 B_SPLINE_SURFACE_WITH_KNOTS ( ( 4, 4 ),
 ( 4, 4 ),
 ( 0.0000000000000000000, 1.000000000000000000 ),
 ( 0.0000000000000000000, 1.000000000000000000 ),
 .UNSPECIFIED. ) 
 GEOMETRIC_REPRESENTATION_ITEM ( )  RATIONAL_B_SPLINE_SURFACE ( (
 ( 1.000000000000000000, 0.9972586040039828100, 0.9972586040039828100, 1.000000000000000000),
 ( 0.9889264028970512500, 0.9862153640157935700, 0.9862153640157935700, 0.9889264028970512500),
 ( 0.9889264028970512500, 0.9862153640157935700, 0.9862153640157935700, 0.9889264028970512500),
 ( 1.000000000000000000, 0.9972586040039828100, 0.9972586040039828100, 1.000000000000000000) ) ) 
 REPRESENTATION_ITEM ( '' )  SURFACE ( )  );
#42 = CARTESIAN_POINT ( 'NONE',  ( 25.39999999999999900, 4.884981308350691100E-015, 2.296733706635580000 ) ) ;
#43 = LOCAL_TIME ( 12, 52, 38.00000000000000000, #165 ) ;
#44 = ORIENTED_EDGE ( 'NONE', *, *, #280, .F. ) ;
#45 = CARTESIAN_POINT ( 'NONE',  ( 16.83160581749992000, -25.70142826265565700, 3.116024348529928400 ) ) ;
#46 = CC_DESIGN_APPROVAL ( #30, ( #94 ) ) ;
#47 = PERSON_AND_ORGANIZATION ( #50, #146 ) ;
#48 = CYLINDRICAL_SURFACE ( 'NONE', #17, 25.39999999999999900 ) ;
#49 = CARTESIAN_POINT ( 'NONE',  ( 25.69378244633646300, -8.663074146995336700, 5.955475096939199600 ) ) ;
#50 = PERSON ( 'UNSPECIFIED', 'UNSPECIFIED', 'UNSPECIFIED', ('UNSPECIFIED'), ('UNSPECIFIED'), ('UNSPECIFIED') ) ;
#51 = CARTESIAN_POINT ( 'NONE',  ( 4.510281037539698400E-014, 8.663074146995377600, 8.292789708710412100 ) ) ;
#52 = CARTESIAN_POINT ( 'NONE',  ( 4.857225732735059900E-014, -8.663074146995336700, 8.292789708710415700 ) ) ;
#53 = CALENDAR_DATE ( 2019, 8, 1 ) ;
#54 = CARTESIAN_POINT ( 'NONE',  ( 25.39999999999999900, 4.884981308350691100E-015, 2.296733706635580000 ) ) ;
#55 = CARTESIAN_POINT ( 'NONE',  ( -16.83160581750001900, 25.70142826265568200, 3.116024348529935900 ) ) ;
#56 = EDGE_LOOP ( 'NONE', ( #289, #87, #240 ) ) ;
#57 = AXIS2_PLACEMENT_3D ( 'NONE', #26, #97, #136 ) ;
#58 = CARTESIAN_POINT ( 'NONE',  ( 25.39999999999999900, 4.884981308350691100E-015, 5.203266293364420000 ) ) ;
#59 = PRODUCT_RELATED_PRODUCT_CATEGORY ( 'detail', '', ( #276 ) ) ;
#60 = DATE_TIME_ROLE ( 'classification_date' ) ;
#61 = APPROVAL_STATUS ( 'not_yet_approved' ) ;
#62 = CIRCLE ( 'NONE', #231, 25.39999999999999900 ) ;
#63 = AXIS2_PLACEMENT_3D ( 'NONE', #284, #142, #9 ) ;
#64 = ADVANCED_FACE ( 'NONE', ( #134 ), #28, .T. ) ;
#65 = APPROVAL_DATE_TIME ( #107, #272 ) ;
#66 = CARTESIAN_POINT ( 'NONE',  ( -8.433141844715162700, 25.70142826265570300, 5.147967975333736000 ) ) ;
#67 = CARTESIAN_POINT ( 'NONE',  ( -1.466992824374958500E-014, -25.70142826265565700, 2.352032024666272900 ) ) ;
#68 = CC_DESIGN_PERSON_AND_ORGANIZATION_ASSIGNMENT ( #196, #287, ( #173 ) ) ;
#69 = VERTEX_POINT ( 'NONE', #42 ) ;
#70 = CARTESIAN_POINT ( 'NONE',  ( -17.21173631816100200, 8.663074146995377600, 7.511543131882386400 ) ) ;
#71 = CARTESIAN_POINT ( 'NONE',  ( 4.510281037539698400E-014, 25.70142826265570300, 5.147967975333743100 ) ) ;
#72 = CC_DESIGN_PERSON_AND_ORGANIZATION_ASSIGNMENT ( #47, #36, ( #276 ) ) ;
#73 = CARTESIAN_POINT ( 'NONE',  ( 8.623598683256652500, 8.663074146995359800, -0.7927897087103932300 ) ) ;
#74 = CARTESIAN_POINT ( 'NONE',  ( -25.39999999999999900, 7.995584178184967200E-015, 2.296733706635580000 ) ) ;
#75 = CARTESIAN_POINT ( 'NONE',  ( 17.21173631816111200, -8.663074146995333200, 7.511543131882383800 ) ) ;
#76 = DIRECTION ( 'NONE',  ( 1.000000000000000000, 0.0000000000000000000, 0.0000000000000000000 ) ) ;
#77 = CARTESIAN_POINT ( 'NONE',  ( 9.992007221626412800E-016, 4.884981308350691100E-015, 5.203266293364420000 ) ) ;
#78 = LOCAL_TIME ( 12, 52, 38.00000000000000000, #204 ) ;
#79 = ORIENTED_EDGE ( 'NONE', *, *, #167, .F. ) ;
#80 = CARTESIAN_POINT ( 'NONE',  ( -4.163336342344337000E-014, -25.70142826265565700, 2.352032024666263600 ) ) ;
#81 = AXIS2_PLACEMENT_3D ( 'NONE', #170, #29, #169 ) ;
#82 = CARTESIAN_POINT ( 'NONE',  ( 9.992007221626412800E-016, 4.884981308350691100E-015, 2.296733706635580000 ) ) ;
#83 = CARTESIAN_POINT ( 'NONE',  ( -17.21173631816111200, 8.663074146995363400, -0.01154313188236975000 ) ) ;
#84 = CARTESIAN_POINT ( 'NONE',  ( 9.992007221626412800E-016, 4.884981308350691100E-015, 2.296733706635580000 ) ) ;
#85 =( NAMED_UNIT ( * ) SI_UNIT ( $, .STERADIAN. ) SOLID_ANGLE_UNIT ( ) );
#86 = CALENDAR_DATE ( 2019, 8, 1 ) ;
#87 = ORIENTED_EDGE ( 'NONE', *, *, #148, .F. ) ;
#88 = APPROVAL_ROLE ( '' ) ;
#89 = CIRCLE ( 'NONE', #35, 141.5999999999999900 ) ;
#90 = ORIENTED_EDGE ( 'NONE', *, *, #274, .T. ) ;
#91 = CARTESIAN_POINT ( 'NONE',  ( -25.69378244633633600, -8.663074146995336700, 5.955475096939218300 ) ) ;
#92 = CYLINDRICAL_SURFACE ( 'NONE', #181, 25.39999999999999900 ) ;
#93 = CARTESIAN_POINT ( 'NONE',  ( 9.992007221626412800E-016, 4.884981308350691100E-015, 5.203266293364420000 ) ) ;
#94 = PRODUCT_DEFINITION ( 'UNKNOWN', '', #173, #153 ) ;
#95 = CARTESIAN_POINT ( 'NONE',  ( -1.466992824374958500E-014, 25.70142826265567800, 2.352032024666272900 ) ) ;
#96 = PERSON_AND_ORGANIZATION ( #50, #146 ) ;
#97 = DIRECTION ( 'NONE',  ( -0.0000000000000000000, -0.0000000000000000000, -1.000000000000000000 ) ) ;
#98 = CARTESIAN_POINT ( 'NONE',  ( 9.992007221626412800E-016, 4.884981308350691100E-015, 2.296733706635580000 ) ) ;
#99 = DIRECTION ( 'NONE',  ( 0.0000000000000000000, 0.0000000000000000000, 1.000000000000000000 ) ) ;
#100 = ORIENTED_EDGE ( 'NONE', *, *, #253, .F. ) ;
#101 = CARTESIAN_POINT ( 'NONE',  ( -1.468139741449771200E-014, 25.40000000000003400, 2.296733706635579500 ) ) ;
#102 = EDGE_CURVE ( 'NONE', #200, #205, #213, .T. ) ;
#103 = CARTESIAN_POINT ( 'NONE',  ( -1.421085471520200100E-014, 2.842170943040400100E-014, -134.0999999999999900 ) ) ;
#104 = PERSON_AND_ORGANIZATION_ROLE ( 'creator' ) ;
#105 = ORIENTED_EDGE ( 'NONE', *, *, #250, .T. ) ;
#106 =( NAMED_UNIT ( * ) PLANE_ANGLE_UNIT ( ) SI_UNIT ( $, .RADIAN. ) );
#107 = DATE_AND_TIME ( #117, #43 ) ;
#108 = EDGE_LOOP ( 'NONE', ( #197, #14, #161 ) ) ;
#109 = MANIFOLD_SOLID_BREP ( 'Imported1', #139 ) ;
#110 = CARTESIAN_POINT ( 'NONE',  ( -25.69378244633633600, 8.663074146995377600, 5.955475096939218300 ) ) ;
#111 = APPROVAL_PERSON_ORGANIZATION ( #232, #272, #12 ) ;
#112 = CARTESIAN_POINT ( 'NONE',  ( -17.21173631816100200, -8.663074146995333200, 7.511543131882388200 ) ) ;
#113 = DATE_AND_TIME ( #86, #159 ) ;
#114 = CARTESIAN_POINT ( 'NONE',  ( 16.83160581750001900, -25.70142826265566400, 4.383975651470072100 ) ) ;
#115 = DIRECTION ( 'NONE',  ( -0.0000000000000000000, -0.0000000000000000000, -1.000000000000000000 ) ) ;
#116 = CARTESIAN_POINT ( 'NONE',  ( 17.21173631816100900, 8.663074146995361600, -0.01154313188237669100 ) ) ;
#117 = CALENDAR_DATE ( 2019, 8, 1 ) ;
#118 = DIRECTION ( 'NONE',  ( -1.000000000000000000, 0.0000000000000000000, 2.074054176795419900E-016 ) ) ;
#119 = EDGE_LOOP ( 'NONE', ( #6, #207, #220, #24, #150, #279 ) ) ;
#120 = CC_DESIGN_SECURITY_CLASSIFICATION ( #21, ( #173 ) ) ;
#121 = CARTESIAN_POINT ( 'NONE',  ( -4.857225732735059900E-014, 25.70142826265567800, 2.352032024666263600 ) ) ;
#122 = CARTESIAN_POINT ( 'NONE',  ( -1.468139741449771500E-014, -25.40000000000000600, 2.296733706635579500 ) ) ;
#123 = EDGE_CURVE ( 'NONE', #38, #285, #294, .T. ) ;
#124 = APPROVAL_DATE_TIME ( #10, #215 ) ;
#125 = ORIENTED_EDGE ( 'NONE', *, *, #265, .T. ) ;
#126 = APPLICATION_PROTOCOL_DEFINITION ( 'international standard', 'config_control_design', 1994, #174 ) ;
#127 = APPROVAL_PERSON_ORGANIZATION ( #177, #215, #88 ) ;
#128 = CARTESIAN_POINT ( 'NONE',  ( -25.39999999999999900, 7.995584178184967200E-015, 5.203266293364420000 ) ) ;
#129 = CARTESIAN_POINT ( 'NONE',  ( 1.468139741449771200E-014, 25.40000000000003400, 5.203266293364424500 ) ) ;
#130 = ORIENTED_EDGE ( 'NONE', *, *, #253, .T. ) ;
#131 = EDGE_CURVE ( 'NONE', #269, #16, #33, .T. ) ;
#132 = CARTESIAN_POINT ( 'NONE',  ( 1.532218130888826900E-014, 8.663074146995377600, 8.292789708710403200 ) ) ;
#133 = CARTESIAN_POINT ( 'NONE',  ( 8.623598683256652500, -8.663074146995336700, -0.7927897087103975600 ) ) ;
#134 = FACE_OUTER_BOUND ( 'NONE', #40, .T. ) ;
#135 = CARTESIAN_POINT ( 'NONE',  ( 8.623598683256736000, -8.663074146995333200, 8.292789708710412100 ) ) ;
#136 = DIRECTION ( 'NONE',  ( 1.000000000000000000, 8.881784197001252300E-016, 0.0000000000000000000 ) ) ;
#137 = CARTESIAN_POINT ( 'NONE',  ( -1.532218130888827500E-014, 8.663074146995359800, -0.7927897087103914500 ) ) ;
#138 = CARTESIAN_POINT ( 'NONE',  ( 4.510281037539698400E-014, -25.70142826265566400, 5.147967975333743100 ) ) ;
#139 = CLOSED_SHELL ( 'NONE', ( #64, #20, #178, #247, #203, #180 ) ) ;
#140 = CARTESIAN_POINT ( 'NONE',  ( -4.857225732735059900E-014, -8.663074146995336700, -0.7927897087104054400 ) ) ;
#141 = CARTESIAN_POINT ( 'NONE',  ( -25.12632137183131300, 25.70142826265568200, 4.637725779764373600 ) ) ;
#142 = DIRECTION ( 'NONE',  ( -0.0000000000000000000, -0.0000000000000000000, -1.000000000000000000 ) ) ;
#143 = ORIENTED_EDGE ( 'NONE', *, *, #185, .F. ) ;
#144 = APPLICATION_PROTOCOL_DEFINITION ( 'international standard', 'config_control_design', 1994, #239 ) ;
#145 = APPROVAL_STATUS ( 'not_yet_approved' ) ;
#146 = ORGANIZATION ( 'UNSPECIFIED', 'UNSPECIFIED', '' ) ;
#147 = APPROVAL_STATUS ( 'not_yet_approved' ) ;
#148 = EDGE_CURVE ( 'NONE', #285, #269, #62, .T. ) ;
#149 = APPROVAL_DATE_TIME ( #113, #30 ) ;
#150 = ORIENTED_EDGE ( 'NONE', *, *, #274, .F. ) ;
#151 = CARTESIAN_POINT ( 'NONE',  ( 8.433141844715168000, -25.70142826265565700, 2.352032024666271100 ) ) ;
#152 = CARTESIAN_POINT ( 'NONE',  ( -8.623598683256645400, 8.663074146995377600, 8.292789708710405000 ) ) ;
#153 = DESIGN_CONTEXT ( 'detailed design', #174, 'design' ) ;
#154 = FACE_OUTER_BOUND ( 'NONE', #56, .T. ) ;
#155 = CARTESIAN_POINT ( 'NONE',  ( 9.992007221626412800E-016, 4.884981308350691100E-015, 5.203266293364420000 ) ) ;
#156 = AXIS2_PLACEMENT_3D ( 'NONE', #77, #230, #15 ) ;
#157 = DIRECTION ( 'NONE',  ( 1.000000000000000000, 0.0000000000000000000, 0.0000000000000000000 ) ) ;
#158 = DIRECTION ( 'NONE',  ( 1.000000000000000000, 0.0000000000000000000, 0.0000000000000000000 ) ) ;
#159 = LOCAL_TIME ( 12, 52, 38.00000000000000000, #288 ) ;
#160 = CARTESIAN_POINT ( 'NONE',  ( 9.992007221626412800E-016, 4.884981308350691100E-015, 2.296733706635580000 ) ) ;
#161 = ORIENTED_EDGE ( 'NONE', *, *, #102, .T. ) ;
#162 = CARTESIAN_POINT ( 'NONE',  ( 25.12632137183131300, 25.70142826265570300, 2.862274220235633500 ) ) ;
#163 = CARTESIAN_POINT ( 'NONE',  ( 0.0000000000000000000, 0.0000000000000000000, 0.0000000000000000000 ) ) ;
#164 = CARTESIAN_POINT ( 'NONE',  ( -8.623598683256739500, 8.663074146995363400, -0.7927897087103974400 ) ) ;
#165 = COORDINATED_UNIVERSAL_TIME_OFFSET ( 2, 0, .AHEAD. ) ;
#166 = FACE_OUTER_BOUND ( 'NONE', #119, .T. ) ;
#167 = EDGE_CURVE ( 'NONE', #200, #16, #233, .T. ) ;
#168 = DIRECTION ( 'NONE',  ( 1.000000000000000000, -8.881784197001252300E-016, 0.0000000000000000000 ) ) ;
#169 = DIRECTION ( 'NONE',  ( 0.0000000000000000000, -1.000000000000000000, 3.920279041755496500E-016 ) ) ;
#170 = CARTESIAN_POINT ( 'NONE',  ( 1.421085471520200100E-014, 2.842170943040400100E-014, 141.5999999999999900 ) ) ;
#171 = PERSON_AND_ORGANIZATION_ROLE ( 'classification_officer' ) ;
#172 = PERSON_AND_ORGANIZATION_ROLE ( 'creator' ) ;
#173 = PRODUCT_DEFINITION_FORMATION_WITH_SPECIFIED_SOURCE ( 'ANY', '', #276, .NOT_KNOWN. ) ;
#174 = APPLICATION_CONTEXT ( 'configuration controlled 3d designs of mechanical parts and assemblies' ) ;
#175 = PERSON_AND_ORGANIZATION ( #50, #146 ) ;
#176 = VECTOR ( 'NONE', #256, 1000.000000000000000 ) ;
#177 = PERSON_AND_ORGANIZATION ( #50, #146 ) ;
#178 = ADVANCED_FACE ( 'NONE', ( #166 ), #48, .T. ) ;
#179 = CIRCLE ( 'NONE', #81, 141.5999999999999900 ) ;
#180 = ADVANCED_FACE ( 'NONE', ( #154 ), #238, .T. ) ;
#181 = AXIS2_PLACEMENT_3D ( 'NONE', #84, #34, #258 ) ;
#182 = DIRECTION ( 'NONE',  ( 1.000000000000000000, -1.776356839400250500E-015, 0.0000000000000000000 ) ) ;
#183 = APPROVAL_PERSON_ORGANIZATION ( #175, #30, #219 ) ;
#184 = CARTESIAN_POINT ( 'NONE',  ( -25.12632137183131300, -25.70142826265565400, 4.637725779764373600 ) ) ;
#185 = EDGE_CURVE ( 'NONE', #249, #200, #216, .T. ) ;
#186 = CC_DESIGN_PERSON_AND_ORGANIZATION_ASSIGNMENT ( #293, #172, ( #94 ) ) ;
#187 = UNCERTAINTY_MEASURE_WITH_UNIT (LENGTH_MEASURE( 1.000000000000000100E-005 ), #32, 'distance_accuracy_value', 'NONE');
#188 = LINE ( 'NONE', #54, #268 ) ;
#189 = CARTESIAN_POINT ( 'NONE',  ( -16.83160581750001900, -25.70142826265565400, 3.116024348529935900 ) ) ;
#190 = ORIENTED_EDGE ( 'NONE', *, *, #148, .T. ) ;
#191 = CARTESIAN_POINT ( 'NONE',  ( -8.433141844715237300, -25.70142826265565700, 2.352032024666266700 ) ) ;
#192 = CARTESIAN_POINT ( 'NONE',  ( -25.69378244633646000, -8.663074146995336700, 1.544524903060809700 ) ) ;
#193 = CARTESIAN_POINT ( 'NONE',  ( 1.468139741449771200E-014, -25.40000000000000600, 5.203266293364424500 ) ) ;
#194 = CALENDAR_DATE ( 2019, 8, 1 ) ;
#195 = AXIS2_PLACEMENT_3D ( 'NONE', #163, #39, #198 ) ;
#196 = PERSON_AND_ORGANIZATION ( #50, #146 ) ;
#197 = ORIENTED_EDGE ( 'NONE', *, *, #265, .F. ) ;
#198 = DIRECTION ( 'NONE',  ( 1.000000000000000000, 0.0000000000000000000, 0.0000000000000000000 ) ) ;
#199 = CC_DESIGN_DATE_AND_TIME_ASSIGNMENT ( #13, #60, ( #21 ) ) ;
#200 = VERTEX_POINT ( 'NONE', #31 ) ;
#201 = CARTESIAN_POINT ( 'NONE',  ( -25.12632137183118500, -25.70142826265566400, 2.862274220235652100 ) ) ;
#202 = CARTESIAN_POINT ( 'NONE',  ( -16.83160581749990900, 25.70142826265570300, 4.383975651470078300 ) ) ;
#203 = ADVANCED_FACE ( 'NONE', ( #273 ), #92, .T. ) ;
#204 = COORDINATED_UNIVERSAL_TIME_OFFSET ( 2, 0, .AHEAD. ) ;
#205 = VERTEX_POINT ( 'NONE', #101 ) ;
#206 = CARTESIAN_POINT ( 'NONE',  ( 25.69378244633635000, -8.663074146995338500, 1.544524903060791000 ) ) ;
#207 = ORIENTED_EDGE ( 'NONE', *, *, #167, .T. ) ;
#208 = CARTESIAN_POINT ( 'NONE',  ( 17.21173631816101200, -8.663074146995335000, -0.01154313188238102700 ) ) ;
#209 = CARTESIAN_POINT ( 'NONE',  ( 16.83160581750001900, 25.70142826265570300, 4.383975651470072100 ) ) ;
#210 = CARTESIAN_POINT ( 'NONE',  ( 17.21173631816110500, 8.663074146995377600, 7.511543131882382000 ) ) ;
#211 = CARTESIAN_POINT ( 'NONE',  ( 9.992007221626412800E-016, 4.884981308350691100E-015, 5.203266293364420000 ) ) ;
#212 = DATE_AND_TIME ( #194, #225 ) ;
#213 = CIRCLE ( 'NONE', #57, 25.39999999999999900 ) ;
#214 = CARTESIAN_POINT ( 'NONE',  ( -8.623598683256736000, -8.663074146995333200, -0.7927897087104015500 ) ) ;
#215 = APPROVAL ( #147, 'UNSPECIFIED' ) ;
#216 = CIRCLE ( 'NONE', #22, 25.39999999999999900 ) ;
#217 = CIRCLE ( 'NONE', #63, 25.39999999999999900 ) ;
#218 = FACE_OUTER_BOUND ( 'NONE', #259, .T. ) ;
#219 = APPROVAL_ROLE ( '' ) ;
#220 = ORIENTED_EDGE ( 'NONE', *, *, #280, .T. ) ;
#221 =( BOUNDED_SURFACE ( )  B_SPLINE_SURFACE ( 3, 3, ( 
 ( #184, #189, #191, #80 ),
 ( #192, #281, #214, #140 ),
 ( #260, #83, #164, #234 ),
 ( #141, #55, #261, #121 ) ),
 .UNSPECIFIED., .F., .F., .F. ) 
 B_SPLINE_SURFACE_WITH_KNOTS ( ( 4, 4 ),
 ( 4, 4 ),
 ( 0.0000000000000000000, 1.000000000000000000 ),
 ( 0.0000000000000000000, 1.000000000000000000 ),
 .UNSPECIFIED. ) 
 GEOMETRIC_REPRESENTATION_ITEM ( )  RATIONAL_B_SPLINE_SURFACE ( (
 ( 1.000000000000000000, 0.9972586040039828100, 0.9972586040039828100, 1.000000000000000000),
 ( 0.9889264028970512500, 0.9862153640157935700, 0.9862153640157935700, 0.9889264028970512500),
 ( 0.9889264028970512500, 0.9862153640157935700, 0.9862153640157935700, 0.9889264028970512500),
 ( 1.000000000000000000, 0.9972586040039828100, 0.9972586040039828100, 1.000000000000000000) ) ) 
 REPRESENTATION_ITEM ( '' )  SURFACE ( )  );
#222 = LOCAL_TIME ( 12, 52, 38.00000000000000000, #244 ) ;
#223 = ORIENTED_EDGE ( 'NONE', *, *, #131, .F. ) ;
#224 = CARTESIAN_POINT ( 'NONE',  ( -8.623598683256645400, -8.663074146995333200, 8.292789708710406800 ) ) ;
#225 = LOCAL_TIME ( 12, 52, 38.00000000000000000, #18 ) ;
#226 = FACE_OUTER_BOUND ( 'NONE', #108, .T. ) ;
#227 = AXIS2_PLACEMENT_3D ( 'NONE', #98, #8, #168 ) ;
#228 = CARTESIAN_POINT ( 'NONE',  ( 25.12632137183120300, -25.70142826265565700, 4.637725779764354100 ) ) ;
#229 = DIRECTION ( 'NONE',  ( 0.0000000000000000000, 0.0000000000000000000, 1.000000000000000000 ) ) ;
#230 = DIRECTION ( 'NONE',  ( -0.0000000000000000000, -0.0000000000000000000, -1.000000000000000000 ) ) ;
#231 = AXIS2_PLACEMENT_3D ( 'NONE', #93, #252, #158 ) ;
#232 = PERSON_AND_ORGANIZATION ( #50, #146 ) ;
#233 = LINE ( 'NONE', #74, #176 ) ;
#234 = CARTESIAN_POINT ( 'NONE',  ( -5.204170427930420700E-014, 8.663074146995363400, -0.7927897087104014400 ) ) ;
#235 = DIRECTION ( 'NONE',  ( 1.000000000000000000, 0.0000000000000000000, 0.0000000000000000000 ) ) ;
#236 = EDGE_CURVE ( 'NONE', #269, #38, #89, .T. ) ;
#237 = MECHANICAL_CONTEXT ( 'NONE', #239, 'mechanical' ) ;
#238 =( BOUNDED_SURFACE ( )  B_SPLINE_SURFACE ( 3, 3, ( 
 ( #278, #114, #254, #138 ),
 ( #49, #75, #135, #52 ),
 ( #4, #210, #5, #51 ),
 ( #162, #209, #27, #71 ) ),
 .UNSPECIFIED., .F., .F., .F. ) 
 B_SPLINE_SURFACE_WITH_KNOTS ( ( 4, 4 ),
 ( 4, 4 ),
 ( 0.0000000000000000000, 1.000000000000000000 ),
 ( 0.0000000000000000000, 1.000000000000000000 ),
 .UNSPECIFIED. ) 
 GEOMETRIC_REPRESENTATION_ITEM ( )  RATIONAL_B_SPLINE_SURFACE ( (
 ( 1.000000000000000000, 0.9972586040039828100, 0.9972586040039828100, 1.000000000000000000),
 ( 0.9889264028970512500, 0.9862153640157935700, 0.9862153640157935700, 0.9889264028970512500),
 ( 0.9889264028970512500, 0.9862153640157935700, 0.9862153640157935700, 0.9889264028970512500),
 ( 1.000000000000000000, 0.9972586040039828100, 0.9972586040039828100, 1.000000000000000000) ) ) 
 REPRESENTATION_ITEM ( '' )  SURFACE ( )  );
#239 = APPLICATION_CONTEXT ( 'configuration controlled 3d designs of mechanical parts and assemblies' ) ;
#240 = ORIENTED_EDGE ( 'NONE', *, *, #123, .F. ) ;
#241 = SECURITY_CLASSIFICATION_LEVEL ( 'unclassified' ) ;
#242 = CC_DESIGN_APPROVAL ( #272, ( #173 ) ) ;
#243 = CC_DESIGN_APPROVAL ( #215, ( #21 ) ) ;
#244 = COORDINATED_UNIVERSAL_TIME_OFFSET ( 2, 0, .AHEAD. ) ;
#245 = CARTESIAN_POINT ( 'NONE',  ( 1.466992824374957800E-014, -25.70142826265566400, 5.147967975333733300 ) ) ;
#246 = PRODUCT_DEFINITION_SHAPE ( 'NONE', 'NONE',  #94 ) ;
#247 = ADVANCED_FACE ( 'NONE', ( #226 ), #221, .T. ) ;
#248 = CIRCLE ( 'NONE', #227, 25.39999999999999900 ) ;
#249 = VERTEX_POINT ( 'NONE', #122 ) ;
#250 = EDGE_CURVE ( 'NONE', #205, #69, #248, .T. ) ;
#251 = CARTESIAN_POINT ( 'NONE',  ( -8.433141844715162700, -25.70142826265566400, 5.147967975333736000 ) ) ;
#252 = DIRECTION ( 'NONE',  ( -0.0000000000000000000, -0.0000000000000000000, -1.000000000000000000 ) ) ;
#253 = EDGE_CURVE ( 'NONE', #69, #249, #217, .T. ) ;
#254 = CARTESIAN_POINT ( 'NONE',  ( 8.433141844715240900, -25.70142826265566400, 5.147967975333740400 ) ) ;
#255 = CARTESIAN_POINT ( 'NONE',  ( -1.532218130888827500E-014, -8.663074146995340300, -0.7927897087103958900 ) ) ;
#256 = DIRECTION ( 'NONE',  ( 0.0000000000000000000, 0.0000000000000000000, 1.000000000000000000 ) ) ;
#257 = SHAPE_DEFINITION_REPRESENTATION ( #246, #270 ) ;
#258 = DIRECTION ( 'NONE',  ( 1.000000000000000000, 0.0000000000000000000, 0.0000000000000000000 ) ) ;
#259 = EDGE_LOOP ( 'NONE', ( #223, #19, #44 ) ) ;
#260 = CARTESIAN_POINT ( 'NONE',  ( -25.69378244633646300, 8.663074146995363400, 1.544524903060813900 ) ) ;
#261 = CARTESIAN_POINT ( 'NONE',  ( -8.433141844715244400, 25.70142826265567800, 2.352032024666267200 ) ) ;
#262 = CC_DESIGN_DATE_AND_TIME_ASSIGNMENT ( #212, #11, ( #94 ) ) ;
#263 = EDGE_LOOP ( 'NONE', ( #79, #143, #100, #90, #190, #283 ) ) ;
#264 = DIRECTION ( 'NONE',  ( 0.0000000000000000000, -1.000000000000000000, 0.0000000000000000000 ) ) ;
#265 = EDGE_CURVE ( 'NONE', #249, #205, #179, .T. ) ;
#266 = PERSON_AND_ORGANIZATION ( #50, #146 ) ;
#267 = AXIS2_PLACEMENT_3D ( 'NONE', #211, #3, #76 ) ;
#268 = VECTOR ( 'NONE', #99, 1000.000000000000000 ) ;
#269 = VERTEX_POINT ( 'NONE', #193 ) ;
#270 = ADVANCED_BREP_SHAPE_REPRESENTATION ( '111-1517E UVFS bi-cx 50.8 F150', ( #109, #195 ), #282 ) ;
#271 = CARTESIAN_POINT ( 'NONE',  ( -16.83160581749990900, -25.70142826265566400, 4.383975651470078300 ) ) ;
#272 = APPROVAL ( #61, 'UNSPECIFIED' ) ;
#273 = FACE_OUTER_BOUND ( 'NONE', #263, .T. ) ;
#274 = EDGE_CURVE ( 'NONE', #69, #285, #188, .T. ) ;
#275 = CARTESIAN_POINT ( 'NONE',  ( 25.12632137183119600, 25.70142826265567800, 4.637725779764354100 ) ) ;
#276 = PRODUCT ( '111-1517E UVFS bi-cx 50.8 F150', '111-1517E UVFS bi-cx 50.8 F150', '', ( #237 ) ) ;
#277 = CARTESIAN_POINT ( 'NONE',  ( 25.69378244633634600, 8.663074146995361600, 1.544524903060794600 ) ) ;
#278 = CARTESIAN_POINT ( 'NONE',  ( 25.12632137183131300, -25.70142826265566400, 2.862274220235633500 ) ) ;
#279 = ORIENTED_EDGE ( 'NONE', *, *, #250, .F. ) ;
#280 = EDGE_CURVE ( 'NONE', #16, #38, #1, .T. ) ;
#281 = CARTESIAN_POINT ( 'NONE',  ( -17.21173631816110500, -8.663074146995333200, -0.01154313188237430500 ) ) ;
#282 =( GEOMETRIC_REPRESENTATION_CONTEXT ( 3 ) GLOBAL_UNCERTAINTY_ASSIGNED_CONTEXT ( ( #187 ) ) GLOBAL_UNIT_ASSIGNED_CONTEXT ( ( #32, #106, #85 ) ) REPRESENTATION_CONTEXT ( 'NONE', 'WORKASPACE' ) );
#283 = ORIENTED_EDGE ( 'NONE', *, *, #131, .T. ) ;
#284 = CARTESIAN_POINT ( 'NONE',  ( 9.992007221626412800E-016, 4.884981308350691100E-015, 2.296733706635580000 ) ) ;
#285 = VERTEX_POINT ( 'NONE', #58 ) ;
#286 = CC_DESIGN_PERSON_AND_ORGANIZATION_ASSIGNMENT ( #96, #104, ( #173 ) ) ;
#287 = PERSON_AND_ORGANIZATION_ROLE ( 'design_supplier' ) ;
#288 = COORDINATED_UNIVERSAL_TIME_OFFSET ( 2, 0, .AHEAD. ) ;
#289 = ORIENTED_EDGE ( 'NONE', *, *, #236, .F. ) ;
#290 = CC_DESIGN_PERSON_AND_ORGANIZATION_ASSIGNMENT ( #266, #171, ( #21 ) ) ;
#291 = CARTESIAN_POINT ( 'NONE',  ( -25.12632137183118500, 25.70142826265570300, 2.862274220235652100 ) ) ;
#292 = CARTESIAN_POINT ( 'NONE',  ( 1.532218130888826900E-014, -8.663074146995336700, 8.292789708710405000 ) ) ;
#293 = PERSON_AND_ORGANIZATION ( #50, #146 ) ;
#294 = CIRCLE ( 'NONE', #2, 25.39999999999999900 ) ;
#295 = CARTESIAN_POINT ( 'NONE',  ( 1.466992824374957800E-014, 25.70142826265570300, 5.147967975333733300 ) ) ;
ENDSEC;
END-ISO-10303-21;
