ISO-10303-21;
HEADER;
FILE_DESCRIPTION (( 'STEP AP203' ),
    '1' );
FILE_NAME ('111-1514E UVFS bi-cx 50.8 F100.STEP',
    '2019-01-08T10:28:23',
    ( '' ),
    ( '' ),
    'SwSTEP 2.0',
    'SolidWorks 2017',
    '' );
FILE_SCHEMA (( 'CONFIG_CONTROL_DESIGN' ));
ENDSEC;

DATA;
#1 = APPROVAL ( #92, 'UNSPECIFIED' ) ;
#2 = DIRECTION ( 'NONE',  ( -0.0000000000000000000, -0.0000000000000000000, -1.000000000000000000 ) ) ;
#3 = ORIENTED_EDGE ( 'NONE', *, *, #290, .F. ) ;
#4 = CARTESIAN_POINT ( 'NONE',  ( -2.823940017624406800E-014, 25.69694415526837600, 3.597715594851003100 ) ) ;
#5 = AXIS2_PLACEMENT_3D ( 'NONE', #223, #243, #110 ) ;
#6 = CARTESIAN_POINT ( 'NONE',  ( 8.767125528948739100, 8.790987167766291000, 11.23078726546260200 ) ) ;
#7 = CARTESIAN_POINT ( 'NONE',  ( 4.857225732735059900E-014, 8.790987167766294500, 11.23078726546261000 ) ) ;
#8 = CLOSED_SHELL ( 'NONE', ( #165, #187, #286, #185, #228, #47 ) ) ;
#9 = CARTESIAN_POINT ( 'NONE',  ( 25.88456301228527700, 8.790987167766294500, 7.628567224570643300 ) ) ;
#10 = LOCAL_TIME ( 12, 28, 23.00000000000000000, #277 ) ;
#11 = CARTESIAN_POINT ( 'NONE',  ( -24.56618064281395800, 25.69694415526837300, 7.016463216656180000 ) ) ;
#12 = CARTESIAN_POINT ( 'NONE',  ( 2.826585313921661200E-014, -25.40000000000000600, 6.486565002225139800 ) ) ;
#13 = CARTESIAN_POINT ( 'NONE',  ( -17.45056884429197600, -8.790987167766307000, 10.02235761109166600 ) ) ;
#14 = FACE_OUTER_BOUND ( 'NONE', #295, .T. ) ;
#15 = APPROVAL_PERSON_ORGANIZATION ( #100, #1, #45 ) ;
#16 = CARTESIAN_POINT ( 'NONE',  ( -8.320588196144546700, 25.69694415526837600, 3.597715594850999100 ) ) ;
#17 = CARTESIAN_POINT ( 'NONE',  ( -25.88456301228527700, 8.790987167766294500, 2.371432775429365600 ) ) ;
#18 = CC_DESIGN_DATE_AND_TIME_ASSIGNMENT ( #267, #134, ( #137 ) ) ;
#19 =( BOUNDED_SURFACE ( )  B_SPLINE_SURFACE ( 3, 3, ( 
 ( #59, #181, #64, #42 ),
 ( #149, #66, #13, #38 ),
 ( #206, #242, #108, #262 ),
 ( #124, #203, #125, #281 ) ),
 .UNSPECIFIED., .F., .F., .F. ) 
 B_SPLINE_SURFACE_WITH_KNOTS ( ( 4, 4 ),
 ( 4, 4 ),
 ( 0.0000000000000000000, 1.000000000000000000 ),
 ( 0.0000000000000000000, 1.000000000000000000 ),
 .UNSPECIFIED. ) 
 GEOMETRIC_REPRESENTATION_ITEM ( )  RATIONAL_B_SPLINE_SURFACE ( (
 ( 1.000000000000000000, 0.9936366666338512000, 0.9936366666338512000, 1.000000000000000000),
 ( 0.9743670293551992500, 0.9681668071264280000, 0.9681668071264280000, 0.9743670293551992500),
 ( 0.9743670293551992500, 0.9681668071264280000, 0.9681668071264280000, 0.9743670293551992500),
 ( 1.000000000000000000, 0.9936366666338512000, 0.9936366666338512000, 1.000000000000000000) ) ) 
 REPRESENTATION_ITEM ( '' )  SURFACE ( )  );
#20 = PERSON_AND_ORGANIZATION_ROLE ( 'design_supplier' ) ;
#21 = VERTEX_POINT ( 'NONE', #52 ) ;
#22 = COORDINATED_UNIVERSAL_TIME_OFFSET ( 2, 0, .AHEAD. ) ;
#23 = VERTEX_POINT ( 'NONE', #216 ) ;
#24 = PRODUCT_DEFINITION_SHAPE ( 'NONE', 'NONE',  #221 ) ;
#25 = CC_DESIGN_DATE_AND_TIME_ASSIGNMENT ( #31, #288, ( #221 ) ) ;
#26 = EDGE_CURVE ( 'NONE', #219, #274, #164, .T. ) ;
#27 = ORIENTED_EDGE ( 'NONE', *, *, #285, .F. ) ;
#28 = EDGE_CURVE ( 'NONE', #23, #117, #188, .T. ) ;
#29 = VERTEX_POINT ( 'NONE', #193 ) ;
#30 =( BOUNDED_SURFACE ( )  B_SPLINE_SURFACE ( 3, 3, ( 
 ( #258, #56, #82, #174 ),
 ( #37, #217, #119, #121 ),
 ( #278, #200, #280, #148 ),
 ( #4, #218, #105, #259 ) ),
 .UNSPECIFIED., .F., .F., .T. ) 
 B_SPLINE_SURFACE_WITH_KNOTS ( ( 4, 4 ),
 ( 4, 4 ),
 ( 0.0000000000000000000, 1.000000000000000000 ),
 ( 0.0000000000000000000, 1.000000000000000000 ),
 .UNSPECIFIED. ) 
 GEOMETRIC_REPRESENTATION_ITEM ( )  RATIONAL_B_SPLINE_SURFACE ( (
 ( 1.000000000000000000, 0.9936366666338512000, 0.9936366666338512000, 1.000000000000000000),
 ( 0.9743670293551992500, 0.9681668071264280000, 0.9681668071264280000, 0.9743670293551992500),
 ( 0.9743670293551992500, 0.9681668071264280000, 0.9681668071264280000, 0.9743670293551992500),
 ( 1.000000000000000000, 0.9936366666338512000, 0.9936366666338512000, 1.000000000000000000) ) ) 
 REPRESENTATION_ITEM ( '' )  SURFACE ( )  );
#31 = DATE_AND_TIME ( #170, #78 ) ;
#32 = AXIS2_PLACEMENT_3D ( 'NONE', #222, #2, #84 ) ;
#33 = DIRECTION ( 'NONE',  ( 1.000000000000000000, 0.0000000000000000000, 0.0000000000000000000 ) ) ;
#34 = DIRECTION ( 'NONE',  ( -0.0000000000000000000, -0.0000000000000000000, -1.000000000000000000 ) ) ;
#35 = ORIENTED_EDGE ( 'NONE', *, *, #122, .F. ) ;
#36 = APPROVAL_DATE_TIME ( #40, #182 ) ;
#37 = CARTESIAN_POINT ( 'NONE',  ( -2.975491159652241000E-014, -8.790987167766305200, -1.230787265462606400 ) ) ;
#38 = CARTESIAN_POINT ( 'NONE',  ( -25.88456301228518400, -8.790987167766307000, 7.628567224570669000 ) ) ;
#39 = EDGE_LOOP ( 'NONE', ( #123, #214, #241 ) ) ;
#40 = DATE_AND_TIME ( #67, #261 ) ;
#41 = CARTESIAN_POINT ( 'NONE',  ( -25.88456301228527300, -8.790987167766308700, 2.371432775429351800 ) ) ;
#42 = CARTESIAN_POINT ( 'NONE',  ( -24.56618064281387200, -25.69694415526838700, 2.983536783343853700 ) ) ;
#43 = ORIENTED_EDGE ( 'NONE', *, *, #285, .T. ) ;
#44 = PERSON_AND_ORGANIZATION_ROLE ( 'classification_officer' ) ;
#45 = APPROVAL_ROLE ( '' ) ;
#46 = PERSON_AND_ORGANIZATION ( #79, #211 ) ;
#47 = ADVANCED_FACE ( 'NONE', ( #143 ), #95, .T. ) ;
#48 = DESIGN_CONTEXT ( 'detailed design', #234, 'design' ) ;
#49 = ORIENTED_EDGE ( 'NONE', *, *, #74, .F. ) ;
#50 = PRODUCT_DEFINITION_FORMATION_WITH_SPECIFIED_SOURCE ( 'ANY', '', #102, .NOT_KNOWN. ) ;
#51 = EDGE_CURVE ( 'NONE', #247, #256, #265, .T. ) ;
#52 = CARTESIAN_POINT ( 'NONE',  ( -25.39999999999999900, 7.995584178184967200E-015, 3.513434997774870400 ) ) ;
#53 = CARTESIAN_POINT ( 'NONE',  ( 8.320588196144546700, -25.69694415526838700, 6.402284405149020900 ) ) ;
#54 = CARTESIAN_POINT ( 'NONE',  ( 17.45056884429205400, -8.790987167766308700, 10.02235761109166000 ) ) ;
#55 = DIRECTION ( 'NONE',  ( 1.000000000000000000, 0.0000000000000000000, 0.0000000000000000000 ) ) ;
#56 = CARTESIAN_POINT ( 'NONE',  ( 8.320588196144470300, -25.69694415526838700, 3.597715594850987100 ) ) ;
#57 = AXIS2_PLACEMENT_3D ( 'NONE', #238, #101, #120 ) ;
#58 = DIRECTION ( 'NONE',  ( 1.000000000000000000, -8.881784197001252300E-016, 0.0000000000000000000 ) ) ;
#59 = CARTESIAN_POINT ( 'NONE',  ( 2.823940017624406200E-014, -25.69694415526838700, 6.402284405149020000 ) ) ;
#60 = ORIENTED_EDGE ( 'NONE', *, *, #51, .F. ) ;
#61 = AXIS2_PLACEMENT_3D ( 'NONE', #220, #176, #55 ) ;
#62 = CARTESIAN_POINT ( 'NONE',  ( -16.56175637754727200, 25.69694415526837300, 4.744596118556206200 ) ) ;
#63 = EDGE_CURVE ( 'NONE', #117, #29, #65, .T. ) ;
#64 = CARTESIAN_POINT ( 'NONE',  ( -16.56175637754719800, -25.69694415526838700, 5.255403881443816900 ) ) ;
#65 = CIRCLE ( 'NONE', #32, 25.39999999999999900 ) ;
#66 = CARTESIAN_POINT ( 'NONE',  ( -8.767125528948657400, -8.790987167766305200, 11.23078726546262000 ) ) ;
#67 = CALENDAR_DATE ( 2019, 8, 1 ) ;
#68 =( NAMED_UNIT ( * ) PLANE_ANGLE_UNIT ( ) SI_UNIT ( $, .RADIAN. ) );
#69 = EDGE_LOOP ( 'NONE', ( #213, #251, #156 ) ) ;
#70 =( NAMED_UNIT ( * ) SI_UNIT ( $, .STERADIAN. ) SOLID_ANGLE_UNIT ( ) );
#71 = LOCAL_TIME ( 12, 28, 23.00000000000000000, #215 ) ;
#72 = CARTESIAN_POINT ( 'NONE',  ( 0.0000000000000000000, 0.0000000000000000000, 0.0000000000000000000 ) ) ;
#73 = CIRCLE ( 'NONE', #287, 25.39999999999999900 ) ;
#74 = EDGE_CURVE ( 'NONE', #23, #21, #169, .T. ) ;
#75 = DIRECTION ( 'NONE',  ( 1.000000000000000000, 9.747301929064499900E-032, -3.138677689796210100E-016 ) ) ;
#76 = ORIENTED_EDGE ( 'NONE', *, *, #26, .T. ) ;
#77 = CC_DESIGN_APPROVAL ( #140, ( #137 ) ) ;
#78 = LOCAL_TIME ( 12, 28, 23.00000000000000000, #22 ) ;
#79 = PERSON ( 'UNSPECIFIED', 'UNSPECIFIED', 'UNSPECIFIED', ('UNSPECIFIED'), ('UNSPECIFIED'), ('UNSPECIFIED') ) ;
#80 = CARTESIAN_POINT ( 'NONE',  ( 4.510281037539698400E-014, 25.69694415526837600, 6.402284405149012900 ) ) ;
#81 = CC_DESIGN_PERSON_AND_ORGANIZATION_ASSIGNMENT ( #46, #20, ( #50 ) ) ;
#82 = CARTESIAN_POINT ( 'NONE',  ( 16.56175637754719800, -25.69694415526838700, 4.744596118556188500 ) ) ;
#83 = ORIENTED_EDGE ( 'NONE', *, *, #74, .T. ) ;
#84 = DIRECTION ( 'NONE',  ( 1.000000000000000000, 8.881784197001252300E-016, 0.0000000000000000000 ) ) ;
#85 = DATE_AND_TIME ( #244, #250 ) ;
#86 = CARTESIAN_POINT ( 'NONE',  ( -17.45056884429206400, 8.790987167766291000, -0.02235761109163928900 ) ) ;
#87 = CARTESIAN_POINT ( 'NONE',  ( 9.992007221626412800E-016, 4.884981308350691100E-015, 3.513434997774870400 ) ) ;
#88 = VECTOR ( 'NONE', #207, 1000.000000000000000 ) ;
#89 = CARTESIAN_POINT ( 'NONE',  ( -4.510281037539698400E-014, -25.69694415526838700, 3.597715594850983100 ) ) ;
#90 = AXIS2_PLACEMENT_3D ( 'NONE', #145, #171, #33 ) ;
#91 = SECURITY_CLASSIFICATION_LEVEL ( 'unclassified' ) ;
#92 = APPROVAL_STATUS ( 'not_yet_approved' ) ;
#93 = APPROVAL_ROLE ( '' ) ;
#94 = PERSON_AND_ORGANIZATION ( #79, #211 ) ;
#95 =( BOUNDED_SURFACE ( )  B_SPLINE_SURFACE ( 3, 3, ( 
 ( #141, #168, #53, #255 ),
 ( #275, #54, #198, #257 ),
 ( #9, #197, #6, #7 ),
 ( #173, #237, #260, #80 ) ),
 .UNSPECIFIED., .F., .F., .T. ) 
 B_SPLINE_SURFACE_WITH_KNOTS ( ( 4, 4 ),
 ( 4, 4 ),
 ( 0.0000000000000000000, 1.000000000000000000 ),
 ( 0.0000000000000000000, 1.000000000000000000 ),
 .UNSPECIFIED. ) 
 GEOMETRIC_REPRESENTATION_ITEM ( )  RATIONAL_B_SPLINE_SURFACE ( (
 ( 1.000000000000000000, 0.9936366666338512000, 0.9936366666338512000, 1.000000000000000000),
 ( 0.9743670293551992500, 0.9681668071264280000, 0.9681668071264280000, 0.9743670293551992500),
 ( 0.9743670293551992500, 0.9681668071264280000, 0.9681668071264280000, 0.9743670293551992500),
 ( 1.000000000000000000, 0.9936366666338512000, 0.9936366666338512000, 1.000000000000000000) ) ) 
 REPRESENTATION_ITEM ( '' )  SURFACE ( )  );
#96 = CC_DESIGN_SECURITY_CLASSIFICATION ( #137, ( #50 ) ) ;
#97 = FACE_OUTER_BOUND ( 'NONE', #39, .T. ) ;
#98 =( BOUNDED_SURFACE ( )  B_SPLINE_SURFACE ( 3, 3, ( 
 ( #151, #283, #154, #89 ),
 ( #41, #224, #227, #245 ),
 ( #17, #86, #226, #153 ),
 ( #11, #62, #16, #268 ) ),
 .UNSPECIFIED., .F., .F., .F. ) 
 B_SPLINE_SURFACE_WITH_KNOTS ( ( 4, 4 ),
 ( 4, 4 ),
 ( 0.0000000000000000000, 1.000000000000000000 ),
 ( 0.0000000000000000000, 1.000000000000000000 ),
 .UNSPECIFIED. ) 
 GEOMETRIC_REPRESENTATION_ITEM ( )  RATIONAL_B_SPLINE_SURFACE ( (
 ( 1.000000000000000000, 0.9936366666338512000, 0.9936366666338512000, 1.000000000000000000),
 ( 0.9743670293551992500, 0.9681668071264280000, 0.9681668071264280000, 0.9743670293551992500),
 ( 0.9743670293551992500, 0.9681668071264280000, 0.9681668071264280000, 0.9743670293551992500),
 ( 1.000000000000000000, 0.9936366666338512000, 0.9936366666338512000, 1.000000000000000000) ) ) 
 REPRESENTATION_ITEM ( '' )  SURFACE ( )  );
#99 = CARTESIAN_POINT ( 'NONE',  ( 9.992007221626412800E-016, 4.884981308350691100E-015, 6.486565002225130000 ) ) ;
#100 = PERSON_AND_ORGANIZATION ( #79, #211 ) ;
#101 = DIRECTION ( 'NONE',  ( -0.0000000000000000000, -0.0000000000000000000, -1.000000000000000000 ) ) ;
#102 = PRODUCT ( '111-1514E UVFS bi-cx 50.8 F100', '111-1514E UVFS bi-cx 50.8 F100', '', ( #232 ) ) ;
#103 = CARTESIAN_POINT ( 'NONE',  ( 9.992007221626412800E-016, 4.884981308350691100E-015, 6.486565002225130000 ) ) ;
#104 = FACE_OUTER_BOUND ( 'NONE', #210, .T. ) ;
#105 = CARTESIAN_POINT ( 'NONE',  ( 16.56175637754720100, 25.69694415526837600, 4.744596118556202700 ) ) ;
#106 = CARTESIAN_POINT ( 'NONE',  ( 9.992007221626412800E-016, 4.884981308350691100E-015, 6.486565002225130000 ) ) ;
#107 = CC_DESIGN_APPROVAL ( #1, ( #221 ) ) ;
#108 = CARTESIAN_POINT ( 'NONE',  ( -17.45056884429197600, 8.790987167766292700, 10.02235761109165100 ) ) ;
#109 = CIRCLE ( 'NONE', #61, 25.39999999999999900 ) ;
#110 = DIRECTION ( 'NONE',  ( 1.000000000000000000, 0.0000000000000000000, 0.0000000000000000000 ) ) ;
#111 = APPROVAL_PERSON_ORGANIZATION ( #189, #182, #114 ) ;
#112 = FACE_OUTER_BOUND ( 'NONE', #229, .T. ) ;
#113 = ORIENTED_EDGE ( 'NONE', *, *, #172, .F. ) ;
#114 = APPROVAL_ROLE ( '' ) ;
#115 = DIRECTION ( 'NONE',  ( 0.0000000000000000000, 0.0000000000000000000, 1.000000000000000000 ) ) ;
#116 = COORDINATED_UNIVERSAL_TIME_OFFSET ( 2, 0, .AHEAD. ) ;
#117 = VERTEX_POINT ( 'NONE', #240 ) ;
#118 = DATE_AND_TIME ( #144, #71 ) ;
#119 = CARTESIAN_POINT ( 'NONE',  ( 17.45056884429197900, -8.790987167766307000, -0.02235761109165576900 ) ) ;
#120 = DIRECTION ( 'NONE',  ( 1.000000000000000000, 0.0000000000000000000, 0.0000000000000000000 ) ) ;
#121 = CARTESIAN_POINT ( 'NONE',  ( 25.88456301228518800, -8.790987167766307000, 2.371432775429340300 ) ) ;
#122 = EDGE_CURVE ( 'NONE', #274, #247, #235, .T. ) ;
#123 = ORIENTED_EDGE ( 'NONE', *, *, #152, .F. ) ;
#124 = CARTESIAN_POINT ( 'NONE',  ( 2.823940017624406800E-014, 25.69694415526837600, 6.402284405149005800 ) ) ;
#125 = CARTESIAN_POINT ( 'NONE',  ( -16.56175637754719400, 25.69694415526837600, 5.255403881443804400 ) ) ;
#126 = DIRECTION ( 'NONE',  ( 1.000000000000000000, 0.0000000000000000000, 0.0000000000000000000 ) ) ;
#127 = LINE ( 'NONE', #246, #88 ) ;
#128 = ORIENTED_EDGE ( 'NONE', *, *, #63, .F. ) ;
#129 = DIRECTION ( 'NONE',  ( 0.0000000000000000000, 0.0000000000000000000, 1.000000000000000000 ) ) ;
#130 = CC_DESIGN_PERSON_AND_ORGANIZATION_ASSIGNMENT ( #196, #44, ( #137 ) ) ;
#131 = CALENDAR_DATE ( 2019, 8, 1 ) ;
#132 = CARTESIAN_POINT ( 'NONE',  ( -25.39999999999999900, 7.995584178184967200E-015, 6.486565002225130000 ) ) ;
#133 = ORIENTED_EDGE ( 'NONE', *, *, #172, .T. ) ;
#134 = DATE_TIME_ROLE ( 'classification_date' ) ;
#135 = SHAPE_DEFINITION_REPRESENTATION ( #24, #163 ) ;
#136 = APPLICATION_PROTOCOL_DEFINITION ( 'international standard', 'config_control_design', 1994, #161 ) ;
#137 = SECURITY_CLASSIFICATION ( '', '', #91 ) ;
#138 =( LENGTH_UNIT ( ) NAMED_UNIT ( * ) SI_UNIT ( .MILLI., .METRE. ) );
#139 = CIRCLE ( 'NONE', #205, 93.57000000000000700 ) ;
#140 = APPROVAL ( #231, 'UNSPECIFIED' ) ;
#141 = CARTESIAN_POINT ( 'NONE',  ( 24.56618064281395400, -25.69694415526839000, 2.983536783343843100 ) ) ;
#142 = CARTESIAN_POINT ( 'NONE',  ( 0.0000000000000000000, -7.105427357601000300E-015, 93.57000000000000700 ) ) ;
#143 = FACE_OUTER_BOUND ( 'NONE', #166, .T. ) ;
#144 = CALENDAR_DATE ( 2019, 8, 1 ) ;
#145 = CARTESIAN_POINT ( 'NONE',  ( 9.992007221626412800E-016, 4.884981308350691100E-015, 3.513434997774870400 ) ) ;
#146 = MANIFOLD_SOLID_BREP ( 'Imported1', #8 ) ;
#147 = DIRECTION ( 'NONE',  ( 1.000000000000000000, 0.0000000000000000000, 0.0000000000000000000 ) ) ;
#148 = CARTESIAN_POINT ( 'NONE',  ( 25.88456301228518400, 8.790987167766296300, 2.371432775429352300 ) ) ;
#149 = CARTESIAN_POINT ( 'NONE',  ( 2.975491159652241000E-014, -8.790987167766305200, 11.23078726546261700 ) ) ;
#150 = APPROVAL_DATE_TIME ( #85, #1 ) ;
#151 = CARTESIAN_POINT ( 'NONE',  ( -24.56618064281395400, -25.69694415526839000, 7.016463216656165800 ) ) ;
#152 = EDGE_CURVE ( 'NONE', #256, #219, #109, .T. ) ;
#153 = CARTESIAN_POINT ( 'NONE',  ( -4.857225732735059900E-014, 8.790987167766294500, -1.230787265462601300 ) ) ;
#154 = CARTESIAN_POINT ( 'NONE',  ( -8.320588196144546700, -25.69694415526838700, 3.597715594850988000 ) ) ;
#155 = VECTOR ( 'NONE', #129, 1000.000000000000000 ) ;
#156 = ORIENTED_EDGE ( 'NONE', *, *, #63, .T. ) ;
#157 = PERSON_AND_ORGANIZATION_ROLE ( 'design_owner' ) ;
#158 = CC_DESIGN_APPROVAL ( #182, ( #50 ) ) ;
#159 = APPLICATION_PROTOCOL_DEFINITION ( 'international standard', 'config_control_design', 1994, #234 ) ;
#160 = EDGE_CURVE ( 'NONE', #29, #23, #291, .T. ) ;
#161 = APPLICATION_CONTEXT ( 'configuration controlled 3d designs of mechanical parts and assemblies' ) ;
#162 = PERSON_AND_ORGANIZATION_ROLE ( 'creator' ) ;
#163 = ADVANCED_BREP_SHAPE_REPRESENTATION ( '111-1514E UVFS bi-cx 50.8 F100', ( #146, #282 ), #199 ) ;
#164 = CIRCLE ( 'NONE', #263, 25.39999999999999900 ) ;
#165 = ADVANCED_FACE ( 'NONE', ( #284 ), #30, .T. ) ;
#166 = EDGE_LOOP ( 'NONE', ( #201, #60, #35 ) ) ;
#167 = ORIENTED_EDGE ( 'NONE', *, *, #152, .T. ) ;
#168 = CARTESIAN_POINT ( 'NONE',  ( 16.56175637754726900, -25.69694415526839000, 5.255403881443815100 ) ) ;
#169 = CIRCLE ( 'NONE', #57, 25.39999999999999900 ) ;
#170 = CALENDAR_DATE ( 2019, 8, 1 ) ;
#171 = DIRECTION ( 'NONE',  ( -0.0000000000000000000, -0.0000000000000000000, -1.000000000000000000 ) ) ;
#172 = EDGE_CURVE ( 'NONE', #21, #219, #236, .T. ) ;
#173 = CARTESIAN_POINT ( 'NONE',  ( 24.56618064281395800, 25.69694415526837300, 2.983536783343829300 ) ) ;
#174 = CARTESIAN_POINT ( 'NONE',  ( 24.56618064281387200, -25.69694415526838700, 7.016463216656154200 ) ) ;
#175 = PRODUCT_RELATED_PRODUCT_CATEGORY ( 'detail', '', ( #102 ) ) ;
#176 = DIRECTION ( 'NONE',  ( -0.0000000000000000000, -0.0000000000000000000, -1.000000000000000000 ) ) ;
#177 = DIRECTION ( 'NONE',  ( -0.0000000000000000000, -0.0000000000000000000, -1.000000000000000000 ) ) ;
#178 = EDGE_CURVE ( 'NONE', #256, #274, #139, .T. ) ;
#179 = CARTESIAN_POINT ( 'NONE',  ( 2.826585313921662400E-014, 25.40000000000000600, 6.486565002225126400 ) ) ;
#180 = DIRECTION ( 'NONE',  ( -1.000000000000000000, 9.747301929064490100E-032, 3.138677689796210100E-016 ) ) ;
#181 = CARTESIAN_POINT ( 'NONE',  ( -8.320588196144470300, -25.69694415526838700, 6.402284405149020900 ) ) ;
#182 = APPROVAL ( #272, 'UNSPECIFIED' ) ;
#183 = DIRECTION ( 'NONE',  ( 1.313717310304516000E-046, -1.000000000000000000, 2.966290009151321300E-016 ) ) ;
#184 = DIRECTION ( 'NONE',  ( 1.000000000000000000, 0.0000000000000000000, 0.0000000000000000000 ) ) ;
#185 = ADVANCED_FACE ( 'NONE', ( #104 ), #98, .T. ) ;
#186 = CARTESIAN_POINT ( 'NONE',  ( 9.992007221626412800E-016, 4.884981308350691100E-015, 3.513434997774870400 ) ) ;
#187 = ADVANCED_FACE ( 'NONE', ( #97 ), #19, .T. ) ;
#188 = CIRCLE ( 'NONE', #192, 93.57000000000000700 ) ;
#189 = PERSON_AND_ORGANIZATION ( #79, #211 ) ;
#190 = CC_DESIGN_PERSON_AND_ORGANIZATION_ASSIGNMENT ( #94, #273, ( #221 ) ) ;
#191 = ORIENTED_EDGE ( 'NONE', *, *, #51, .T. ) ;
#192 = AXIS2_PLACEMENT_3D ( 'NONE', #142, #75, #252 ) ;
#193 = CARTESIAN_POINT ( 'NONE',  ( 25.39999999999999900, 4.884981308350691100E-015, 3.513434997774870400 ) ) ;
#194 = CYLINDRICAL_SURFACE ( 'NONE', #5, 25.39999999999999900 ) ;
#195 = ORIENTED_EDGE ( 'NONE', *, *, #122, .T. ) ;
#196 = PERSON_AND_ORGANIZATION ( #79, #211 ) ;
#197 = CARTESIAN_POINT ( 'NONE',  ( 17.45056884429206400, 8.790987167766291000, 10.02235761109164800 ) ) ;
#198 = CARTESIAN_POINT ( 'NONE',  ( 8.767125528948733800, -8.790987167766308700, 11.23078726546261800 ) ) ;
#199 =( GEOMETRIC_REPRESENTATION_CONTEXT ( 3 ) GLOBAL_UNCERTAINTY_ASSIGNED_CONTEXT ( ( #253 ) ) GLOBAL_UNIT_ASSIGNED_CONTEXT ( ( #138, #68, #70 ) ) REPRESENTATION_CONTEXT ( 'NONE', 'WORKASPACE' ) );
#200 = CARTESIAN_POINT ( 'NONE',  ( 8.767125528948657400, 8.790987167766296300, -1.230787265462595500 ) ) ;
#201 = ORIENTED_EDGE ( 'NONE', *, *, #178, .F. ) ;
#202 = APPROVAL_DATE_TIME ( #118, #140 ) ;
#203 = CARTESIAN_POINT ( 'NONE',  ( -8.320588196144472100, 25.69694415526837600, 6.402284405149006700 ) ) ;
#204 = CARTESIAN_POINT ( 'NONE',  ( 25.39999999999999900, 4.884981308350691100E-015, 6.486565002225130000 ) ) ;
#205 = AXIS2_PLACEMENT_3D ( 'NONE', #264, #180, #183 ) ;
#206 = CARTESIAN_POINT ( 'NONE',  ( 2.975491159652241000E-014, 8.790987167766298100, 11.23078726546260200 ) ) ;
#207 = DIRECTION ( 'NONE',  ( 0.0000000000000000000, 0.0000000000000000000, 1.000000000000000000 ) ) ;
#208 = CC_DESIGN_PERSON_AND_ORGANIZATION_ASSIGNMENT ( #254, #162, ( #50 ) ) ;
#209 = PERSON_AND_ORGANIZATION ( #79, #211 ) ;
#210 = EDGE_LOOP ( 'NONE', ( #270, #83, #43 ) ) ;
#211 = ORGANIZATION ( 'UNSPECIFIED', 'UNSPECIFIED', '' ) ;
#212 = DIRECTION ( 'NONE',  ( -0.0000000000000000000, -0.0000000000000000000, -1.000000000000000000 ) ) ;
#213 = ORIENTED_EDGE ( 'NONE', *, *, #160, .T. ) ;
#214 = ORIENTED_EDGE ( 'NONE', *, *, #178, .T. ) ;
#215 = COORDINATED_UNIVERSAL_TIME_OFFSET ( 2, 0, .AHEAD. ) ;
#216 = CARTESIAN_POINT ( 'NONE',  ( -2.826585313921661200E-014, -25.40000000000000600, 3.513434997774864700 ) ) ;
#217 = CARTESIAN_POINT ( 'NONE',  ( 8.767125528948657400, -8.790987167766305200, -1.230787265462609100 ) ) ;
#218 = CARTESIAN_POINT ( 'NONE',  ( 8.320588196144472100, 25.69694415526837600, 3.597715594851000000 ) ) ;
#219 = VERTEX_POINT ( 'NONE', #132 ) ;
#220 = CARTESIAN_POINT ( 'NONE',  ( 9.992007221626412800E-016, 4.884981308350691100E-015, 6.486565002225130000 ) ) ;
#221 = PRODUCT_DEFINITION ( 'UNKNOWN', '', #50, #48 ) ;
#222 = CARTESIAN_POINT ( 'NONE',  ( 9.992007221626412800E-016, 4.884981308350691100E-015, 3.513434997774870400 ) ) ;
#223 = CARTESIAN_POINT ( 'NONE',  ( 9.992007221626412800E-016, 4.884981308350691100E-015, 3.513434997774870400 ) ) ;
#224 = CARTESIAN_POINT ( 'NONE',  ( -17.45056884429205400, -8.790987167766308700, -0.02235761109165187000 ) ) ;
#225 = CARTESIAN_POINT ( 'NONE',  ( -25.39999999999999900, 7.995584178184967200E-015, 3.513434997774870400 ) ) ;
#226 = CARTESIAN_POINT ( 'NONE',  ( -8.767125528948740900, 8.790987167766291000, -1.230787265462596900 ) ) ;
#227 = CARTESIAN_POINT ( 'NONE',  ( -8.767125528948733800, -8.790987167766308700, -1.230787265462608600 ) ) ;
#228 = ADVANCED_FACE ( 'NONE', ( #112 ), #194, .T. ) ;
#229 = EDGE_LOOP ( 'NONE', ( #113, #49, #233, #292, #191, #167 ) ) ;
#230 = DIRECTION ( 'NONE',  ( -0.0000000000000000000, -0.0000000000000000000, -1.000000000000000000 ) ) ;
#231 = APPROVAL_STATUS ( 'not_yet_approved' ) ;
#232 = MECHANICAL_CONTEXT ( 'NONE', #161, 'mechanical' ) ;
#233 = ORIENTED_EDGE ( 'NONE', *, *, #160, .F. ) ;
#234 = APPLICATION_CONTEXT ( 'configuration controlled 3d designs of mechanical parts and assemblies' ) ;
#235 = CIRCLE ( 'NONE', #249, 25.39999999999999900 ) ;
#236 = LINE ( 'NONE', #225, #155 ) ;
#237 = CARTESIAN_POINT ( 'NONE',  ( 16.56175637754727200, 25.69694415526837300, 5.255403881443800000 ) ) ;
#238 = CARTESIAN_POINT ( 'NONE',  ( 9.992007221626412800E-016, 4.884981308350691100E-015, 3.513434997774870400 ) ) ;
#239 = AXIS2_PLACEMENT_3D ( 'NONE', #87, #266, #126 ) ;
#240 = CARTESIAN_POINT ( 'NONE',  ( -2.826585313921662400E-014, 25.40000000000000600, 3.513434997774878400 ) ) ;
#241 = ORIENTED_EDGE ( 'NONE', *, *, #26, .F. ) ;
#242 = CARTESIAN_POINT ( 'NONE',  ( -8.767125528948657400, 8.790987167766296300, 11.23078726546260400 ) ) ;
#243 = DIRECTION ( 'NONE',  ( 0.0000000000000000000, 0.0000000000000000000, 1.000000000000000000 ) ) ;
#244 = CALENDAR_DATE ( 2019, 8, 1 ) ;
#245 = CARTESIAN_POINT ( 'NONE',  ( -4.163336342344337000E-014, -8.790987167766308700, -1.230787265462612600 ) ) ;
#246 = CARTESIAN_POINT ( 'NONE',  ( 25.39999999999999900, 4.884981308350691100E-015, 3.513434997774870400 ) ) ;
#247 = VERTEX_POINT ( 'NONE', #204 ) ;
#248 = APPROVAL_PERSON_ORGANIZATION ( #209, #140, #93 ) ;
#249 = AXIS2_PLACEMENT_3D ( 'NONE', #103, #34, #58 ) ;
#250 = LOCAL_TIME ( 12, 28, 23.00000000000000000, #116 ) ;
#251 = ORIENTED_EDGE ( 'NONE', *, *, #28, .T. ) ;
#252 = DIRECTION ( 'NONE',  ( -3.284293275761290000E-047, -1.000000000000000000, -2.966290009151321300E-016 ) ) ;
#253 = UNCERTAINTY_MEASURE_WITH_UNIT (LENGTH_MEASURE( 1.000000000000000100E-005 ), #138, 'distance_accuracy_value', 'NONE');
#254 = PERSON_AND_ORGANIZATION ( #79, #211 ) ;
#255 = CARTESIAN_POINT ( 'NONE',  ( 4.510281037539698400E-014, -25.69694415526838700, 6.402284405149026200 ) ) ;
#256 = VERTEX_POINT ( 'NONE', #12 ) ;
#257 = CARTESIAN_POINT ( 'NONE',  ( 4.163336342344337000E-014, -8.790987167766308700, 11.23078726546262200 ) ) ;
#258 = CARTESIAN_POINT ( 'NONE',  ( -2.823940017624406200E-014, -25.69694415526838700, 3.597715594850989400 ) ) ;
#259 = CARTESIAN_POINT ( 'NONE',  ( 24.56618064281387600, 25.69694415526837600, 7.016463216656168500 ) ) ;
#260 = CARTESIAN_POINT ( 'NONE',  ( 8.320588196144546700, 25.69694415526837600, 6.402284405149006700 ) ) ;
#261 = LOCAL_TIME ( 12, 28, 23.00000000000000000, #289 ) ;
#262 = CARTESIAN_POINT ( 'NONE',  ( -25.88456301228518400, 8.790987167766296300, 7.628567224570656600 ) ) ;
#263 = AXIS2_PLACEMENT_3D ( 'NONE', #99, #212, #294 ) ;
#264 = CARTESIAN_POINT ( 'NONE',  ( 0.0000000000000000000, -7.105427357601000300E-015, -83.56999999999999300 ) ) ;
#265 = CIRCLE ( 'NONE', #276, 25.39999999999999900 ) ;
#266 = DIRECTION ( 'NONE',  ( 0.0000000000000000000, 0.0000000000000000000, 1.000000000000000000 ) ) ;
#267 = DATE_AND_TIME ( #131, #10 ) ;
#268 = CARTESIAN_POINT ( 'NONE',  ( -4.510281037539698400E-014, 25.69694415526837600, 3.597715594850995100 ) ) ;
#269 = DIRECTION ( 'NONE',  ( 1.000000000000000000, 0.0000000000000000000, 0.0000000000000000000 ) ) ;
#270 = ORIENTED_EDGE ( 'NONE', *, *, #28, .F. ) ;
#271 = PERSON_AND_ORGANIZATION ( #79, #211 ) ;
#272 = APPROVAL_STATUS ( 'not_yet_approved' ) ;
#273 = PERSON_AND_ORGANIZATION_ROLE ( 'creator' ) ;
#274 = VERTEX_POINT ( 'NONE', #179 ) ;
#275 = CARTESIAN_POINT ( 'NONE',  ( 25.88456301228527300, -8.790987167766308700, 7.628567224570656600 ) ) ;
#276 = AXIS2_PLACEMENT_3D ( 'NONE', #106, #177, #147 ) ;
#277 = COORDINATED_UNIVERSAL_TIME_OFFSET ( 2, 0, .AHEAD. ) ;
#278 = CARTESIAN_POINT ( 'NONE',  ( -2.975491159652241000E-014, 8.790987167766298100, -1.230787265462592700 ) ) ;
#279 = CYLINDRICAL_SURFACE ( 'NONE', #239, 25.39999999999999900 ) ;
#280 = CARTESIAN_POINT ( 'NONE',  ( 17.45056884429197600, 8.790987167766292700, -0.02235761109164232500 ) ) ;
#281 = CARTESIAN_POINT ( 'NONE',  ( -24.56618064281387200, 25.69694415526837600, 2.983536783343840900 ) ) ;
#282 = AXIS2_PLACEMENT_3D ( 'NONE', #72, #115, #184 ) ;
#283 = CARTESIAN_POINT ( 'NONE',  ( -16.56175637754726900, -25.69694415526839000, 4.744596118556191100 ) ) ;
#284 = FACE_OUTER_BOUND ( 'NONE', #69, .T. ) ;
#285 = EDGE_CURVE ( 'NONE', #21, #117, #73, .T. ) ;
#286 = ADVANCED_FACE ( 'NONE', ( #14 ), #279, .T. ) ;
#287 = AXIS2_PLACEMENT_3D ( 'NONE', #186, #230, #269 ) ;
#288 = DATE_TIME_ROLE ( 'creation_date' ) ;
#289 = COORDINATED_UNIVERSAL_TIME_OFFSET ( 2, 0, .AHEAD. ) ;
#290 = EDGE_CURVE ( 'NONE', #29, #247, #127, .T. ) ;
#291 = CIRCLE ( 'NONE', #90, 25.39999999999999900 ) ;
#292 = ORIENTED_EDGE ( 'NONE', *, *, #290, .T. ) ;
#293 = CC_DESIGN_PERSON_AND_ORGANIZATION_ASSIGNMENT ( #271, #157, ( #102 ) ) ;
#294 = DIRECTION ( 'NONE',  ( 1.000000000000000000, 0.0000000000000000000, 0.0000000000000000000 ) ) ;
#295 = EDGE_LOOP ( 'NONE', ( #27, #133, #76, #195, #3, #128 ) ) ;
ENDSEC;
END-ISO-10303-21;
