ISO-10303-21;
HEADER;
FILE_DESCRIPTION (( 'STEP AP203' ),
    '1' );
FILE_NAME ('111-1508E UVFS bi-cx 50.8 F75.STEP',
    '2019-01-08T10:06:01',
    ( '' ),
    ( '' ),
    'SwSTEP 2.0',
    'SolidWorks 2017',
    '' );
FILE_SCHEMA (( 'CONFIG_CONTROL_DESIGN' ));
ENDSEC;

DATA;
#1 = VERTEX_POINT ( 'NONE', #237 ) ;
#2 = AXIS2_PLACEMENT_3D ( 'NONE', #175, #36, #196 ) ;
#3 = DATE_AND_TIME ( #26, #57 ) ;
#4 = VERTEX_POINT ( 'NONE', #169 ) ;
#5 = CARTESIAN_POINT ( 'NONE',  ( -23.74076009752858600, -25.69022685738379500, 1.569426975393894500 ) ) ;
#6 = ADVANCED_FACE ( 'NONE', ( #19 ), #228, .T. ) ;
#7 = DATE_AND_TIME ( #92, #81 ) ;
#8 = DIRECTION ( 'NONE',  ( 0.0000000000000000000, -1.000000000000000000, -3.988443111888046100E-016 ) ) ;
#9 = ORGANIZATION ( 'UNSPECIFIED', 'UNSPECIFIED', '' ) ;
#10 = CARTESIAN_POINT ( 'NONE',  ( 8.151106878516433300, -25.69022685738379900, 6.084418002917934700 ) ) ;
#11 = EDGE_CURVE ( 'NONE', #156, #4, #83, .T. ) ;
#12 = APPROVAL_PERSON_ORGANIZATION ( #267, #64, #272 ) ;
#13 = ADVANCED_FACE ( 'NONE', ( #90 ), #213, .T. ) ;
#14 = CARTESIAN_POINT ( 'NONE',  ( 16.15869080075324500, -25.69022685738379900, 4.561544707685538200 ) ) ;
#15 = APPLICATION_PROTOCOL_DEFINITION ( 'international standard', 'config_control_design', 1994, #251 ) ;
#16 =( GEOMETRIC_REPRESENTATION_CONTEXT ( 3 ) GLOBAL_UNCERTAINTY_ASSIGNED_CONTEXT ( ( #31 ) ) GLOBAL_UNIT_ASSIGNED_CONTEXT ( ( #141, #47, #294 ) ) REPRESENTATION_CONTEXT ( 'NONE', 'WORKASPACE' ) );
#17 = CARTESIAN_POINT ( 'NONE',  ( -7.105427357601000300E-015, -1.421085471520200100E-014, -58.59000000000000300 ) ) ;
#18 = CIRCLE ( 'NONE', #211, 25.39999999999999900 ) ;
#19 = FACE_OUTER_BOUND ( 'NONE', #58, .T. ) ;
#20 = DIRECTION ( 'NONE',  ( 1.000000000000000000, 0.0000000000000000000, 0.0000000000000000000 ) ) ;
#21 = CARTESIAN_POINT ( 'NONE',  ( -16.15869080075324500, 25.69022685738378400, 6.438455292314472400 ) ) ;
#22 = CARTESIAN_POINT ( 'NONE',  ( -8.987345767162384600, 8.986595693929224600, -1.719500113928995200 ) ) ;
#23 = ORIENTED_EDGE ( 'NONE', *, *, #221, .T. ) ;
#24 = EDGE_CURVE ( 'NONE', #260, #45, #151, .T. ) ;
#25 = CC_DESIGN_APPROVAL ( #64, ( #229 ) ) ;
#26 = CALENDAR_DATE ( 2019, 8, 1 ) ;
#27 = VERTEX_POINT ( 'NONE', #130 ) ;
#28 = EDGE_CURVE ( 'NONE', #27, #4, #209, .T. ) ;
#29 = APPROVAL_DATE_TIME ( #201, #64 ) ;
#30 = CARTESIAN_POINT ( 'NONE',  ( 23.74076009752858200, -25.69022685738380200, 9.430573024606099300 ) ) ;
#31 = UNCERTAINTY_MEASURE_WITH_UNIT (LENGTH_MEASURE( 1.000000000000000100E-005 ), #141, 'distance_accuracy_value', 'NONE');
#32 = PRODUCT_DEFINITION_FORMATION_WITH_SPECIFIED_SOURCE ( 'ANY', '', #217, .NOT_KNOWN. ) ;
#33 = CARTESIAN_POINT ( 'NONE',  ( 7.105427357601000300E-015, -1.421085471520200100E-014, 69.59000000000000300 ) ) ;
#34 = COORDINATED_UNIVERSAL_TIME_OFFSET ( 2, 0, .AHEAD. ) ;
#35 = CARTESIAN_POINT ( 'NONE',  ( -8.151106878516420900, -25.69022685738379900, 6.084418002917939100 ) ) ;
#36 = DIRECTION ( 'NONE',  ( 0.0000000000000000000, 0.0000000000000000000, 1.000000000000000000 ) ) ;
#37 = CARTESIAN_POINT ( 'NONE',  ( 9.992007221626412800E-016, 4.884981308350691100E-015, 4.801049553183840000 ) ) ;
#38 = ORIENTED_EDGE ( 'NONE', *, *, #205, .T. ) ;
#39 = CARTESIAN_POINT ( 'NONE',  ( 17.81644426155129700, -8.986595693929235300, 11.04039210224230400 ) ) ;
#40 = ORIENTED_EDGE ( 'NONE', *, *, #96, .T. ) ;
#41 = EDGE_CURVE ( 'NONE', #45, #27, #168, .T. ) ;
#42 = DIRECTION ( 'NONE',  ( -0.0000000000000000000, -0.0000000000000000000, -1.000000000000000000 ) ) ;
#43 = PERSON_AND_ORGANIZATION ( #285, #9 ) ;
#44 = CARTESIAN_POINT ( 'NONE',  ( -23.74076009752859700, 25.69022685738378100, 9.430573024606127700 ) ) ;
#45 = VERTEX_POINT ( 'NONE', #159 ) ;
#46 = CC_DESIGN_DATE_AND_TIME_ASSIGNMENT ( #7, #249, ( #229 ) ) ;
#47 =( NAMED_UNIT ( * ) PLANE_ANGLE_UNIT ( ) SI_UNIT ( $, .RADIAN. ) );
#48 = APPROVAL_STATUS ( 'not_yet_approved' ) ;
#49 = CARTESIAN_POINT ( 'NONE',  ( -8.987345767162375800, -8.986595693929235300, -1.719500113928992300 ) ) ;
#50 = VECTOR ( 'NONE', #97, 1000.000000000000000 ) ;
#51 = CARTESIAN_POINT ( 'NONE',  ( -17.81644426155129700, -8.986595693929235300, -0.04039210224229384400 ) ) ;
#52 = ORIENTED_EDGE ( 'NONE', *, *, #96, .F. ) ;
#53 = PRODUCT_RELATED_PRODUCT_CATEGORY ( 'detail', '', ( #217 ) ) ;
#54 = COORDINATED_UNIVERSAL_TIME_OFFSET ( 2, 0, .AHEAD. ) ;
#55 = CALENDAR_DATE ( 2019, 8, 1 ) ;
#56 = ORIENTED_EDGE ( 'NONE', *, *, #101, .F. ) ;
#57 = LOCAL_TIME ( 12, 6, 1.000000000000000000, #34 ) ;
#58 = EDGE_LOOP ( 'NONE', ( #40, #167, #136 ) ) ;
#59 = CARTESIAN_POINT ( 'NONE',  ( 26.17637370626350400, -8.986595693929238800, 3.258693167641579300 ) ) ;
#60 = AXIS2_PLACEMENT_3D ( 'NONE', #95, #243, #116 ) ;
#61 = CARTESIAN_POINT ( 'NONE',  ( -17.81644426155129000, -8.986595693929235300, 11.04039210224231100 ) ) ;
#62 = FACE_OUTER_BOUND ( 'NONE', #99, .T. ) ;
#63 = CLOSED_SHELL ( 'NONE', ( #6, #13, #171, #241, #286, #115 ) ) ;
#64 = APPROVAL ( #122, 'UNSPECIFIED' ) ;
#65 = CARTESIAN_POINT ( 'NONE',  ( 7.105427357601000300E-015, -25.69022685738379900, 4.915581997082058200 ) ) ;
#66 = CARTESIAN_POINT ( 'NONE',  ( 8.151106878516419100, -25.69022685738380200, 4.915581997082057300 ) ) ;
#67 = FACE_OUTER_BOUND ( 'NONE', #147, .T. ) ;
#68 = APPROVAL ( #48, 'UNSPECIFIED' ) ;
#69 = CARTESIAN_POINT ( 'NONE',  ( 1.734723475976807100E-014, 25.69022685738378800, 6.084418002917937300 ) ) ;
#70 = SHAPE_DEFINITION_REPRESENTATION ( #131, #186 ) ;
#71 = CC_DESIGN_PERSON_AND_ORGANIZATION_ASSIGNMENT ( #102, #246, ( #145 ) ) ;
#72 = CARTESIAN_POINT ( 'NONE',  ( 16.15869080075324500, 25.69022685738379200, 4.561544707685538200 ) ) ;
#73 = CARTESIAN_POINT ( 'NONE',  ( -8.151106878516429800, -25.69022685738380200, 4.915581997082078700 ) ) ;
#74 = APPROVAL_DATE_TIME ( #3, #252 ) ;
#75 = APPROVAL_STATUS ( 'not_yet_approved' ) ;
#76 = ORIENTED_EDGE ( 'NONE', *, *, #24, .F. ) ;
#77 = DATE_TIME_ROLE ( 'creation_date' ) ;
#78 = CARTESIAN_POINT ( 'NONE',  ( -2.081668171172168800E-014, 8.986595693929224600, -1.719500113928998700 ) ) ;
#79 = ORIENTED_EDGE ( 'NONE', *, *, #137, .T. ) ;
#80 = AXIS2_PLACEMENT_3D ( 'NONE', #244, #112, #215 ) ;
#81 = LOCAL_TIME ( 12, 6, 1.000000000000000000, #288 ) ;
#82 = CIRCLE ( 'NONE', #192, 25.39999999999999900 ) ;
#83 = CIRCLE ( 'NONE', #261, 25.39999999999999900 ) ;
#84 = CARTESIAN_POINT ( 'NONE',  ( -7.105427357601000300E-015, -25.69022685738379500, 6.084418002917938200 ) ) ;
#85 = ORIENTED_EDGE ( 'NONE', *, *, #28, .F. ) ;
#86 = CARTESIAN_POINT ( 'NONE',  ( -7.105427357601001900E-015, 8.986595693929226400, 12.71950011392901400 ) ) ;
#87 = CARTESIAN_POINT ( 'NONE',  ( 17.81644426155128600, 8.986595693929222900, -0.04039210224230727800 ) ) ;
#88 = CARTESIAN_POINT ( 'NONE',  ( 16.15869080075323800, 25.69022685738378100, 6.438455292314463600 ) ) ;
#89 = PERSON_AND_ORGANIZATION ( #285, #9 ) ;
#90 = FACE_OUTER_BOUND ( 'NONE', #274, .T. ) ;
#91 = CARTESIAN_POINT ( 'NONE',  ( 7.105427357601001900E-015, -8.986595693929237100, -1.719500113929012500 ) ) ;
#92 = CALENDAR_DATE ( 2019, 8, 1 ) ;
#93 = CARTESIAN_POINT ( 'NONE',  ( 26.17637370626352200, 8.986595693929226400, 7.741306832358409600 ) ) ;
#94 = ORIENTED_EDGE ( 'NONE', *, *, #101, .T. ) ;
#95 = CARTESIAN_POINT ( 'NONE',  ( 9.992007221626412800E-016, 4.884981308350691100E-015, 6.198950446816160000 ) ) ;
#96 = EDGE_CURVE ( 'NONE', #27, #260, #183, .T. ) ;
#97 = DIRECTION ( 'NONE',  ( 0.0000000000000000000, 0.0000000000000000000, 1.000000000000000000 ) ) ;
#98 = APPLICATION_PROTOCOL_DEFINITION ( 'international standard', 'config_control_design', 1994, #182 ) ;
#99 = EDGE_LOOP ( 'NONE', ( #234, #277, #108 ) ) ;
#100 = DIRECTION ( 'NONE',  ( 1.000000000000000000, 0.0000000000000000000, 0.0000000000000000000 ) ) ;
#101 = EDGE_CURVE ( 'NONE', #265, #156, #161, .T. ) ;
#102 = PERSON_AND_ORGANIZATION ( #285, #9 ) ;
#103 = ORIENTED_EDGE ( 'NONE', *, *, #137, .F. ) ;
#104 = AXIS2_PLACEMENT_3D ( 'NONE', #181, #292, #20 ) ;
#105 = CARTESIAN_POINT ( 'NONE',  ( -16.15869080075323800, -25.69022685738379900, 4.561544707685547100 ) ) ;
#106 = DIRECTION ( 'NONE',  ( -0.0000000000000000000, -0.0000000000000000000, -1.000000000000000000 ) ) ;
#107 = CALENDAR_DATE ( 2019, 8, 1 ) ;
#108 = ORIENTED_EDGE ( 'NONE', *, *, #11, .F. ) ;
#109 = CARTESIAN_POINT ( 'NONE',  ( -26.17637370626350400, -8.986595693929233500, 7.741306832358413100 ) ) ;
#110 = CARTESIAN_POINT ( 'NONE',  ( 26.17637370626350100, 8.986595693929221100, 3.258693167641590000 ) ) ;
#111 = CARTESIAN_POINT ( 'NONE',  ( 25.39999999999999900, 4.884981308350691100E-015, 4.801049553183840000 ) ) ;
#112 = DIRECTION ( 'NONE',  ( -0.0000000000000000000, -0.0000000000000000000, -1.000000000000000000 ) ) ;
#113 = DIRECTION ( 'NONE',  ( -0.0000000000000000000, -0.0000000000000000000, -1.000000000000000000 ) ) ;
#114 = DIRECTION ( 'NONE',  ( -0.0000000000000000000, -0.0000000000000000000, -1.000000000000000000 ) ) ;
#115 = ADVANCED_FACE ( 'NONE', ( #62 ), #250, .T. ) ;
#116 = DIRECTION ( 'NONE',  ( 1.000000000000000000, 0.0000000000000000000, 0.0000000000000000000 ) ) ;
#117 = CARTESIAN_POINT ( 'NONE',  ( 26.17637370626351900, -8.986595693929233500, 7.741306832358403300 ) ) ;
#118 = ORIENTED_EDGE ( 'NONE', *, *, #281, .T. ) ;
#119 = APPROVAL_ROLE ( '' ) ;
#120 = AXIS2_PLACEMENT_3D ( 'NONE', #33, #152, #8 ) ;
#121 = PERSON_AND_ORGANIZATION_ROLE ( 'creator' ) ;
#122 = APPROVAL_STATUS ( 'not_yet_approved' ) ;
#123 = DIRECTION ( 'NONE',  ( -0.0000000000000000000, -0.0000000000000000000, -1.000000000000000000 ) ) ;
#124 = COORDINATED_UNIVERSAL_TIME_OFFSET ( 2, 0, .AHEAD. ) ;
#125 = FACE_OUTER_BOUND ( 'NONE', #210, .T. ) ;
#126 = DESIGN_CONTEXT ( 'detailed design', #182, 'design' ) ;
#127 = DIRECTION ( 'NONE',  ( 1.000000000000000000, 1.776356839400250500E-015, 0.0000000000000000000 ) ) ;
#128 = CARTESIAN_POINT ( 'NONE',  ( -8.151106878516420900, 25.69022685738379200, 6.084418002917939100 ) ) ;
#129 = CC_DESIGN_PERSON_AND_ORGANIZATION_ASSIGNMENT ( #295, #223, ( #217 ) ) ;
#130 = CARTESIAN_POINT ( 'NONE',  ( 25.39999999999999900, 4.884981308350691100E-015, 4.801049553183840000 ) ) ;
#131 = PRODUCT_DEFINITION_SHAPE ( 'NONE', 'NONE',  #145 ) ;
#132 = APPROVAL_DATE_TIME ( #279, #68 ) ;
#133 = CARTESIAN_POINT ( 'NONE',  ( 7.105427357601000300E-015, 25.69022685738378100, 4.915581997082071600 ) ) ;
#134 = CARTESIAN_POINT ( 'NONE',  ( 8.987345767162379300, -8.986595693929235300, 12.71950011392900300 ) ) ;
#135 = CARTESIAN_POINT ( 'NONE',  ( 23.74076009752859700, -25.69022685738379500, 1.569426975393882500 ) ) ;
#136 = ORIENTED_EDGE ( 'NONE', *, *, #41, .T. ) ;
#137 = EDGE_CURVE ( 'NONE', #260, #1, #18, .T. ) ;
#138 = DIRECTION ( 'NONE',  ( 1.000000000000000000, -8.881784197001252300E-016, 0.0000000000000000000 ) ) ;
#139 = CARTESIAN_POINT ( 'NONE',  ( 7.105427357601000300E-015, -25.39999999999999100, 4.801049553183837300 ) ) ;
#140 = DIRECTION ( 'NONE',  ( -1.000000000000000000, 0.0000000000000000000, 0.0000000000000000000 ) ) ;
#141 =( LENGTH_UNIT ( ) NAMED_UNIT ( * ) SI_UNIT ( .MILLI., .METRE. ) );
#142 = EDGE_CURVE ( 'NONE', #1, #265, #233, .T. ) ;
#143 = ORIENTED_EDGE ( 'NONE', *, *, #28, .T. ) ;
#144 = PERSON_AND_ORGANIZATION ( #285, #9 ) ;
#145 = PRODUCT_DEFINITION ( 'UNKNOWN', '', #32, #126 ) ;
#146 = ORIENTED_EDGE ( 'NONE', *, *, #142, .T. ) ;
#147 = EDGE_LOOP ( 'NONE', ( #76, #79, #280 ) ) ;
#148 = CARTESIAN_POINT ( 'NONE',  ( 8.987345767162365100, 8.986595693929222900, -1.719500113929001200 ) ) ;
#149 = AXIS2_PLACEMENT_3D ( 'NONE', #17, #140, #163 ) ;
#150 = MANIFOLD_SOLID_BREP ( 'Imported1', #63 ) ;
#151 = CIRCLE ( 'NONE', #120, 69.59000000000000300 ) ;
#152 = DIRECTION ( 'NONE',  ( 1.000000000000000000, 0.0000000000000000000, 0.0000000000000000000 ) ) ;
#153 = CARTESIAN_POINT ( 'NONE',  ( 17.81644426155129000, -8.986595693929237100, -0.04039210224231854600 ) ) ;
#154 = CARTESIAN_POINT ( 'NONE',  ( 9.992007221626412800E-016, 4.884981308350691100E-015, 4.801049553183840000 ) ) ;
#155 = CARTESIAN_POINT ( 'NONE',  ( 8.151106878516433300, 25.69022685738379200, 6.084418002917934700 ) ) ;
#156 = VERTEX_POINT ( 'NONE', #239 ) ;
#157 = AXIS2_PLACEMENT_3D ( 'NONE', #164, #225, #180 ) ;
#158 = DIRECTION ( 'NONE',  ( 0.0000000000000000000, 0.0000000000000000000, 1.000000000000000000 ) ) ;
#159 = CARTESIAN_POINT ( 'NONE',  ( 7.105427357601000300E-015, 25.39999999999998400, 4.801049553183830200 ) ) ;
#160 = CARTESIAN_POINT ( 'NONE',  ( -26.17637370626351900, 8.986595693929222900, 3.258693167641603800 ) ) ;
#161 = CIRCLE ( 'NONE', #275, 25.39999999999999900 ) ;
#162 = CARTESIAN_POINT ( 'NONE',  ( -1.734723475976807100E-014, -25.69022685738379900, 4.915581997082075100 ) ) ;
#163 = DIRECTION ( 'NONE',  ( 0.0000000000000000000, -1.000000000000000000, 0.0000000000000000000 ) ) ;
#164 = CARTESIAN_POINT ( 'NONE',  ( 9.992007221626412800E-016, 4.884981308350691100E-015, 4.801049553183840000 ) ) ;
#165 = CC_DESIGN_APPROVAL ( #68, ( #145 ) ) ;
#166 = CIRCLE ( 'NONE', #60, 25.39999999999999900 ) ;
#167 = ORIENTED_EDGE ( 'NONE', *, *, #24, .T. ) ;
#168 = CIRCLE ( 'NONE', #242, 25.39999999999999900 ) ;
#169 = CARTESIAN_POINT ( 'NONE',  ( 25.39999999999999900, 4.884981308350691100E-015, 6.198950446816160000 ) ) ;
#170 = CARTESIAN_POINT ( 'NONE',  ( -8.987345767162365100, -8.986595693929235300, 12.71950011392900700 ) ) ;
#171 = ADVANCED_FACE ( 'NONE', ( #125 ), #226, .T. ) ;
#172 = CARTESIAN_POINT ( 'NONE',  ( -8.987345767162366900, 8.986595693929226400, 12.71950011392901400 ) ) ;
#173 = CARTESIAN_POINT ( 'NONE',  ( -16.15869080075323800, 25.69022685738379200, 4.561544707685547100 ) ) ;
#174 = APPROVAL_PERSON_ORGANIZATION ( #43, #252, #119 ) ;
#175 = CARTESIAN_POINT ( 'NONE',  ( 9.992007221626412800E-016, 4.884981308350691100E-015, 4.801049553183840000 ) ) ;
#176 = CC_DESIGN_DATE_AND_TIME_ASSIGNMENT ( #220, #77, ( #145 ) ) ;
#177 = CARTESIAN_POINT ( 'NONE',  ( -16.15869080075324500, -25.69022685738380200, 6.438455292314474200 ) ) ;
#178 = PERSON_AND_ORGANIZATION ( #285, #9 ) ;
#179 = CARTESIAN_POINT ( 'NONE',  ( 9.992007221626412800E-016, 4.884981308350691100E-015, 6.198950446816160000 ) ) ;
#180 = DIRECTION ( 'NONE',  ( 1.000000000000000000, 0.0000000000000000000, 0.0000000000000000000 ) ) ;
#181 = CARTESIAN_POINT ( 'NONE',  ( 0.0000000000000000000, 0.0000000000000000000, 0.0000000000000000000 ) ) ;
#182 = APPLICATION_CONTEXT ( 'configuration controlled 3d designs of mechanical parts and assemblies' ) ;
#183 = CIRCLE ( 'NONE', #80, 25.39999999999999900 ) ;
#184 = CARTESIAN_POINT ( 'NONE',  ( -7.105427357601000300E-015, -25.39999999999999100, 6.198950446816160900 ) ) ;
#185 = CC_DESIGN_PERSON_AND_ORGANIZATION_ASSIGNMENT ( #257, #121, ( #32 ) ) ;
#186 = ADVANCED_BREP_SHAPE_REPRESENTATION ( '111-1508E UVFS bi-cx 50.8 F75', ( #150, #104 ), #16 ) ;
#187 = ORIENTED_EDGE ( 'NONE', *, *, #231, .F. ) ;
#188 = COORDINATED_UNIVERSAL_TIME_OFFSET ( 2, 0, .AHEAD. ) ;
#189 = CC_DESIGN_SECURITY_CLASSIFICATION ( #229, ( #32 ) ) ;
#190 = CARTESIAN_POINT ( 'NONE',  ( 7.105427357601001900E-015, 8.986595693929222900, -1.719500113929001600 ) ) ;
#191 = ORIENTED_EDGE ( 'NONE', *, *, #142, .F. ) ;
#192 = AXIS2_PLACEMENT_3D ( 'NONE', #270, #123, #100 ) ;
#193 = CARTESIAN_POINT ( 'NONE',  ( -17.81644426155129000, 8.986595693929226400, 11.04039210224231800 ) ) ;
#194 = FACE_OUTER_BOUND ( 'NONE', #203, .T. ) ;
#195 = CC_DESIGN_PERSON_AND_ORGANIZATION_ASSIGNMENT ( #144, #271, ( #32 ) ) ;
#196 = DIRECTION ( 'NONE',  ( 1.000000000000000000, 0.0000000000000000000, 0.0000000000000000000 ) ) ;
#197 = CARTESIAN_POINT ( 'NONE',  ( -23.74076009752859000, -25.69022685738379900, 9.430573024606127700 ) ) ;
#198 = CARTESIAN_POINT ( 'NONE',  ( -25.39999999999999900, 7.995584178184967200E-015, 4.801049553183840000 ) ) ;
#199 = CARTESIAN_POINT ( 'NONE',  ( 1.734723475976807100E-014, -8.986595693929233500, 12.71950011392900700 ) ) ;
#200 = MECHANICAL_CONTEXT ( 'NONE', #251, 'mechanical' ) ;
#201 = DATE_AND_TIME ( #278, #219 ) ;
#202 = CARTESIAN_POINT ( 'NONE',  ( -17.81644426155130000, 8.986595693929224600, -0.04039210224229773000 ) ) ;
#203 = EDGE_LOOP ( 'NONE', ( #191, #103, #52, #143, #38, #23 ) ) ;
#204 = ORIENTED_EDGE ( 'NONE', *, *, #221, .F. ) ;
#205 = EDGE_CURVE ( 'NONE', #4, #258, #214, .T. ) ;
#206 = APPROVAL_ROLE ( '' ) ;
#207 = CARTESIAN_POINT ( 'NONE',  ( -1.734723475976807100E-014, -8.986595693929235300, -1.719500113928995200 ) ) ;
#208 = LOCAL_TIME ( 12, 6, 1.000000000000000000, #188 ) ;
#209 = LINE ( 'NONE', #111, #50 ) ;
#210 = EDGE_LOOP ( 'NONE', ( #187, #146, #94, #291, #85, #222 ) ) ;
#211 = AXIS2_PLACEMENT_3D ( 'NONE', #37, #287, #284 ) ;
#212 = CARTESIAN_POINT ( 'NONE',  ( 16.15869080075323400, -25.69022685738380600, 6.438455292314447600 ) ) ;
#213 =( BOUNDED_SURFACE ( )  B_SPLINE_SURFACE ( 3, 3, ( 
 ( #84, #35, #105, #5 ),
 ( #259, #170, #61, #109 ),
 ( #86, #172, #193, #235 ),
 ( #255, #128, #173, #282 ) ),
 .UNSPECIFIED., .F., .F., .F. ) 
 B_SPLINE_SURFACE_WITH_KNOTS ( ( 4, 4 ),
 ( 4, 4 ),
 ( 0.0000000000000000000, 1.000000000000000000 ),
 ( 0.0000000000000000000, 1.000000000000000000 ),
 .UNSPECIFIED. ) 
 GEOMETRIC_REPRESENTATION_ITEM ( )  RATIONAL_B_SPLINE_SURFACE ( (
 ( 1.000000000000000000, 0.9882614751249002600, 0.9882614751249002600, 1.000000000000000000),
 ( 0.9529091153222966100, 0.9417233679683765200, 0.9417233679683765200, 0.9529091153222966100),
 ( 0.9529091153222966100, 0.9417233679683765200, 0.9417233679683765200, 0.9529091153222966100),
 ( 1.000000000000000000, 0.9882614751249002600, 0.9882614751249002600, 1.000000000000000000) ) ) 
 REPRESENTATION_ITEM ( '' )  SURFACE ( )  );
#214 = CIRCLE ( 'NONE', #262, 25.39999999999999900 ) ;
#215 = DIRECTION ( 'NONE',  ( 1.000000000000000000, 0.0000000000000000000, 0.0000000000000000000 ) ) ;
#216 = CARTESIAN_POINT ( 'NONE',  ( 8.987345767162381100, 8.986595693929226400, 12.71950011392900800 ) ) ;
#217 = PRODUCT ( '111-1508E UVFS bi-cx 50.8 F75', '111-1508E UVFS bi-cx 50.8 F75', '', ( #200 ) ) ;
#218 = CARTESIAN_POINT ( 'NONE',  ( 17.81644426155130400, 8.986595693929226400, 11.04039210224230900 ) ) ;
#219 = LOCAL_TIME ( 12, 6, 1.000000000000000000, #54 ) ;
#220 = DATE_AND_TIME ( #107, #208 ) ;
#221 = EDGE_CURVE ( 'NONE', #258, #265, #166, .T. ) ;
#222 = ORIENTED_EDGE ( 'NONE', *, *, #41, .F. ) ;
#223 = PERSON_AND_ORGANIZATION_ROLE ( 'design_owner' ) ;
#224 = CARTESIAN_POINT ( 'NONE',  ( -26.17637370626351200, -8.986595693929237100, 3.258693167641607300 ) ) ;
#225 = DIRECTION ( 'NONE',  ( 0.0000000000000000000, 0.0000000000000000000, 1.000000000000000000 ) ) ;
#226 = CYLINDRICAL_SURFACE ( 'NONE', #2, 25.39999999999999900 ) ;
#227 = PERSON_AND_ORGANIZATION_ROLE ( 'classification_officer' ) ;
#228 =( BOUNDED_SURFACE ( )  B_SPLINE_SURFACE ( 3, 3, ( 
 ( #65, #66, #212, #30 ),
 ( #91, #238, #153, #59 ),
 ( #190, #148, #87, #110 ),
 ( #133, #236, #88, #232 ) ),
 .UNSPECIFIED., .F., .F., .F. ) 
 B_SPLINE_SURFACE_WITH_KNOTS ( ( 4, 4 ),
 ( 4, 4 ),
 ( 0.0000000000000000000, 1.000000000000000000 ),
 ( 0.0000000000000000000, 1.000000000000000000 ),
 .UNSPECIFIED. ) 
 GEOMETRIC_REPRESENTATION_ITEM ( )  RATIONAL_B_SPLINE_SURFACE ( (
 ( 1.000000000000000000, 0.9882614751249002600, 0.9882614751249002600, 1.000000000000000000),
 ( 0.9529091153222966100, 0.9417233679683765200, 0.9417233679683765200, 0.9529091153222966100),
 ( 0.9529091153222966100, 0.9417233679683765200, 0.9417233679683765200, 0.9529091153222966100),
 ( 1.000000000000000000, 0.9882614751249002600, 0.9882614751249002600, 1.000000000000000000) ) ) 
 REPRESENTATION_ITEM ( '' )  SURFACE ( )  );
#229 = SECURITY_CLASSIFICATION ( '', '', #293 ) ;
#230 = APPROVAL_PERSON_ORGANIZATION ( #178, #68, #206 ) ;
#231 = EDGE_CURVE ( 'NONE', #1, #45, #82, .T. ) ;
#232 = CARTESIAN_POINT ( 'NONE',  ( 23.74076009752858600, 25.69022685738377700, 9.430573024606115200 ) ) ;
#233 = LINE ( 'NONE', #198, #289 ) ;
#234 = ORIENTED_EDGE ( 'NONE', *, *, #281, .F. ) ;
#235 = CARTESIAN_POINT ( 'NONE',  ( -26.17637370626350800, 8.986595693929226400, 7.741306832358421100 ) ) ;
#236 = CARTESIAN_POINT ( 'NONE',  ( 8.151106878516420900, 25.69022685738378400, 4.915581997082071600 ) ) ;
#237 = CARTESIAN_POINT ( 'NONE',  ( -25.39999999999999900, 7.995584178184967200E-015, 4.801049553183840000 ) ) ;
#238 = CARTESIAN_POINT ( 'NONE',  ( 8.987345767162366900, -8.986595693929237100, -1.719500113929012500 ) ) ;
#239 = CARTESIAN_POINT ( 'NONE',  ( -7.105427357601000300E-015, 25.39999999999998400, 6.198950446816160900 ) ) ;
#240 = CARTESIAN_POINT ( 'NONE',  ( 9.992007221626412800E-016, 4.884981308350691100E-015, 6.198950446816160000 ) ) ;
#241 = ADVANCED_FACE ( 'NONE', ( #67 ), #245, .T. ) ;
#242 = AXIS2_PLACEMENT_3D ( 'NONE', #154, #113, #283 ) ;
#243 = DIRECTION ( 'NONE',  ( -0.0000000000000000000, -0.0000000000000000000, -1.000000000000000000 ) ) ;
#244 = CARTESIAN_POINT ( 'NONE',  ( 9.992007221626412800E-016, 4.884981308350691100E-015, 4.801049553183840000 ) ) ;
#245 =( BOUNDED_SURFACE ( )  B_SPLINE_SURFACE ( 3, 3, ( 
 ( #197, #177, #73, #162 ),
 ( #224, #51, #49, #207 ),
 ( #160, #202, #22, #78 ),
 ( #44, #21, #273, #269 ) ),
 .UNSPECIFIED., .F., .F., .F. ) 
 B_SPLINE_SURFACE_WITH_KNOTS ( ( 4, 4 ),
 ( 4, 4 ),
 ( 0.0000000000000000000, 1.000000000000000000 ),
 ( 0.0000000000000000000, 1.000000000000000000 ),
 .UNSPECIFIED. ) 
 GEOMETRIC_REPRESENTATION_ITEM ( )  RATIONAL_B_SPLINE_SURFACE ( (
 ( 1.000000000000000000, 0.9882614751249002600, 0.9882614751249002600, 1.000000000000000000),
 ( 0.9529091153222966100, 0.9417233679683765200, 0.9417233679683765200, 0.9529091153222966100),
 ( 0.9529091153222966100, 0.9417233679683765200, 0.9417233679683765200, 0.9529091153222966100),
 ( 1.000000000000000000, 0.9882614751249002600, 0.9882614751249002600, 1.000000000000000000) ) ) 
 REPRESENTATION_ITEM ( '' )  SURFACE ( )  );
#246 = PERSON_AND_ORGANIZATION_ROLE ( 'creator' ) ;
#247 = CARTESIAN_POINT ( 'NONE',  ( -25.39999999999999900, 7.995584178184967200E-015, 6.198950446816160000 ) ) ;
#248 = LOCAL_TIME ( 12, 6, 1.000000000000000000, #124 ) ;
#249 = DATE_TIME_ROLE ( 'classification_date' ) ;
#250 =( BOUNDED_SURFACE ( )  B_SPLINE_SURFACE ( 3, 3, ( 
 ( #135, #14, #10, #263 ),
 ( #117, #39, #134, #199 ),
 ( #93, #218, #216, #266 ),
 ( #290, #72, #155, #69 ) ),
 .UNSPECIFIED., .F., .F., .F. ) 
 B_SPLINE_SURFACE_WITH_KNOTS ( ( 4, 4 ),
 ( 4, 4 ),
 ( 0.0000000000000000000, 1.000000000000000000 ),
 ( 0.0000000000000000000, 1.000000000000000000 ),
 .UNSPECIFIED. ) 
 GEOMETRIC_REPRESENTATION_ITEM ( )  RATIONAL_B_SPLINE_SURFACE ( (
 ( 1.000000000000000000, 0.9882614751249002600, 0.9882614751249002600, 1.000000000000000000),
 ( 0.9529091153222966100, 0.9417233679683765200, 0.9417233679683765200, 0.9529091153222966100),
 ( 0.9529091153222966100, 0.9417233679683765200, 0.9417233679683765200, 0.9529091153222966100),
 ( 1.000000000000000000, 0.9882614751249002600, 0.9882614751249002600, 1.000000000000000000) ) ) 
 REPRESENTATION_ITEM ( '' )  SURFACE ( )  );
#251 = APPLICATION_CONTEXT ( 'configuration controlled 3d designs of mechanical parts and assemblies' ) ;
#252 = APPROVAL ( #75, 'UNSPECIFIED' ) ;
#253 = CIRCLE ( 'NONE', #149, 69.59000000000000300 ) ;
#254 = CARTESIAN_POINT ( 'NONE',  ( 9.992007221626412800E-016, 4.884981308350691100E-015, 6.198950446816160000 ) ) ;
#255 = CARTESIAN_POINT ( 'NONE',  ( -7.105427357601000300E-015, 25.69022685738378800, 6.084418002917938200 ) ) ;
#256 = CC_DESIGN_APPROVAL ( #252, ( #32 ) ) ;
#257 = PERSON_AND_ORGANIZATION ( #285, #9 ) ;
#258 = VERTEX_POINT ( 'NONE', #184 ) ;
#259 = CARTESIAN_POINT ( 'NONE',  ( -7.105427357601001900E-015, -8.986595693929233500, 12.71950011392900700 ) ) ;
#260 = VERTEX_POINT ( 'NONE', #139 ) ;
#261 = AXIS2_PLACEMENT_3D ( 'NONE', #254, #106, #127 ) ;
#262 = AXIS2_PLACEMENT_3D ( 'NONE', #240, #114, #264 ) ;
#263 = CARTESIAN_POINT ( 'NONE',  ( 1.734723475976807100E-014, -25.69022685738379500, 6.084418002917937300 ) ) ;
#264 = DIRECTION ( 'NONE',  ( 1.000000000000000000, 0.0000000000000000000, 0.0000000000000000000 ) ) ;
#265 = VERTEX_POINT ( 'NONE', #247 ) ;
#266 = CARTESIAN_POINT ( 'NONE',  ( 1.734723475976807100E-014, 8.986595693929226400, 12.71950011392901400 ) ) ;
#267 = PERSON_AND_ORGANIZATION ( #285, #9 ) ;
#268 = CYLINDRICAL_SURFACE ( 'NONE', #157, 25.39999999999999900 ) ;
#269 = CARTESIAN_POINT ( 'NONE',  ( -1.734723475976807100E-014, 25.69022685738378100, 4.915581997082071600 ) ) ;
#270 = CARTESIAN_POINT ( 'NONE',  ( 9.992007221626412800E-016, 4.884981308350691100E-015, 4.801049553183840000 ) ) ;
#271 = PERSON_AND_ORGANIZATION_ROLE ( 'design_supplier' ) ;
#272 = APPROVAL_ROLE ( '' ) ;
#273 = CARTESIAN_POINT ( 'NONE',  ( -8.151106878516433300, 25.69022685738378400, 4.915581997082075100 ) ) ;
#274 = EDGE_LOOP ( 'NONE', ( #204, #118, #56 ) ) ;
#275 = AXIS2_PLACEMENT_3D ( 'NONE', #179, #42, #138 ) ;
#276 = CC_DESIGN_PERSON_AND_ORGANIZATION_ASSIGNMENT ( #89, #227, ( #229 ) ) ;
#277 = ORIENTED_EDGE ( 'NONE', *, *, #205, .F. ) ;
#278 = CALENDAR_DATE ( 2019, 8, 1 ) ;
#279 = DATE_AND_TIME ( #55, #248 ) ;
#280 = ORIENTED_EDGE ( 'NONE', *, *, #231, .T. ) ;
#281 = EDGE_CURVE ( 'NONE', #258, #156, #253, .T. ) ;
#282 = CARTESIAN_POINT ( 'NONE',  ( -23.74076009752858600, 25.69022685738378800, 1.569426975393894500 ) ) ;
#283 = DIRECTION ( 'NONE',  ( 1.000000000000000000, -8.881784197001252300E-016, 0.0000000000000000000 ) ) ;
#284 = DIRECTION ( 'NONE',  ( 1.000000000000000000, 0.0000000000000000000, 0.0000000000000000000 ) ) ;
#285 = PERSON ( 'UNSPECIFIED', 'UNSPECIFIED', 'UNSPECIFIED', ('UNSPECIFIED'), ('UNSPECIFIED'), ('UNSPECIFIED') ) ;
#286 = ADVANCED_FACE ( 'NONE', ( #194 ), #268, .T. ) ;
#287 = DIRECTION ( 'NONE',  ( -0.0000000000000000000, -0.0000000000000000000, -1.000000000000000000 ) ) ;
#288 = COORDINATED_UNIVERSAL_TIME_OFFSET ( 2, 0, .AHEAD. ) ;
#289 = VECTOR ( 'NONE', #158, 1000.000000000000000 ) ;
#290 = CARTESIAN_POINT ( 'NONE',  ( 23.74076009752859700, 25.69022685738378800, 1.569426975393882500 ) ) ;
#291 = ORIENTED_EDGE ( 'NONE', *, *, #11, .T. ) ;
#292 = DIRECTION ( 'NONE',  ( 0.0000000000000000000, 0.0000000000000000000, 1.000000000000000000 ) ) ;
#293 = SECURITY_CLASSIFICATION_LEVEL ( 'unclassified' ) ;
#294 =( NAMED_UNIT ( * ) SI_UNIT ( $, .STERADIAN. ) SOLID_ANGLE_UNIT ( ) );
#295 = PERSON_AND_ORGANIZATION ( #285, #9 ) ;
ENDSEC;
END-ISO-10303-21;
