ISO-10303-21;
HEADER;
FILE_DESCRIPTION (( 'STEP AP203' ),
    '1' );
FILE_NAME ('111-1504E UVFS bi-cx 50.8 F50.STEP',
    '2019-01-08T09:46:11',
    ( '' ),
    ( '' ),
    'SwSTEP 2.0',
    'SolidWorks 2017',
    '' );
FILE_SCHEMA (( 'CONFIG_CONTROL_DESIGN' ));
ENDSEC;

DATA;
#1 = PERSON_AND_ORGANIZATION_ROLE ( 'classification_officer' ) ;
#2 = FACE_OUTER_BOUND ( 'NONE', #280, .T. ) ;
#3 = APPROVAL_ROLE ( '' ) ;
#4 = PERSON_AND_ORGANIZATION ( #154, #89 ) ;
#5 = APPROVAL ( #277, 'UNSPECIFIED' ) ;
#6 = CARTESIAN_POINT ( 'NONE',  ( 9.992007221626412800E-016, 4.884981308350691100E-015, 7.932903384600030500 ) ) ;
#7 = EDGE_LOOP ( 'NONE', ( #83, #159, #253 ) ) ;
#8 = CARTESIAN_POINT ( 'NONE',  ( 2.711485464748365900E-014, -25.39999999999999900, 7.932903384600030500 ) ) ;
#9 = LOCAL_TIME ( 11, 46, 10.00000000000000000, #64 ) ;
#10 = CYLINDRICAL_SURFACE ( 'NONE', #97, 25.39999999999999900 ) ;
#11 = DIRECTION ( 'NONE',  ( 0.0000000000000000000, 0.0000000000000000000, 1.000000000000000000 ) ) ;
#12 = CARTESIAN_POINT ( 'NONE',  ( -2.711485464748365300E-014, -25.39999999999999900, 9.367096615399969300 ) ) ;
#13 = CARTESIAN_POINT ( 'NONE',  ( -3.469446951953614200E-015, 25.66594197132609200, 9.181591621353922200 ) ) ;
#14 = CC_DESIGN_PERSON_AND_ORGANIZATION_ASSIGNMENT ( #35, #152, ( #151 ) ) ;
#15 = DIRECTION ( 'NONE',  ( 1.000000000000000000, 0.0000000000000000000, 0.0000000000000000000 ) ) ;
#16 = CARTESIAN_POINT ( 'NONE',  ( -20.88854045614330000, -25.66594197132606700, 2.616038140905858200 ) ) ;
#17 = CALENDAR_DATE ( 2019, 8, 1 ) ;
#18 = CARTESIAN_POINT ( 'NONE',  ( -20.88854045614327900, 25.66594197132608500, 2.616038140905845300 ) ) ;
#19 = ADVANCED_FACE ( 'NONE', ( #2 ), #10, .T. ) ;
#20 = DIRECTION ( 'NONE',  ( 1.000000000000000000, 0.0000000000000000000, 0.0000000000000000000 ) ) ;
#21 = VERTEX_POINT ( 'NONE', #233 ) ;
#22 = APPLICATION_CONTEXT ( 'configuration controlled 3d designs of mechanical parts and assemblies' ) ;
#23 = APPLICATION_PROTOCOL_DEFINITION ( 'international standard', 'config_control_design', 1994, #22 ) ;
#24 = AXIS2_PLACEMENT_3D ( 'NONE', #84, #204, #20 ) ;
#25 = CIRCLE ( 'NONE', #256, 25.39999999999999900 ) ;
#26 = ORIENTED_EDGE ( 'NONE', *, *, #110, .F. ) ;
#27 = CARTESIAN_POINT ( 'NONE',  ( -25.39999999999999900, 7.995584178184967200E-015, 7.932903384600030500 ) ) ;
#28 = CARTESIAN_POINT ( 'NONE',  ( 1.057692432951514300E-014, 25.40000000000000200, 7.932903384600027000 ) ) ;
#29 = CARTESIAN_POINT ( 'NONE',  ( 27.29499958876804700, 9.735996584276689300, 11.80040743355855600 ) ) ;
#30 = CARTESIAN_POINT ( 'NONE',  ( -25.39999999999999900, 7.995584178184967200E-015, 9.367096615399969300 ) ) ;
#31 = CC_DESIGN_PERSON_AND_ORGANIZATION_ASSIGNMENT ( #213, #272, ( #259 ) ) ;
#32 = ORIENTED_EDGE ( 'NONE', *, *, #157, .T. ) ;
#33 = CARTESIAN_POINT ( 'NONE',  ( 7.529667589158789200, 25.66594197132608800, 9.181591621353925700 ) ) ;
#34 = CARTESIAN_POINT ( 'NONE',  ( -14.71286575119790500, -25.66594197132606300, 6.923814358622600200 ) ) ;
#35 = PERSON_AND_ORGANIZATION ( #154, #89 ) ;
#36 = CARTESIAN_POINT ( 'NONE',  ( -9.838996371295305500, -9.735996584276687600, -3.079598494088607200 ) ) ;
#37 = DIRECTION ( 'NONE',  ( 1.000000000000000000, 0.0000000000000000000, 0.0000000000000000000 ) ) ;
#38 = AXIS2_PLACEMENT_3D ( 'NONE', #101, #11, #285 ) ;
#39 = CARTESIAN_POINT ( 'NONE',  ( -2.873708096573648400E-014, -9.735996584276678700, 20.37959849408861500 ) ) ;
#40 = ORIENTED_EDGE ( 'NONE', *, *, #209, .F. ) ;
#41 =( LENGTH_UNIT ( ) NAMED_UNIT ( * ) SI_UNIT ( .MILLI., .METRE. ) );
#42 = EDGE_CURVE ( 'NONE', #53, #240, #107, .T. ) ;
#43 = ORIENTED_EDGE ( 'NONE', *, *, #271, .F. ) ;
#44 = PRODUCT_DEFINITION_SHAPE ( 'NONE', 'NONE',  #259 ) ;
#45 = CIRCLE ( 'NONE', #156, 25.39999999999999900 ) ;
#46 = CARTESIAN_POINT ( 'NONE',  ( 7.529667589158813200, -25.66594197132606300, 8.118408378646064300 ) ) ;
#47 = CC_DESIGN_PERSON_AND_ORGANIZATION_ASSIGNMENT ( #276, #180, ( #151 ) ) ;
#48 = CIRCLE ( 'NONE', #224, 25.39999999999999900 ) ;
#49 = EDGE_LOOP ( 'NONE', ( #163, #65, #111 ) ) ;
#50 = LOCAL_TIME ( 11, 46, 10.00000000000000000, #252 ) ;
#51 = CARTESIAN_POINT ( 'NONE',  ( -2.081668171172168500E-014, -25.66594197132607400, 9.181591621353938100 ) ) ;
#52 = AXIS2_PLACEMENT_3D ( 'NONE', #164, #192, #214 ) ;
#53 = VERTEX_POINT ( 'NONE', #28 ) ;
#54 = CARTESIAN_POINT ( 'NONE',  ( 2.081668171172168800E-014, -9.735996584276684000, -3.079598494088602300 ) ) ;
#55 = DIRECTION ( 'NONE',  ( 1.000000000000000000, 0.0000000000000000000, 0.0000000000000000000 ) ) ;
#56 = CARTESIAN_POINT ( 'NONE',  ( 25.39999999999999900, 4.884981308350691100E-015, 7.932903384600030500 ) ) ;
#57 = EDGE_LOOP ( 'NONE', ( #43, #140, #248 ) ) ;
#58 = APPROVAL_DATE_TIME ( #187, #227 ) ;
#59 = DIRECTION ( 'NONE',  ( -0.0000000000000000000, -0.0000000000000000000, -1.000000000000000000 ) ) ;
#60 = CARTESIAN_POINT ( 'NONE',  ( -20.88854045614326800, -25.66594197132607700, 14.68396185909413500 ) ) ;
#61 =( NAMED_UNIT ( * ) SI_UNIT ( $, .STERADIAN. ) SOLID_ANGLE_UNIT ( ) );
#62 = APPLICATION_CONTEXT ( 'configuration controlled 3d designs of mechanical parts and assemblies' ) ;
#63 = APPLICATION_PROTOCOL_DEFINITION ( 'international standard', 'config_control_design', 1994, #62 ) ;
#64 = COORDINATED_UNIVERSAL_TIME_OFFSET ( 2, 0, .AHEAD. ) ;
#65 = ORIENTED_EDGE ( 'NONE', *, *, #110, .T. ) ;
#66 = ORIENTED_EDGE ( 'NONE', *, *, #287, .T. ) ;
#67 = AXIS2_PLACEMENT_3D ( 'NONE', #146, #222, #266 ) ;
#68 = DIRECTION ( 'NONE',  ( 0.0000000000000000000, 0.0000000000000000000, 1.000000000000000000 ) ) ;
#69 = DIRECTION ( 'NONE',  ( -0.0000000000000000000, -0.0000000000000000000, -1.000000000000000000 ) ) ;
#70 = FACE_OUTER_BOUND ( 'NONE', #294, .T. ) ;
#71 = CARTESIAN_POINT ( 'NONE',  ( 20.88854045614328200, 25.66594197132607000, 14.68396185909414700 ) ) ;
#72 = AXIS2_PLACEMENT_3D ( 'NONE', #122, #162, #15 ) ;
#73 = DIRECTION ( 'NONE',  ( 0.0000000000000000000, 0.0000000000000000000, 1.000000000000000000 ) ) ;
#74 = EDGE_LOOP ( 'NONE', ( #115, #32, #203 ) ) ;
#75 = CARTESIAN_POINT ( 'NONE',  ( 7.529667589158774100, -25.66594197132607700, 9.181591621353941700 ) ) ;
#76 = CARTESIAN_POINT ( 'NONE',  ( 19.22526207475829100, -9.735996584276678700, 17.42936702209232500 ) ) ;
#77 = CARTESIAN_POINT ( 'NONE',  ( -2.708820635202566000E-014, -25.66594197132607000, 9.181591621353943500 ) ) ;
#78 = CARTESIAN_POINT ( 'NONE',  ( 3.552713678800500100E-015, 0.0000000000000000000, -27.33000000000000200 ) ) ;
#79 = DATE_AND_TIME ( #267, #185 ) ;
#80 = DIRECTION ( 'NONE',  ( -0.0000000000000000000, -0.0000000000000000000, -1.000000000000000000 ) ) ;
#81 = CARTESIAN_POINT ( 'NONE',  ( -27.29499958876805400, 9.735996584276707100, 11.80040743355853800 ) ) ;
#82 = CARTESIAN_POINT ( 'NONE',  ( -14.71286575119789000, 25.66594197132606000, 10.37618564137738800 ) ) ;
#83 = ORIENTED_EDGE ( 'NONE', *, *, #287, .F. ) ;
#84 = CARTESIAN_POINT ( 'NONE',  ( 9.992007221626412800E-016, 4.884981308350691100E-015, 9.367096615399969300 ) ) ;
#85 = DESIGN_CONTEXT ( 'detailed design', #22, 'design' ) ;
#86 = AXIS2_PLACEMENT_3D ( 'NONE', #78, #195, #147 ) ;
#87 = MECHANICAL_CONTEXT ( 'NONE', #62, 'mechanical' ) ;
#88 =( BOUNDED_SURFACE ( )  B_SPLINE_SURFACE ( 3, 3, ( 
 ( #237, #166, #75, #51 ),
 ( #261, #76, #193, #141 ),
 ( #29, #167, #98, #121 ),
 ( #283, #264, #33, #13 ) ),
 .UNSPECIFIED., .F., .F., .T. ) 
 B_SPLINE_SURFACE_WITH_KNOTS ( ( 4, 4 ),
 ( 4, 4 ),
 ( 0.0000000000000000000, 1.000000000000000000 ),
 ( 0.0000000000000000000, 1.000000000000000000 ),
 .UNSPECIFIED. ) 
 GEOMETRIC_REPRESENTATION_ITEM ( )  RATIONAL_B_SPLINE_SURFACE ( (
 ( 1.000000000000000000, 0.9693240617404722500, 0.9693240617404722500, 1.000000000000000000),
 ( 0.8787301758361927300, 0.8517743032154577700, 0.8517743032154577700, 0.8787301758361927300),
 ( 0.8787301758361927300, 0.8517743032154577700, 0.8517743032154577700, 0.8787301758361927300),
 ( 1.000000000000000000, 0.9693240617404722500, 0.9693240617404722500, 1.000000000000000000) ) ) 
 REPRESENTATION_ITEM ( '' )  SURFACE ( )  );
#89 = ORGANIZATION ( 'UNSPECIFIED', 'UNSPECIFIED', '' ) ;
#90 = DIRECTION ( 'NONE',  ( 1.000000000000000000, 0.0000000000000000000, 0.0000000000000000000 ) ) ;
#91 = CC_DESIGN_APPROVAL ( #5, ( #259 ) ) ;
#92 = ORIENTED_EDGE ( 'NONE', *, *, #210, .F. ) ;
#93 = EDGE_CURVE ( 'NONE', #168, #184, #45, .T. ) ;
#94 = CARTESIAN_POINT ( 'NONE',  ( 2.873708096573647800E-014, -9.735996584276678700, -3.079598494088605900 ) ) ;
#95 = APPROVAL_PERSON_ORGANIZATION ( #135, #179, #3 ) ;
#96 = CARTESIAN_POINT ( 'NONE',  ( 9.992007221626412800E-016, 4.884981308350691100E-015, 7.932903384600030500 ) ) ;
#97 = AXIS2_PLACEMENT_3D ( 'NONE', #96, #68, #258 ) ;
#98 = CARTESIAN_POINT ( 'NONE',  ( 9.838996371295310800, 9.735996584276694700, 20.37959849408861900 ) ) ;
#99 = APPROVAL_DATE_TIME ( #197, #5 ) ;
#100 = CARTESIAN_POINT ( 'NONE',  ( -25.39999999999999900, 7.995584178184967200E-015, 7.932903384600030500 ) ) ;
#101 = CARTESIAN_POINT ( 'NONE',  ( 9.992007221626412800E-016, 4.884981308350691100E-015, 7.932903384600030500 ) ) ;
#102 = ORIENTED_EDGE ( 'NONE', *, *, #232, .T. ) ;
#103 = CARTESIAN_POINT ( 'NONE',  ( -14.71286575119786700, -25.66594197132607400, 10.37618564137739500 ) ) ;
#104 = CARTESIAN_POINT ( 'NONE',  ( -19.22526207475831600, -9.735996584276669800, 17.42936702209231100 ) ) ;
#105 = APPROVAL_DATE_TIME ( #229, #179 ) ;
#106 = CARTESIAN_POINT ( 'NONE',  ( -7.529667589158791000, 25.66594197132606000, 8.118408378646053700 ) ) ;
#107 = CIRCLE ( 'NONE', #132, 25.39999999999999900 ) ;
#108 = ADVANCED_FACE ( 'NONE', ( #290 ), #278, .T. ) ;
#109 = PERSON_AND_ORGANIZATION_ROLE ( 'design_owner' ) ;
#110 = EDGE_CURVE ( 'NONE', #117, #123, #250, .T. ) ;
#111 = ORIENTED_EDGE ( 'NONE', *, *, #218, .T. ) ;
#112 = DIRECTION ( 'NONE',  ( 0.0000000000000000000, 0.0000000000000000000, 1.000000000000000000 ) ) ;
#113 = DATE_TIME_ROLE ( 'classification_date' ) ;
#114 = CALENDAR_DATE ( 2019, 8, 1 ) ;
#115 = ORIENTED_EDGE ( 'NONE', *, *, #209, .T. ) ;
#116 = DATE_AND_TIME ( #175, #236 ) ;
#117 = VERTEX_POINT ( 'NONE', #8 ) ;
#118 = VECTOR ( 'NONE', #242, 1000.000000000000000 ) ;
#119 = CARTESIAN_POINT ( 'NONE',  ( 9.838996371295337400, 9.735996584276678700, -3.079598494088599200 ) ) ;
#120 = PERSON_AND_ORGANIZATION ( #154, #89 ) ;
#121 = CARTESIAN_POINT ( 'NONE',  ( -1.734723475976807100E-014, 9.735996584276700000, 20.37959849408860800 ) ) ;
#122 = CARTESIAN_POINT ( 'NONE',  ( 9.992007221626412800E-016, 4.884981308350691100E-015, 7.932903384600030500 ) ) ;
#123 = VERTEX_POINT ( 'NONE', #27 ) ;
#124 = CARTESIAN_POINT ( 'NONE',  ( 9.992007221626412800E-016, 4.884981308350691100E-015, 7.932903384600030500 ) ) ;
#125 = CARTESIAN_POINT ( 'NONE',  ( -7.529667589158774100, -25.66594197132607400, 8.118408378646057200 ) ) ;
#126 = CARTESIAN_POINT ( 'NONE',  ( -27.29499958876806800, -9.735996584276669800, 11.80040743355854700 ) ) ;
#127 = CALENDAR_DATE ( 2019, 8, 1 ) ;
#128 = CARTESIAN_POINT ( 'NONE',  ( 2.081668171172168500E-014, -25.66594197132607000, 8.118408378646060800 ) ) ;
#129 = CC_DESIGN_PERSON_AND_ORGANIZATION_ASSIGNMENT ( #4, #109, ( #131 ) ) ;
#130 = CARTESIAN_POINT ( 'NONE',  ( -19.22526207475828400, 9.735996584276673400, -0.1293670220923219300 ) ) ;
#131 = PRODUCT ( '111-1504E UVFS bi-cx 50.8 F50', '111-1504E UVFS bi-cx 50.8 F50', '', ( #87 ) ) ;
#132 = AXIS2_PLACEMENT_3D ( 'NONE', #6, #69, #161 ) ;
#133 = ADVANCED_BREP_SHAPE_REPRESENTATION ( '111-1504E UVFS bi-cx 50.8 F50', ( #136, #286 ), #194 ) ;
#134 = DATE_TIME_ROLE ( 'creation_date' ) ;
#135 = PERSON_AND_ORGANIZATION ( #154, #89 ) ;
#136 = MANIFOLD_SOLID_BREP ( 'Imported1', #245 ) ;
#137 = FACE_OUTER_BOUND ( 'NONE', #57, .T. ) ;
#138 = SECURITY_CLASSIFICATION ( '', '', #205 ) ;
#139 = CARTESIAN_POINT ( 'NONE',  ( 1.037712131789913100E-014, 25.66594197132606300, 8.118408378646059000 ) ) ;
#140 = ORIENTED_EDGE ( 'NONE', *, *, #232, .F. ) ;
#141 = CARTESIAN_POINT ( 'NONE',  ( -1.734723475976807100E-014, -9.735996584276671600, 20.37959849408861500 ) ) ;
#142 = CC_DESIGN_DATE_AND_TIME_ASSIGNMENT ( #116, #113, ( #138 ) ) ;
#143 = CARTESIAN_POINT ( 'NONE',  ( -19.22526207475829800, 9.735996584276701800, 17.42936702209230000 ) ) ;
#144 = CARTESIAN_POINT ( 'NONE',  ( -7.529667589158815800, -25.66594197132606300, 9.181591621353938100 ) ) ;
#145 = CARTESIAN_POINT ( 'NONE',  ( -27.29499958876803600, -9.735996584276696500, 5.499592566441446500 ) ) ;
#146 = CARTESIAN_POINT ( 'NONE',  ( 9.992007221626412800E-016, 4.884981308350691100E-015, 9.367096615399969300 ) ) ;
#147 = DIRECTION ( 'NONE',  ( -3.255498094088290900E-016, -1.000000000000000000, 1.554760005356761900E-016 ) ) ;
#148 = VECTOR ( 'NONE', #73, 1000.000000000000000 ) ;
#149 = VERTEX_POINT ( 'NONE', #12 ) ;
#150 = APPROVAL_STATUS ( 'not_yet_approved' ) ;
#151 = PRODUCT_DEFINITION_FORMATION_WITH_SPECIFIED_SOURCE ( 'ANY', '', #131, .NOT_KNOWN. ) ;
#152 = PERSON_AND_ORGANIZATION_ROLE ( 'creator' ) ;
#153 = CIRCLE ( 'NONE', #52, 44.63000000000000300 ) ;
#154 = PERSON ( 'UNSPECIFIED', 'UNSPECIFIED', 'UNSPECIFIED', ('UNSPECIFIED'), ('UNSPECIFIED'), ('UNSPECIFIED') ) ;
#155 = APPROVAL_ROLE ( '' ) ;
#156 = AXIS2_PLACEMENT_3D ( 'NONE', #186, #234, #260 ) ;
#157 = EDGE_CURVE ( 'NONE', #117, #53, #153, .T. ) ;
#158 = FACE_OUTER_BOUND ( 'NONE', #49, .T. ) ;
#159 = ORIENTED_EDGE ( 'NONE', *, *, #271, .T. ) ;
#160 = CARTESIAN_POINT ( 'NONE',  ( 19.22526207475830900, -9.735996584276676900, -0.1293670220923019700 ) ) ;
#161 = DIRECTION ( 'NONE',  ( 1.000000000000000000, -8.881784197001252300E-016, 0.0000000000000000000 ) ) ;
#162 = DIRECTION ( 'NONE',  ( -0.0000000000000000000, -0.0000000000000000000, -1.000000000000000000 ) ) ;
#163 = ORIENTED_EDGE ( 'NONE', *, *, #157, .F. ) ;
#164 = CARTESIAN_POINT ( 'NONE',  ( -3.552713678800500100E-015, 0.0000000000000000000, 44.63000000000000300 ) ) ;
#165 = CARTESIAN_POINT ( 'NONE',  ( 25.39999999999999900, 4.884981308350691100E-015, 7.932903384600030500 ) ) ;
#166 = CARTESIAN_POINT ( 'NONE',  ( 14.71286575119787100, -25.66594197132607700, 6.923814358622605500 ) ) ;
#167 = CARTESIAN_POINT ( 'NONE',  ( 19.22526207475829100, 9.735996584276692900, 17.42936702209232200 ) ) ;
#168 = VERTEX_POINT ( 'NONE', #30 ) ;
#169 = DIRECTION ( 'NONE',  ( 1.000000000000000000, 1.776356839400250500E-015, 0.0000000000000000000 ) ) ;
#170 = CARTESIAN_POINT ( 'NONE',  ( -19.22526207475827700, -9.735996584276691100, -0.1293670220923175700 ) ) ;
#171 = CIRCLE ( 'NONE', #86, 44.63000000000000300 ) ;
#172 = CARTESIAN_POINT ( 'NONE',  ( 1.387778780781445700E-014, 9.735996584276680500, -3.079598494088609400 ) ) ;
#173 = AXIS2_PLACEMENT_3D ( 'NONE', #216, #80, #37 ) ;
#174 = ORIENTED_EDGE ( 'NONE', *, *, #210, .T. ) ;
#175 = CALENDAR_DATE ( 2019, 8, 1 ) ;
#176 = EDGE_CURVE ( 'NONE', #123, #168, #207, .T. ) ;
#177 = ADVANCED_FACE ( 'NONE', ( #137 ), #88, .T. ) ;
#178 = ORIENTED_EDGE ( 'NONE', *, *, #42, .F. ) ;
#179 = APPROVAL ( #249, 'UNSPECIFIED' ) ;
#180 = PERSON_AND_ORGANIZATION_ROLE ( 'design_supplier' ) ;
#181 = SHAPE_DEFINITION_REPRESENTATION ( #44, #133 ) ;
#182 = APPROVAL_PERSON_ORGANIZATION ( #120, #227, #155 ) ;
#183 = CC_DESIGN_PERSON_AND_ORGANIZATION_ASSIGNMENT ( #212, #1, ( #138 ) ) ;
#184 = VERTEX_POINT ( 'NONE', #219 ) ;
#185 = LOCAL_TIME ( 11, 46, 10.00000000000000000, #268 ) ;
#186 = CARTESIAN_POINT ( 'NONE',  ( 9.992007221626412800E-016, 4.884981308350691100E-015, 9.367096615399969300 ) ) ;
#187 = DATE_AND_TIME ( #127, #50 ) ;
#188 = CARTESIAN_POINT ( 'NONE',  ( 27.29499958876805000, -9.735996584276673400, 5.499592566441458900 ) ) ;
#189 = CC_DESIGN_SECURITY_CLASSIFICATION ( #138, ( #151 ) ) ;
#190 = CARTESIAN_POINT ( 'NONE',  ( 7.529667589158799900, 25.66594197132606300, 8.118408378646064300 ) ) ;
#191 = CARTESIAN_POINT ( 'NONE',  ( 2.239797730090391100E-014, 9.735996584276675100, -3.079598494088604500 ) ) ;
#192 = DIRECTION ( 'NONE',  ( 1.000000000000000000, 3.255498094088289900E-016, 6.103644493199580300E-016 ) ) ;
#193 = CARTESIAN_POINT ( 'NONE',  ( 9.838996371295310800, -9.735996584276678700, 20.37959849408861900 ) ) ;
#194 =( GEOMETRIC_REPRESENTATION_CONTEXT ( 3 ) GLOBAL_UNCERTAINTY_ASSIGNED_CONTEXT ( ( #241 ) ) GLOBAL_UNIT_ASSIGNED_CONTEXT ( ( #41, #208, #61 ) ) REPRESENTATION_CONTEXT ( 'NONE', 'WORKASPACE' ) );
#195 = DIRECTION ( 'NONE',  ( -1.000000000000000000, 3.255498094088289900E-016, -6.103644493199580300E-016 ) ) ;
#196 = FACE_OUTER_BOUND ( 'NONE', #7, .T. ) ;
#197 = DATE_AND_TIME ( #17, #235 ) ;
#198 = DIRECTION ( 'NONE',  ( -0.0000000000000000000, -0.0000000000000000000, -1.000000000000000000 ) ) ;
#199 = CARTESIAN_POINT ( 'NONE',  ( -2.239797730090390100E-014, 9.735996584276696500, 20.37959849408860400 ) ) ;
#200 = CARTESIAN_POINT ( 'NONE',  ( -27.29499958876804300, 9.735996584276668000, 5.499592566441442900 ) ) ;
#201 = ADVANCED_FACE ( 'NONE', ( #70 ), #215, .T. ) ;
#202 = CC_DESIGN_APPROVAL ( #227, ( #138 ) ) ;
#203 = ORIENTED_EDGE ( 'NONE', *, *, #42, .T. ) ;
#204 = DIRECTION ( 'NONE',  ( -0.0000000000000000000, -0.0000000000000000000, -1.000000000000000000 ) ) ;
#205 = SECURITY_CLASSIFICATION_LEVEL ( 'unclassified' ) ;
#206 = COORDINATED_UNIVERSAL_TIME_OFFSET ( 2, 0, .AHEAD. ) ;
#207 = LINE ( 'NONE', #100, #118 ) ;
#208 =( NAMED_UNIT ( * ) PLANE_ANGLE_UNIT ( ) SI_UNIT ( $, .RADIAN. ) );
#209 = EDGE_CURVE ( 'NONE', #240, #117, #281, .T. ) ;
#210 = EDGE_CURVE ( 'NONE', #240, #21, #225, .T. ) ;
#211 = CARTESIAN_POINT ( 'NONE',  ( 14.71286575119789600, -25.66594197132606300, 10.37618564137740800 ) ) ;
#212 = PERSON_AND_ORGANIZATION ( #154, #89 ) ;
#213 = PERSON_AND_ORGANIZATION ( #154, #89 ) ;
#214 = DIRECTION ( 'NONE',  ( 3.255498094088291900E-016, -1.000000000000000000, -3.109520010713523800E-016 ) ) ;
#215 = CYLINDRICAL_SURFACE ( 'NONE', #38, 25.39999999999999900 ) ;
#216 = CARTESIAN_POINT ( 'NONE',  ( 9.992007221626412800E-016, 4.884981308350691100E-015, 7.932903384600030500 ) ) ;
#217 = CC_DESIGN_DATE_AND_TIME_ASSIGNMENT ( #79, #134, ( #259 ) ) ;
#218 = EDGE_CURVE ( 'NONE', #123, #53, #48, .T. ) ;
#219 = CARTESIAN_POINT ( 'NONE',  ( -1.057692432951513700E-014, 25.40000000000000600, 9.367096615399965700 ) ) ;
#220 = APPROVAL_PERSON_ORGANIZATION ( #279, #5, #275 ) ;
#221 = CARTESIAN_POINT ( 'NONE',  ( -9.838996371295312600, 9.735996584276676900, -3.079598494088614300 ) ) ;
#222 = DIRECTION ( 'NONE',  ( -0.0000000000000000000, -0.0000000000000000000, -1.000000000000000000 ) ) ;
#223 = CARTESIAN_POINT ( 'NONE',  ( -9.838996371295337400, 9.735996584276700000, 20.37959849408859700 ) ) ;
#224 = AXIS2_PLACEMENT_3D ( 'NONE', #124, #198, #55 ) ;
#225 = LINE ( 'NONE', #165, #148 ) ;
#226 = EDGE_CURVE ( 'NONE', #184, #21, #25, .T. ) ;
#227 = APPROVAL ( #150, 'UNSPECIFIED' ) ;
#228 = ORIENTED_EDGE ( 'NONE', *, *, #226, .T. ) ;
#229 = DATE_AND_TIME ( #114, #9 ) ;
#230 = ORIENTED_EDGE ( 'NONE', *, *, #176, .T. ) ;
#231 =( BOUNDED_SURFACE ( )  B_SPLINE_SURFACE ( 3, 3, ( 
 ( #60, #103, #125, #128 ),
 ( #145, #170, #36, #54 ),
 ( #200, #130, #221, #172 ),
 ( #293, #82, #106, #295 ) ),
 .UNSPECIFIED., .F., .F., .F. ) 
 B_SPLINE_SURFACE_WITH_KNOTS ( ( 4, 4 ),
 ( 4, 4 ),
 ( 0.0000000000000000000, 1.000000000000000000 ),
 ( 0.0000000000000000000, 1.000000000000000000 ),
 .UNSPECIFIED. ) 
 GEOMETRIC_REPRESENTATION_ITEM ( )  RATIONAL_B_SPLINE_SURFACE ( (
 ( 1.000000000000000000, 0.9693240617404722500, 0.9693240617404722500, 1.000000000000000000),
 ( 0.8787301758361929500, 0.8517743032154578800, 0.8517743032154578800, 0.8787301758361929500),
 ( 0.8787301758361929500, 0.8517743032154578800, 0.8517743032154578800, 0.8787301758361929500),
 ( 1.000000000000000000, 0.9693240617404722500, 0.9693240617404722500, 1.000000000000000000) ) ) 
 REPRESENTATION_ITEM ( '' )  SURFACE ( )  );
#232 = EDGE_CURVE ( 'NONE', #21, #149, #257, .T. ) ;
#233 = CARTESIAN_POINT ( 'NONE',  ( 25.39999999999999900, 4.884981308350691100E-015, 9.367096615399969300 ) ) ;
#234 = DIRECTION ( 'NONE',  ( -0.0000000000000000000, -0.0000000000000000000, -1.000000000000000000 ) ) ;
#235 = LOCAL_TIME ( 11, 46, 10.00000000000000000, #284 ) ;
#236 = LOCAL_TIME ( 11, 46, 10.00000000000000000, #206 ) ;
#237 = CARTESIAN_POINT ( 'NONE',  ( 20.88854045614327100, -25.66594197132608100, 2.616038140905864400 ) ) ;
#238 = CARTESIAN_POINT ( 'NONE',  ( 27.29499958876804300, 9.735996584276680500, 5.499592566441461500 ) ) ;
#239 = CARTESIAN_POINT ( 'NONE',  ( 14.71286575119789000, 25.66594197132606700, 10.37618564137740900 ) ) ;
#240 = VERTEX_POINT ( 'NONE', #56 ) ;
#241 = UNCERTAINTY_MEASURE_WITH_UNIT (LENGTH_MEASURE( 1.000000000000000100E-005 ), #41, 'distance_accuracy_value', 'NONE');
#242 = DIRECTION ( 'NONE',  ( 0.0000000000000000000, 0.0000000000000000000, 1.000000000000000000 ) ) ;
#243 = CARTESIAN_POINT ( 'NONE',  ( -9.838996371295349900, -9.735996584276671600, 20.37959849408860400 ) ) ;
#244 = CIRCLE ( 'NONE', #24, 25.39999999999999900 ) ;
#245 = CLOSED_SHELL ( 'NONE', ( #108, #274, #19, #269, #201, #177 ) ) ;
#246 = CARTESIAN_POINT ( 'NONE',  ( -7.529667589158799900, 25.66594197132608500, 9.181591621353923900 ) ) ;
#247 = PRODUCT_RELATED_PRODUCT_CATEGORY ( 'detail', '', ( #131 ) ) ;
#248 = ORIENTED_EDGE ( 'NONE', *, *, #226, .F. ) ;
#249 = APPROVAL_STATUS ( 'not_yet_approved' ) ;
#250 = CIRCLE ( 'NONE', #72, 25.39999999999999900 ) ;
#251 = ORIENTED_EDGE ( 'NONE', *, *, #218, .F. ) ;
#252 = COORDINATED_UNIVERSAL_TIME_OFFSET ( 2, 0, .AHEAD. ) ;
#253 = ORIENTED_EDGE ( 'NONE', *, *, #93, .F. ) ;
#254 = CARTESIAN_POINT ( 'NONE',  ( 9.838996371295346300, -9.735996584276676900, -3.079598494088599600 ) ) ;
#255 = CARTESIAN_POINT ( 'NONE',  ( 20.88854045614328900, -25.66594197132606000, 14.68396185909414500 ) ) ;
#256 = AXIS2_PLACEMENT_3D ( 'NONE', #270, #59, #169 ) ;
#257 = CIRCLE ( 'NONE', #67, 25.39999999999999900 ) ;
#258 = DIRECTION ( 'NONE',  ( 1.000000000000000000, 0.0000000000000000000, 0.0000000000000000000 ) ) ;
#259 = PRODUCT_DEFINITION ( 'UNKNOWN', '', #151, #85 ) ;
#260 = DIRECTION ( 'NONE',  ( 1.000000000000000000, -8.881784197001252300E-016, 0.0000000000000000000 ) ) ;
#261 = CARTESIAN_POINT ( 'NONE',  ( 27.29499958876804700, -9.735996584276684000, 11.80040743355856000 ) ) ;
#262 = ORIENTED_EDGE ( 'NONE', *, *, #93, .T. ) ;
#263 = CC_DESIGN_APPROVAL ( #179, ( #151 ) ) ;
#264 = CARTESIAN_POINT ( 'NONE',  ( 14.71286575119788300, 25.66594197132608800, 6.923814358622590400 ) ) ;
#265 = CARTESIAN_POINT ( 'NONE',  ( -14.71286575119788700, 25.66594197132608500, 6.923814358622585100 ) ) ;
#266 = DIRECTION ( 'NONE',  ( 1.000000000000000000, 0.0000000000000000000, 0.0000000000000000000 ) ) ;
#267 = CALENDAR_DATE ( 2019, 8, 1 ) ;
#268 = COORDINATED_UNIVERSAL_TIME_OFFSET ( 2, 0, .AHEAD. ) ;
#269 = ADVANCED_FACE ( 'NONE', ( #158 ), #231, .T. ) ;
#270 = CARTESIAN_POINT ( 'NONE',  ( 9.992007221626412800E-016, 4.884981308350691100E-015, 9.367096615399969300 ) ) ;
#271 = EDGE_CURVE ( 'NONE', #149, #184, #171, .T. ) ;
#272 = PERSON_AND_ORGANIZATION_ROLE ( 'creator' ) ;
#273 = ORIENTED_EDGE ( 'NONE', *, *, #176, .F. ) ;
#274 = ADVANCED_FACE ( 'NONE', ( #196 ), #289, .T. ) ;
#275 = APPROVAL_ROLE ( '' ) ;
#276 = PERSON_AND_ORGANIZATION ( #154, #89 ) ;
#277 = APPROVAL_STATUS ( 'not_yet_approved' ) ;
#278 =( BOUNDED_SURFACE ( )  B_SPLINE_SURFACE ( 3, 3, ( 
 ( #282, #46, #211, #255 ),
 ( #94, #254, #160, #188 ),
 ( #191, #119, #288, #238 ),
 ( #139, #190, #239, #71 ) ),
 .UNSPECIFIED., .F., .F., .T. ) 
 B_SPLINE_SURFACE_WITH_KNOTS ( ( 4, 4 ),
 ( 4, 4 ),
 ( 0.0000000000000000000, 1.000000000000000000 ),
 ( 0.0000000000000000000, 1.000000000000000000 ),
 .UNSPECIFIED. ) 
 GEOMETRIC_REPRESENTATION_ITEM ( )  RATIONAL_B_SPLINE_SURFACE ( (
 ( 1.000000000000000000, 0.9693240617404724800, 0.9693240617404724800, 1.000000000000000000),
 ( 0.8787301758361929500, 0.8517743032154581100, 0.8517743032154581100, 0.8787301758361929500),
 ( 0.8787301758361929500, 0.8517743032154581100, 0.8517743032154581100, 0.8787301758361929500),
 ( 1.000000000000000000, 0.9693240617404724800, 0.9693240617404724800, 1.000000000000000000) ) ) 
 REPRESENTATION_ITEM ( '' )  SURFACE ( )  );
#279 = PERSON_AND_ORGANIZATION ( #154, #89 ) ;
#280 = EDGE_LOOP ( 'NONE', ( #251, #230, #262, #228, #92, #178 ) ) ;
#281 = CIRCLE ( 'NONE', #173, 25.39999999999999900 ) ;
#282 = CARTESIAN_POINT ( 'NONE',  ( 2.708820635202566000E-014, -25.66594197132606700, 8.118408378646059000 ) ) ;
#283 = CARTESIAN_POINT ( 'NONE',  ( 20.88854045614328200, 25.66594197132608500, 2.616038140905850600 ) ) ;
#284 = COORDINATED_UNIVERSAL_TIME_OFFSET ( 2, 0, .AHEAD. ) ;
#285 = DIRECTION ( 'NONE',  ( 1.000000000000000000, 0.0000000000000000000, 0.0000000000000000000 ) ) ;
#286 = AXIS2_PLACEMENT_3D ( 'NONE', #291, #112, #90 ) ;
#287 = EDGE_CURVE ( 'NONE', #149, #168, #244, .T. ) ;
#288 = CARTESIAN_POINT ( 'NONE',  ( 19.22526207475829500, 9.735996584276680500, -0.1293670220923002200 ) ) ;
#289 =( BOUNDED_SURFACE ( )  B_SPLINE_SURFACE ( 3, 3, ( 
 ( #77, #144, #34, #16 ),
 ( #39, #243, #104, #126 ),
 ( #199, #223, #143, #81 ),
 ( #292, #246, #265, #18 ) ),
 .UNSPECIFIED., .F., .F., .F. ) 
 B_SPLINE_SURFACE_WITH_KNOTS ( ( 4, 4 ),
 ( 4, 4 ),
 ( 0.0000000000000000000, 1.000000000000000000 ),
 ( 0.0000000000000000000, 1.000000000000000000 ),
 .UNSPECIFIED. ) 
 GEOMETRIC_REPRESENTATION_ITEM ( )  RATIONAL_B_SPLINE_SURFACE ( (
 ( 1.000000000000000000, 0.9693240617404724800, 0.9693240617404724800, 1.000000000000000000),
 ( 0.8787301758361928400, 0.8517743032154580000, 0.8517743032154580000, 0.8787301758361928400),
 ( 0.8787301758361928400, 0.8517743032154580000, 0.8517743032154580000, 0.8787301758361928400),
 ( 1.000000000000000000, 0.9693240617404724800, 0.9693240617404724800, 1.000000000000000000) ) ) 
 REPRESENTATION_ITEM ( '' )  SURFACE ( )  );
#290 = FACE_OUTER_BOUND ( 'NONE', #74, .T. ) ;
#291 = CARTESIAN_POINT ( 'NONE',  ( 0.0000000000000000000, 0.0000000000000000000, 0.0000000000000000000 ) ) ;
#292 = CARTESIAN_POINT ( 'NONE',  ( -1.037712131789911500E-014, 25.66594197132608100, 9.181591621353929300 ) ) ;
#293 = CARTESIAN_POINT ( 'NONE',  ( -20.88854045614329300, 25.66594197132605600, 14.68396185909413100 ) ) ;
#294 = EDGE_LOOP ( 'NONE', ( #273, #26, #40, #174, #102, #66 ) ) ;
#295 = CARTESIAN_POINT ( 'NONE',  ( 6.938893903907228400E-015, 25.66594197132606300, 8.118408378646057200 ) ) ;
ENDSEC;
END-ISO-10303-21;
