ISO-10303-21;
HEADER;
FILE_DESCRIPTION (( 'STEP AP203' ),
    '1' );
FILE_NAME ('111-1440E UVFS bi-cx 38.1 F700.STEP',
    '2019-01-08T08:14:28',
    ( '' ),
    ( '' ),
    'SwSTEP 2.0',
    'SolidWorks 2017',
    '' );
FILE_SCHEMA (( 'CONFIG_CONTROL_DESIGN' ));
ENDSEC;

DATA;
#1 = EDGE_CURVE ( 'NONE', #128, #295, #25, .T. ) ;
#2 = CALENDAR_DATE ( 2019, 8, 1 ) ;
#3 = APPROVAL ( #63, 'UNSPECIFIED' ) ;
#4 = CARTESIAN_POINT ( 'NONE',  ( 3.850769970728502900E-031, 19.27853645107778400, 0.2792097985633290600 ) ) ;
#5 = DIRECTION ( 'NONE',  ( 1.000000000000000000, 0.0000000000000000000, 0.0000000000000000000 ) ) ;
#6 = PERSON_AND_ORGANIZATION ( #229, #120 ) ;
#7 = CARTESIAN_POINT ( 'NONE',  ( -4.662936703425659800E-015, -8.881784197001250400E-016, 4.727372070010360100 ) ) ;
#8 = DIRECTION ( 'NONE',  ( 1.000000000000000000, 0.0000000000000000000, 0.0000000000000000000 ) ) ;
#9 = CARTESIAN_POINT ( 'NONE',  ( 12.77236444601597000, 19.27853645107789800, 4.628852740136309800 ) ) ;
#10 = APPROVAL_DATE_TIME ( #43, #109 ) ;
#11 = FACE_OUTER_BOUND ( 'NONE', #214, .T. ) ;
#12 = EDGE_CURVE ( 'NONE', #209, #189, #67, .T. ) ;
#13 = DIRECTION ( 'NONE',  ( 0.0000000000000000000, 0.0000000000000000000, 1.000000000000000000 ) ) ;
#14 = CARTESIAN_POINT ( 'NONE',  ( -6.386513113064584200, -19.27853645107782700, 4.720790201436675400 ) ) ;
#15 = FACE_OUTER_BOUND ( 'NONE', #64, .T. ) ;
#16 = CARTESIAN_POINT ( 'NONE',  ( 0.0000000000000000000, 0.0000000000000000000, 0.0000000000000000000 ) ) ;
#17 = APPLICATION_CONTEXT ( 'configuration controlled 3d designs of mechanical parts and assemblies' ) ;
#18 = DATE_AND_TIME ( #124, #23 ) ;
#19 = CIRCLE ( 'NONE', #91, 665.7000000000000500 ) ;
#20 = AXIS2_PLACEMENT_3D ( 'NONE', #16, #44, #158 ) ;
#21 = CIRCLE ( 'NONE', #40, 665.7000000000000500 ) ;
#22 = AXIS2_PLACEMENT_3D ( 'NONE', #41, #257, #224 ) ;
#23 = LOCAL_TIME ( 10, 14, 28.00000000000000000, #169 ) ;
#24 =( BOUNDED_SURFACE ( )  B_SPLINE_SURFACE ( 3, 3, ( 
 ( #48, #97, #272, #271 ),
 ( #141, #27, #170, #190 ),
 ( #212, #71, #213, #232 ),
 ( #4, #172, #191, #50 ) ),
 .UNSPECIFIED., .F., .F., .F. ) 
 B_SPLINE_SURFACE_WITH_KNOTS ( ( 4, 4 ),
 ( 4, 4 ),
 ( 0.0000000000000000000, 1.000000000000000000 ),
 ( 0.0000000000000000000, 1.000000000000000000 ),
 .UNSPECIFIED. ) 
 GEOMETRIC_REPRESENTATION_ITEM ( )  RATIONAL_B_SPLINE_SURFACE ( (
 ( 1.000000000000000000, 0.9999309189953268200, 0.9999309189953268200, 1.000000000000000000),
 ( 0.9997203847593377800, 0.9996513230707663200, 0.9996513230707663200, 0.9997203847593377800),
 ( 0.9997203847593377800, 0.9996513230707663200, 0.9996513230707663200, 0.9997203847593377800),
 ( 1.000000000000000000, 0.9999309189953268200, 0.9999309189953268200, 1.000000000000000000) ) ) 
 REPRESENTATION_ITEM ( '' )  SURFACE ( )  );
#25 = CIRCLE ( 'NONE', #70, 19.05000000000000100 ) ;
#26 = EDGE_CURVE ( 'NONE', #253, #220, #19, .T. ) ;
#27 = CARTESIAN_POINT ( 'NONE',  ( 6.390086394316197600, -6.427976177131776900, -0.09309596390472950300 ) ) ;
#28 = EDGE_LOOP ( 'NONE', ( #140, #180, #130 ) ) ;
#29 = DIRECTION ( 'NONE',  ( 0.0000000000000000000, 0.0000000000000000000, 1.000000000000000000 ) ) ;
#30 = CARTESIAN_POINT ( 'NONE',  ( -19.05000000000000400, 1.444773732675583000E-015, 0.2726279299896440800 ) ) ;
#31 = DATE_AND_TIME ( #2, #115 ) ;
#32 = ORIENTED_EDGE ( 'NONE', *, *, #12, .F. ) ;
#33 = DIRECTION ( 'NONE',  ( 1.000000000000000000, 0.0000000000000000000, 0.0000000000000000000 ) ) ;
#34 = ADVANCED_FACE ( 'NONE', ( #163 ), #73, .T. ) ;
#35 = CC_DESIGN_PERSON_AND_ORGANIZATION_ASSIGNMENT ( #247, #136, ( #198 ) ) ;
#36 = CARTESIAN_POINT ( 'NONE',  ( -1.630640067418198400E-013, -6.427976177131775200, -0.09309596390480880100 ) ) ;
#37 = CARTESIAN_POINT ( 'NONE',  ( 12.77951063825045000, 6.427976177131732500, 5.001107063203719800 ) ) ;
#38 = APPROVAL_DATE_TIME ( #31, #268 ) ;
#39 = ORIENTED_EDGE ( 'NONE', *, *, #237, .T. ) ;
#40 = AXIS2_PLACEMENT_3D ( 'NONE', #160, #86, #242 ) ;
#41 = CARTESIAN_POINT ( 'NONE',  ( -4.662936703425659800E-015, -8.881784197001250400E-016, 0.2726279299896440800 ) ) ;
#42 = DIRECTION ( 'NONE',  ( -0.0000000000000000000, -0.0000000000000000000, -1.000000000000000000 ) ) ;
#43 = DATE_AND_TIME ( #166, #68 ) ;
#44 = DIRECTION ( 'NONE',  ( 0.0000000000000000000, 0.0000000000000000000, 1.000000000000000000 ) ) ;
#45 = ORIENTED_EDGE ( 'NONE', *, *, #103, .T. ) ;
#46 = APPROVAL_PERSON_ORGANIZATION ( #159, #268, #210 ) ;
#47 = ORIENTED_EDGE ( 'NONE', *, *, #26, .F. ) ;
#48 = CARTESIAN_POINT ( 'NONE',  ( 3.850769970728502900E-031, -19.27853645107794400, 0.2792097985633290600 ) ) ;
#49 = CC_DESIGN_DATE_AND_TIME_ASSIGNMENT ( #291, #164, ( #260 ) ) ;
#50 = CARTESIAN_POINT ( 'NONE',  ( 19.15623057577644400, 19.27853645107778400, 0.5550031290680298400 ) ) ;
#51 = DIRECTION ( 'NONE',  ( 0.0000000000000000000, 0.0000000000000000000, 1.000000000000000000 ) ) ;
#52 = PERSON_AND_ORGANIZATION ( #229, #120 ) ;
#53 = CARTESIAN_POINT ( 'NONE',  ( -4.662936703425659800E-015, -8.881784197001250400E-016, 4.727372070010360100 ) ) ;
#54 = AXIS2_PLACEMENT_3D ( 'NONE', #123, #51, #122 ) ;
#55 = EDGE_CURVE ( 'NONE', #253, #143, #106, .T. ) ;
#56 = CLOSED_SHELL ( 'NONE', ( #82, #286, #275, #104, #34, #195 ) ) ;
#57 = CARTESIAN_POINT ( 'NONE',  ( 19.16694856826426700, -6.427976177131660600, 4.817148325858588500 ) ) ;
#58 = CARTESIAN_POINT ( 'NONE',  ( 3.853450624573786100E-031, 6.427976177131729900, 5.093095963904733700 ) ) ;
#59 = CARTESIAN_POINT ( 'NONE',  ( -19.16694856826416800, 6.427976177131729900, 4.817148325858537900 ) ) ;
#60 = CARTESIAN_POINT ( 'NONE',  ( -12.77951063825032600, 6.427976177131732500, 5.001107063203667400 ) ) ;
#61 = COORDINATED_UNIVERSAL_TIME_OFFSET ( 2, 0, .AHEAD. ) ;
#62 =( BOUNDED_SURFACE ( )  B_SPLINE_SURFACE ( 3, 3, ( 
 ( #192, #256, #252, #129 ),
 ( #215, #125, #179, #36 ),
 ( #282, #99, #200, #278 ),
 ( #126, #194, #102, #284 ) ),
 .UNSPECIFIED., .F., .F., .F. ) 
 B_SPLINE_SURFACE_WITH_KNOTS ( ( 4, 4 ),
 ( 4, 4 ),
 ( 0.0000000000000000000, 1.000000000000000000 ),
 ( 0.0000000000000000000, 1.000000000000000000 ),
 .UNSPECIFIED. ) 
 GEOMETRIC_REPRESENTATION_ITEM ( )  RATIONAL_B_SPLINE_SURFACE ( (
 ( 1.000000000000000000, 0.9999309189953268200, 0.9999309189953268200, 1.000000000000000000),
 ( 0.9997203847593377800, 0.9996513230707663200, 0.9996513230707663200, 0.9997203847593377800),
 ( 0.9997203847593377800, 0.9996513230707663200, 0.9996513230707663200, 0.9997203847593377800),
 ( 1.000000000000000000, 0.9999309189953268200, 0.9999309189953268200, 1.000000000000000000) ) ) 
 REPRESENTATION_ITEM ( '' )  SURFACE ( )  );
#63 = APPROVAL_STATUS ( 'not_yet_approved' ) ;
#64 = EDGE_LOOP ( 'NONE', ( #47, #78, #249 ) ) ;
#65 = CC_DESIGN_PERSON_AND_ORGANIZATION_ASSIGNMENT ( #285, #266, ( #260 ) ) ;
#66 = CC_DESIGN_DATE_AND_TIME_ASSIGNMENT ( #110, #230, ( #211 ) ) ;
#67 = LINE ( 'NONE', #144, #69 ) ;
#68 = LOCAL_TIME ( 10, 14, 28.00000000000000000, #61 ) ;
#69 = VECTOR ( 'NONE', #29, 1000.000000000000000 ) ;
#70 = AXIS2_PLACEMENT_3D ( 'NONE', #7, #95, #72 ) ;
#71 = CARTESIAN_POINT ( 'NONE',  ( 6.390086394316197600, 6.427976177131618000, -0.09309596390473079400 ) ) ;
#72 = DIRECTION ( 'NONE',  ( 1.000000000000000000, 0.0000000000000000000, 0.0000000000000000000 ) ) ;
#73 = CYLINDRICAL_SURFACE ( 'NONE', #54, 19.05000000000000100 ) ;
#74 = AXIS2_PLACEMENT_3D ( 'NONE', #53, #218, #33 ) ;
#75 = DIRECTION ( 'NONE',  ( -0.0000000000000000000, -0.0000000000000000000, -1.000000000000000000 ) ) ;
#76 = CARTESIAN_POINT ( 'NONE',  ( 19.15623057577658600, -19.27853645107783000, 4.444996870932027600 ) ) ;
#77 = CARTESIAN_POINT ( 'NONE',  ( 1.630640067418198700E-013, -19.27853645107783000, 4.720790201436754400 ) ) ;
#78 = ORIENTED_EDGE ( 'NONE', *, *, #55, .T. ) ;
#79 = CARTESIAN_POINT ( 'NONE',  ( 1.630640067418198700E-013, 19.27853645107790100, 4.720790201436754400 ) ) ;
#80 = CC_DESIGN_PERSON_AND_ORGANIZATION_ASSIGNMENT ( #219, #113, ( #211 ) ) ;
#81 = CARTESIAN_POINT ( 'NONE',  ( 19.16694856826426700, 6.427976177131729900, 4.817148325858590300 ) ) ;
#82 = ADVANCED_FACE ( 'NONE', ( #265 ), #24, .T. ) ;
#83 = CARTESIAN_POINT ( 'NONE',  ( -6.390086394316214500, -6.427976177131663200, 5.093095963904734600 ) ) ;
#84 = ORIENTED_EDGE ( 'NONE', *, *, #103, .F. ) ;
#85 = CARTESIAN_POINT ( 'NONE',  ( -6.386513113064584200, 19.27853645107789800, 4.720790201436675400 ) ) ;
#86 = DIRECTION ( 'NONE',  ( -1.000000000000000000, 0.0000000000000000000, 0.0000000000000000000 ) ) ;
#87 = DIRECTION ( 'NONE',  ( -0.0000000000000000000, -0.0000000000000000000, -1.000000000000000000 ) ) ;
#88 = APPROVAL_PERSON_ORGANIZATION ( #6, #3, #264 ) ;
#89 = AXIS2_PLACEMENT_3D ( 'NONE', #182, #42, #155 ) ;
#90 = LINE ( 'NONE', #196, #246 ) ;
#91 = AXIS2_PLACEMENT_3D ( 'NONE', #277, #233, #142 ) ;
#92 = ORIENTED_EDGE ( 'NONE', *, *, #270, .F. ) ;
#93 = CIRCLE ( 'NONE', #100, 19.05000000000000100 ) ;
#94 = ORIENTED_EDGE ( 'NONE', *, *, #231, .F. ) ;
#95 = DIRECTION ( 'NONE',  ( -0.0000000000000000000, -0.0000000000000000000, -1.000000000000000000 ) ) ;
#96 = CC_DESIGN_SECURITY_CLASSIFICATION ( #211, ( #198 ) ) ;
#97 = CARTESIAN_POINT ( 'NONE',  ( 6.386513113064568300, -19.27853645107794000, 0.2792097985633290600 ) ) ;
#98 = CARTESIAN_POINT ( 'NONE',  ( -4.662936703425659800E-015, -8.881784197001250400E-016, 0.2726279299896440800 ) ) ;
#99 = CARTESIAN_POINT ( 'NONE',  ( -12.77951063825045000, 6.427976177131618000, -0.001107063203713992400 ) ) ;
#100 = AXIS2_PLACEMENT_3D ( 'NONE', #204, #87, #239 ) ;
#101 = CARTESIAN_POINT ( 'NONE',  ( 6.390086394316353100, -6.427976177131663200, 5.093095963904810100 ) ) ;
#102 = CARTESIAN_POINT ( 'NONE',  ( -6.386513113064726400, 19.27853645107778400, 0.2792097985632512900 ) ) ;
#103 = EDGE_CURVE ( 'NONE', #209, #253, #251, .T. ) ;
#104 = ADVANCED_FACE ( 'NONE', ( #15 ), #62, .T. ) ;
#105 = CARTESIAN_POINT ( 'NONE',  ( 1.595945597898662300E-013, 6.427976177131729900, 5.093095963904812800 ) ) ;
#106 = CIRCLE ( 'NONE', #208, 19.05000000000000100 ) ;
#107 = CARTESIAN_POINT ( 'NONE',  ( -19.05000000000000400, 1.444773732675583000E-015, 4.727372070010360100 ) ) ;
#108 = CARTESIAN_POINT ( 'NONE',  ( -12.77951063825032600, -6.427976177131663200, 5.001107063203665600 ) ) ;
#109 = APPROVAL ( #119, 'UNSPECIFIED' ) ;
#110 = DATE_AND_TIME ( #216, #175 ) ;
#111 =( NAMED_UNIT ( * ) PLANE_ANGLE_UNIT ( ) SI_UNIT ( $, .RADIAN. ) );
#112 = CARTESIAN_POINT ( 'NONE',  ( 3.851859888774471700E-031, -19.04999999999912300, 0.2726279299896273200 ) ) ;
#113 = PERSON_AND_ORGANIZATION_ROLE ( 'classification_officer' ) ;
#114 =( BOUNDED_SURFACE ( )  B_SPLINE_SURFACE ( 3, 3, ( 
 ( #202, #14, #221, #290 ),
 ( #288, #83, #108, #222 ),
 ( #58, #259, #60, #59 ),
 ( #223, #85, #240, #241 ) ),
 .UNSPECIFIED., .F., .F., .F. ) 
 B_SPLINE_SURFACE_WITH_KNOTS ( ( 4, 4 ),
 ( 4, 4 ),
 ( 0.0000000000000000000, 1.000000000000000000 ),
 ( 0.0000000000000000000, 1.000000000000000000 ),
 .UNSPECIFIED. ) 
 GEOMETRIC_REPRESENTATION_ITEM ( )  RATIONAL_B_SPLINE_SURFACE ( (
 ( 1.000000000000000000, 0.9999309189953268200, 0.9999309189953268200, 1.000000000000000000),
 ( 0.9997203847593377800, 0.9996513230707663200, 0.9996513230707663200, 0.9997203847593377800),
 ( 0.9997203847593377800, 0.9996513230707663200, 0.9996513230707663200, 0.9997203847593377800),
 ( 1.000000000000000000, 0.9999309189953268200, 0.9999309189953268200, 1.000000000000000000) ) ) 
 REPRESENTATION_ITEM ( '' )  SURFACE ( )  );
#115 = LOCAL_TIME ( 10, 14, 28.00000000000000000, #197 ) ;
#116 = VERTEX_POINT ( 'NONE', #217 ) ;
#117 = CIRCLE ( 'NONE', #283, 19.05000000000000100 ) ;
#118 =( GEOMETRIC_REPRESENTATION_CONTEXT ( 3 ) GLOBAL_UNCERTAINTY_ASSIGNED_CONTEXT ( ( #281 ) ) GLOBAL_UNIT_ASSIGNED_CONTEXT ( ( #131, #111, #156 ) ) REPRESENTATION_CONTEXT ( 'NONE', 'WORKASPACE' ) );
#119 = APPROVAL_STATUS ( 'not_yet_approved' ) ;
#120 = ORGANIZATION ( 'UNSPECIFIED', 'UNSPECIFIED', '' ) ;
#121 = ORIENTED_EDGE ( 'NONE', *, *, #237, .F. ) ;
#122 = DIRECTION ( 'NONE',  ( 1.000000000000000000, 0.0000000000000000000, 0.0000000000000000000 ) ) ;
#123 = CARTESIAN_POINT ( 'NONE',  ( -4.662936703425659800E-015, -8.881784197001250400E-016, 0.2726279299896440800 ) ) ;
#124 = CALENDAR_DATE ( 2019, 8, 1 ) ;
#125 = CARTESIAN_POINT ( 'NONE',  ( -12.77951063825045000, -6.427976177131776900, -0.001107063203712582800 ) ) ;
#126 = CARTESIAN_POINT ( 'NONE',  ( -19.15623057577658600, 19.27853645107778400, 0.5550031290679768900 ) ) ;
#127 = EDGE_CURVE ( 'NONE', #189, #128, #203, .T. ) ;
#128 = VERTEX_POINT ( 'NONE', #146 ) ;
#129 = CARTESIAN_POINT ( 'NONE',  ( -1.630640067418198700E-013, -19.27853645107794400, 0.2792097985632497300 ) ) ;
#130 = ORIENTED_EDGE ( 'NONE', *, *, #294, .F. ) ;
#131 =( LENGTH_UNIT ( ) NAMED_UNIT ( * ) SI_UNIT ( .MILLI., .METRE. ) );
#132 = APPLICATION_PROTOCOL_DEFINITION ( 'international standard', 'config_control_design', 1994, #262 ) ;
#133 = CC_DESIGN_PERSON_AND_ORGANIZATION_ASSIGNMENT ( #188, #226, ( #248 ) ) ;
#134 = APPROVAL_ROLE ( '' ) ;
#135 = ORIENTED_EDGE ( 'NONE', *, *, #127, .F. ) ;
#136 = PERSON_AND_ORGANIZATION_ROLE ( 'design_supplier' ) ;
#137 = SECURITY_CLASSIFICATION_LEVEL ( 'unclassified' ) ;
#138 = EDGE_LOOP ( 'NONE', ( #45, #199, #287 ) ) ;
#139 = FACE_OUTER_BOUND ( 'NONE', #28, .T. ) ;
#140 = ORIENTED_EDGE ( 'NONE', *, *, #1, .F. ) ;
#141 = CARTESIAN_POINT ( 'NONE',  ( 3.852924492906277900E-031, -6.427976177131775200, -0.09309596390472946200 ) ) ;
#142 = DIRECTION ( 'NONE',  ( 0.0000000000000000000, -1.000000000000000000, -6.671011113866044100E-016 ) ) ;
#143 = VERTEX_POINT ( 'NONE', #30 ) ;
#144 = CARTESIAN_POINT ( 'NONE',  ( 19.04999999999999700, -8.881784197001250400E-016, 0.2726279299896440800 ) ) ;
#145 = CARTESIAN_POINT ( 'NONE',  ( -4.662936703425659800E-015, -8.881784197001250400E-016, 0.2726279299896440800 ) ) ;
#146 = CARTESIAN_POINT ( 'NONE',  ( 3.851859888774471700E-031, -19.04999999999906300, 4.727372070010376100 ) ) ;
#147 = CARTESIAN_POINT ( 'NONE',  ( 19.15623057577658600, 19.27853645107790100, 4.444996870932027600 ) ) ;
#148 = COORDINATED_UNIVERSAL_TIME_OFFSET ( 2, 0, .AHEAD. ) ;
#149 = ORIENTED_EDGE ( 'NONE', *, *, #1, .T. ) ;
#150 = CC_DESIGN_PERSON_AND_ORGANIZATION_ASSIGNMENT ( #52, #243, ( #198 ) ) ;
#151 = CARTESIAN_POINT ( 'NONE',  ( 1.595945597898662300E-013, -6.427976177131660600, 5.093095963904811000 ) ) ;
#152 = CARTESIAN_POINT ( 'NONE',  ( 3.851859888774471700E-031, 19.04999999999901000, 0.2726279299896273200 ) ) ;
#153 = CARTESIAN_POINT ( 'NONE',  ( 12.77236444601597000, -19.27853645107782700, 4.628852740136309800 ) ) ;
#154 = ORIENTED_EDGE ( 'NONE', *, *, #127, .T. ) ;
#155 = DIRECTION ( 'NONE',  ( 1.000000000000000000, -8.881784197001252300E-016, 0.0000000000000000000 ) ) ;
#156 =( NAMED_UNIT ( * ) SI_UNIT ( $, .STERADIAN. ) SOLID_ANGLE_UNIT ( ) );
#157 = CC_DESIGN_APPROVAL ( #3, ( #198 ) ) ;
#158 = DIRECTION ( 'NONE',  ( 1.000000000000000000, 0.0000000000000000000, 0.0000000000000000000 ) ) ;
#159 = PERSON_AND_ORGANIZATION ( #229, #120 ) ;
#160 = CARTESIAN_POINT ( 'NONE',  ( 0.0000000000000000000, 0.0000000000000000000, -660.7000000000000500 ) ) ;
#161 =( BOUNDED_SURFACE ( )  B_SPLINE_SURFACE ( 3, 3, ( 
 ( #76, #153, #235, #77 ),
 ( #57, #176, #101, #151 ),
 ( #81, #37, #201, #105 ),
 ( #147, #9, #177, #79 ) ),
 .UNSPECIFIED., .F., .F., .F. ) 
 B_SPLINE_SURFACE_WITH_KNOTS ( ( 4, 4 ),
 ( 4, 4 ),
 ( 0.0000000000000000000, 1.000000000000000000 ),
 ( 0.0000000000000000000, 1.000000000000000000 ),
 .UNSPECIFIED. ) 
 GEOMETRIC_REPRESENTATION_ITEM ( )  RATIONAL_B_SPLINE_SURFACE ( (
 ( 1.000000000000000000, 0.9999309189953268200, 0.9999309189953268200, 1.000000000000000000),
 ( 0.9997203847593377800, 0.9996513230707663200, 0.9996513230707663200, 0.9997203847593377800),
 ( 0.9997203847593377800, 0.9996513230707663200, 0.9996513230707663200, 0.9997203847593377800),
 ( 1.000000000000000000, 0.9999309189953268200, 0.9999309189953268200, 1.000000000000000000) ) ) 
 REPRESENTATION_ITEM ( '' )  SURFACE ( )  );
#162 = PERSON_AND_ORGANIZATION ( #229, #120 ) ;
#163 = FACE_OUTER_BOUND ( 'NONE', #207, .T. ) ;
#164 = DATE_TIME_ROLE ( 'creation_date' ) ;
#165 = PRODUCT_RELATED_PRODUCT_CATEGORY ( 'detail', '', ( #248 ) ) ;
#166 = CALENDAR_DATE ( 2019, 8, 1 ) ;
#167 = AXIS2_PLACEMENT_3D ( 'NONE', #98, #181, #8 ) ;
#168 = ADVANCED_BREP_SHAPE_REPRESENTATION ( '111-1440E UVFS bi-cx 38.1 F700', ( #174, #20 ), #118 ) ;
#169 = COORDINATED_UNIVERSAL_TIME_OFFSET ( 2, 0, .AHEAD. ) ;
#170 = CARTESIAN_POINT ( 'NONE',  ( 12.77951063825029700, -6.427976177131776900, -0.001107063203658562600 ) ) ;
#171 = ORIENTED_EDGE ( 'NONE', *, *, #55, .F. ) ;
#172 = CARTESIAN_POINT ( 'NONE',  ( 6.386513113064568300, 19.27853645107778400, 0.2792097985633290600 ) ) ;
#173 = DIRECTION ( 'NONE',  ( -0.0000000000000000000, -0.0000000000000000000, -1.000000000000000000 ) ) ;
#174 = MANIFOLD_SOLID_BREP ( 'Imported1', #56 ) ;
#175 = LOCAL_TIME ( 10, 14, 28.00000000000000000, #228 ) ;
#176 = CARTESIAN_POINT ( 'NONE',  ( 12.77951063825045000, -6.427976177131663200, 5.001107063203718000 ) ) ;
#177 = CARTESIAN_POINT ( 'NONE',  ( 6.386513113064726400, 19.27853645107789800, 4.720790201436752700 ) ) ;
#178 = CARTESIAN_POINT ( 'NONE',  ( -4.662936703425659800E-015, -8.881784197001250400E-016, 0.2726279299896440800 ) ) ;
#179 = CARTESIAN_POINT ( 'NONE',  ( -6.390086394316356600, -6.427976177131776900, -0.09309596390480724700 ) ) ;
#180 = ORIENTED_EDGE ( 'NONE', *, *, #270, .T. ) ;
#181 = DIRECTION ( 'NONE',  ( -0.0000000000000000000, -0.0000000000000000000, -1.000000000000000000 ) ) ;
#182 = CARTESIAN_POINT ( 'NONE',  ( -4.662936703425659800E-015, -8.881784197001250400E-016, 4.727372070010360100 ) ) ;
#183 = CARTESIAN_POINT ( 'NONE',  ( -4.662936703425659800E-015, -8.881784197001250400E-016, 4.727372070010360100 ) ) ;
#184 = APPLICATION_PROTOCOL_DEFINITION ( 'international standard', 'config_control_design', 1994, #17 ) ;
#185 = DIRECTION ( 'NONE',  ( 1.000000000000000000, 0.0000000000000000000, 0.0000000000000000000 ) ) ;
#186 = AXIS2_PLACEMENT_3D ( 'NONE', #178, #75, #185 ) ;
#187 = ORIENTED_EDGE ( 'NONE', *, *, #250, .F. ) ;
#188 = PERSON_AND_ORGANIZATION ( #229, #120 ) ;
#189 = VERTEX_POINT ( 'NONE', #280 ) ;
#190 = CARTESIAN_POINT ( 'NONE',  ( 19.16694856826412200, -6.427976177131775200, 0.1828516741414684700 ) ) ;
#191 = CARTESIAN_POINT ( 'NONE',  ( 12.77236444601582300, 19.27853645107778400, 0.3711472598637486900 ) ) ;
#192 = CARTESIAN_POINT ( 'NONE',  ( -19.15623057577658600, -19.27853645107794400, 0.5550031290679768900 ) ) ;
#193 = CIRCLE ( 'NONE', #89, 19.05000000000000100 ) ;
#194 = CARTESIAN_POINT ( 'NONE',  ( -12.77236444601597000, 19.27853645107778400, 0.3711472598636946200 ) ) ;
#195 = ADVANCED_FACE ( 'NONE', ( #11 ), #161, .T. ) ;
#196 = CARTESIAN_POINT ( 'NONE',  ( -19.05000000000000400, 1.444773732675583000E-015, 0.2726279299896440800 ) ) ;
#197 = COORDINATED_UNIVERSAL_TIME_OFFSET ( 2, 0, .AHEAD. ) ;
#198 = PRODUCT_DEFINITION_FORMATION_WITH_SPECIFIED_SOURCE ( 'ANY', '', #248, .NOT_KNOWN. ) ;
#199 = ORIENTED_EDGE ( 'NONE', *, *, #26, .T. ) ;
#200 = CARTESIAN_POINT ( 'NONE',  ( -6.390086394316356600, 6.427976177131618000, -0.09309596390480866200 ) ) ;
#201 = CARTESIAN_POINT ( 'NONE',  ( 6.390086394316353100, 6.427976177131732500, 5.093095963904811900 ) ) ;
#202 = CARTESIAN_POINT ( 'NONE',  ( 3.851295808187717200E-031, -19.27853645107783000, 4.720790201436675400 ) ) ;
#203 = CIRCLE ( 'NONE', #74, 19.05000000000000100 ) ;
#204 = CARTESIAN_POINT ( 'NONE',  ( -4.662936703425659800E-015, -8.881784197001250400E-016, 0.2726279299896440800 ) ) ;
#205 = MECHANICAL_CONTEXT ( 'NONE', #17, 'mechanical' ) ;
#206 = ORIENTED_EDGE ( 'NONE', *, *, #244, .F. ) ;
#207 = EDGE_LOOP ( 'NONE', ( #121, #171, #84, #263, #154, #149 ) ) ;
#208 = AXIS2_PLACEMENT_3D ( 'NONE', #145, #173, #5 ) ;
#209 = VERTEX_POINT ( 'NONE', #254 ) ;
#210 = APPROVAL_ROLE ( '' ) ;
#211 = SECURITY_CLASSIFICATION ( '', '', #137 ) ;
#212 = CARTESIAN_POINT ( 'NONE',  ( 3.852924492906277000E-031, 6.427976177131616200, -0.09309596390473076600 ) ) ;
#213 = CARTESIAN_POINT ( 'NONE',  ( 12.77951063825029700, 6.427976177131618000, -0.001107063203659863600 ) ) ;
#214 = EDGE_LOOP ( 'NONE', ( #92, #135, #206 ) ) ;
#215 = CARTESIAN_POINT ( 'NONE',  ( -19.16694856826426700, -6.427976177131775200, 0.1828516741414157000 ) ) ;
#216 = CALENDAR_DATE ( 2019, 8, 1 ) ;
#217 = CARTESIAN_POINT ( 'NONE',  ( 3.851859888774471700E-031, 19.04999999999906600, 4.727372070010376100 ) ) ;
#218 = DIRECTION ( 'NONE',  ( -0.0000000000000000000, -0.0000000000000000000, -1.000000000000000000 ) ) ;
#219 = PERSON_AND_ORGANIZATION ( #229, #120 ) ;
#220 = VERTEX_POINT ( 'NONE', #152 ) ;
#221 = CARTESIAN_POINT ( 'NONE',  ( -12.77236444601585000, -19.27853645107782700, 4.628852740136256500 ) ) ;
#222 = CARTESIAN_POINT ( 'NONE',  ( -19.16694856826416800, -6.427976177131660600, 4.817148325858536100 ) ) ;
#223 = CARTESIAN_POINT ( 'NONE',  ( 3.851295808187717200E-031, 19.27853645107790100, 4.720790201436675400 ) ) ;
#224 = DIRECTION ( 'NONE',  ( 1.000000000000000000, 0.0000000000000000000, 0.0000000000000000000 ) ) ;
#225 = APPROVAL_PERSON_ORGANIZATION ( #162, #109, #134 ) ;
#226 = PERSON_AND_ORGANIZATION_ROLE ( 'design_owner' ) ;
#227 = CIRCLE ( 'NONE', #186, 19.05000000000000100 ) ;
#228 = COORDINATED_UNIVERSAL_TIME_OFFSET ( 2, 0, .AHEAD. ) ;
#229 = PERSON ( 'UNSPECIFIED', 'UNSPECIFIED', 'UNSPECIFIED', ('UNSPECIFIED'), ('UNSPECIFIED'), ('UNSPECIFIED') ) ;
#230 = DATE_TIME_ROLE ( 'classification_date' ) ;
#231 = EDGE_CURVE ( 'NONE', #143, #220, #227, .T. ) ;
#232 = CARTESIAN_POINT ( 'NONE',  ( 19.16694856826412200, 6.427976177131616200, 0.1828516741414671600 ) ) ;
#233 = DIRECTION ( 'NONE',  ( 1.000000000000000000, 0.0000000000000000000, 0.0000000000000000000 ) ) ;
#234 = SHAPE_DEFINITION_REPRESENTATION ( #236, #168 ) ;
#235 = CARTESIAN_POINT ( 'NONE',  ( 6.386513113064726400, -19.27853645107782700, 4.720790201436752700 ) ) ;
#236 = PRODUCT_DEFINITION_SHAPE ( 'NONE', 'NONE',  #260 ) ;
#237 = EDGE_CURVE ( 'NONE', #143, #295, #90, .T. ) ;
#238 = DIRECTION ( 'NONE',  ( -0.0000000000000000000, -0.0000000000000000000, -1.000000000000000000 ) ) ;
#239 = DIRECTION ( 'NONE',  ( 1.000000000000000000, -8.881784197001252300E-016, 0.0000000000000000000 ) ) ;
#240 = CARTESIAN_POINT ( 'NONE',  ( -12.77236444601585300, 19.27853645107789800, 4.628852740136256500 ) ) ;
#241 = CARTESIAN_POINT ( 'NONE',  ( -19.15623057577649000, 19.27853645107790100, 4.444996870931974300 ) ) ;
#242 = DIRECTION ( 'NONE',  ( 0.0000000000000000000, -1.000000000000000000, 6.671011113866044100E-016 ) ) ;
#243 = PERSON_AND_ORGANIZATION_ROLE ( 'creator' ) ;
#244 = EDGE_CURVE ( 'NONE', #116, #189, #193, .T. ) ;
#245 = CALENDAR_DATE ( 2019, 8, 1 ) ;
#246 = VECTOR ( 'NONE', #13, 1000.000000000000000 ) ;
#247 = PERSON_AND_ORGANIZATION ( #229, #120 ) ;
#248 = PRODUCT ( '111-1440E UVFS bi-cx 38.1 F700', '111-1440E UVFS bi-cx 38.1 F700', '', ( #205 ) ) ;
#249 = ORIENTED_EDGE ( 'NONE', *, *, #231, .T. ) ;
#250 = EDGE_CURVE ( 'NONE', #220, #209, #93, .T. ) ;
#251 = CIRCLE ( 'NONE', #167, 19.05000000000000100 ) ;
#252 = CARTESIAN_POINT ( 'NONE',  ( -6.386513113064726400, -19.27853645107794000, 0.2792097985632512900 ) ) ;
#253 = VERTEX_POINT ( 'NONE', #112 ) ;
#254 = CARTESIAN_POINT ( 'NONE',  ( 19.04999999999999700, -8.881784197001250400E-016, 0.2726279299896440800 ) ) ;
#255 = DESIGN_CONTEXT ( 'detailed design', #262, 'design' ) ;
#256 = CARTESIAN_POINT ( 'NONE',  ( -12.77236444601597000, -19.27853645107794000, 0.3711472598636946200 ) ) ;
#257 = DIRECTION ( 'NONE',  ( 0.0000000000000000000, 0.0000000000000000000, 1.000000000000000000 ) ) ;
#258 = ORIENTED_EDGE ( 'NONE', *, *, #294, .T. ) ;
#259 = CARTESIAN_POINT ( 'NONE',  ( -6.390086394316214500, 6.427976177131732500, 5.093095963904736400 ) ) ;
#260 = PRODUCT_DEFINITION ( 'UNKNOWN', '', #198, #255 ) ;
#261 = FACE_OUTER_BOUND ( 'NONE', #274, .T. ) ;
#262 = APPLICATION_CONTEXT ( 'configuration controlled 3d designs of mechanical parts and assemblies' ) ;
#263 = ORIENTED_EDGE ( 'NONE', *, *, #12, .T. ) ;
#264 = APPROVAL_ROLE ( '' ) ;
#265 = FACE_OUTER_BOUND ( 'NONE', #138, .T. ) ;
#266 = PERSON_AND_ORGANIZATION_ROLE ( 'creator' ) ;
#267 = LOCAL_TIME ( 10, 14, 28.00000000000000000, #148 ) ;
#268 = APPROVAL ( #293, 'UNSPECIFIED' ) ;
#269 = ORIENTED_EDGE ( 'NONE', *, *, #244, .T. ) ;
#270 = EDGE_CURVE ( 'NONE', #128, #116, #21, .T. ) ;
#271 = CARTESIAN_POINT ( 'NONE',  ( 19.15623057577644100, -19.27853645107794400, 0.5550031290680298400 ) ) ;
#272 = CARTESIAN_POINT ( 'NONE',  ( 12.77236444601581900, -19.27853645107794000, 0.3711472598637487500 ) ) ;
#273 = APPROVAL_DATE_TIME ( #18, #3 ) ;
#274 = EDGE_LOOP ( 'NONE', ( #94, #39, #258, #269, #32, #187 ) ) ;
#275 = ADVANCED_FACE ( 'NONE', ( #261 ), #279, .T. ) ;
#276 = CC_DESIGN_APPROVAL ( #109, ( #211 ) ) ;
#277 = CARTESIAN_POINT ( 'NONE',  ( 0.0000000000000000000, -1.136868377216160000E-013, 665.7000000000000500 ) ) ;
#278 = CARTESIAN_POINT ( 'NONE',  ( -1.630640067418198400E-013, 6.427976177131616200, -0.09309596390481021700 ) ) ;
#279 = CYLINDRICAL_SURFACE ( 'NONE', #22, 19.05000000000000100 ) ;
#280 = CARTESIAN_POINT ( 'NONE',  ( 19.04999999999999700, -8.881784197001250400E-016, 4.727372070010360100 ) ) ;
#281 = UNCERTAINTY_MEASURE_WITH_UNIT (LENGTH_MEASURE( 1.000000000000000100E-005 ), #131, 'distance_accuracy_value', 'NONE');
#282 = CARTESIAN_POINT ( 'NONE',  ( -19.16694856826426700, 6.427976177131616200, 0.1828516741414142900 ) ) ;
#283 = AXIS2_PLACEMENT_3D ( 'NONE', #183, #238, #289 ) ;
#284 = CARTESIAN_POINT ( 'NONE',  ( -1.630640067418198700E-013, 19.27853645107778400, 0.2792097985632497300 ) ) ;
#285 = PERSON_AND_ORGANIZATION ( #229, #120 ) ;
#286 = ADVANCED_FACE ( 'NONE', ( #139 ), #114, .T. ) ;
#287 = ORIENTED_EDGE ( 'NONE', *, *, #250, .T. ) ;
#288 = CARTESIAN_POINT ( 'NONE',  ( 3.853450624573786100E-031, -6.427976177131660600, 5.093095963904732000 ) ) ;
#289 = DIRECTION ( 'NONE',  ( 1.000000000000000000, 0.0000000000000000000, 0.0000000000000000000 ) ) ;
#290 = CARTESIAN_POINT ( 'NONE',  ( -19.15623057577648700, -19.27853645107783000, 4.444996870931974300 ) ) ;
#291 = DATE_AND_TIME ( #245, #267 ) ;
#292 = CC_DESIGN_APPROVAL ( #268, ( #260 ) ) ;
#293 = APPROVAL_STATUS ( 'not_yet_approved' ) ;
#294 = EDGE_CURVE ( 'NONE', #295, #116, #117, .T. ) ;
#295 = VERTEX_POINT ( 'NONE', #107 ) ;
ENDSEC;
END-ISO-10303-21;
