ISO-10303-21;
HEADER;
FILE_DESCRIPTION (( 'STEP AP203' ),
    '1' );
FILE_NAME ('111-1422E UVFS bi-cx 38.1 F250.STEP',
    '2019-01-07T15:05:14',
    ( '' ),
    ( '' ),
    'SwSTEP 2.0',
    'SolidWorks 2017',
    '' );
FILE_SCHEMA (( 'CONFIG_CONTROL_DESIGN' ));
ENDSEC;

DATA;
#1 = CARTESIAN_POINT ( 'NONE',  ( 19.04999999999999700, -8.881784197001250400E-016, 0.7655614666368969500 ) ) ;
#2 = ORIENTED_EDGE ( 'NONE', *, *, #292, .F. ) ;
#3 = ORIENTED_EDGE ( 'NONE', *, *, #32, .T. ) ;
#4 = DIRECTION ( 'NONE',  ( 1.000000000000000000, 0.0000000000000000000, 0.0000000000000000000 ) ) ;
#5 = CARTESIAN_POINT ( 'NONE',  ( -6.403773812451233600, 6.440212651074064700, -0.2619216807210013000 ) ) ;
#6 = CARTESIAN_POINT ( 'NONE',  ( -19.18519537497647000, -6.440212651074061200, 0.5137038674521783300 ) ) ;
#7 = DIRECTION ( 'NONE',  ( 1.000000000000000000, 0.0000000000000000000, -5.691349986800548400E-018 ) ) ;
#8 = ADVANCED_FACE ( 'NONE', ( #35 ), #99, .T. ) ;
#9 = DIRECTION ( 'NONE',  ( 1.000000000000000000, 8.881784197001252300E-016, -5.691349986800548400E-018 ) ) ;
#10 = EDGE_CURVE ( 'NONE', #226, #272, #236, .T. ) ;
#11 = ORIENTED_EDGE ( 'NONE', *, *, #166, .T. ) ;
#12 = UNCERTAINTY_MEASURE_WITH_UNIT (LENGTH_MEASURE( 1.000000000000000100E-005 ), #33, 'distance_accuracy_value', 'NONE');
#13 = DIRECTION ( 'NONE',  ( -5.827942386483759700E-018, -2.717192996813919900E-034, -1.000000000000000000 ) ) ;
#14 = DIRECTION ( 'NONE',  ( 1.000000000000000000, 0.0000000000000000000, -5.691349986800548400E-018 ) ) ;
#15 = APPROVAL_DATE_TIME ( #82, #193 ) ;
#16 = CC_DESIGN_DATE_AND_TIME_ASSIGNMENT ( #262, #281, ( #20 ) ) ;
#17 = ORIENTED_EDGE ( 'NONE', *, *, #224, .F. ) ;
#18 = CARTESIAN_POINT ( 'NONE',  ( 12.80232070589062800, -6.440212651073991900, 4.003239069221024200 ) ) ;
#19 = CARTESIAN_POINT ( 'NONE',  ( -4.662936703425659800E-015, -8.881784197001250400E-016, 0.7655614666368970600 ) ) ;
#20 = PRODUCT_DEFINITION ( 'UNKNOWN', '', #119, #285 ) ;
#21 = CARTESIAN_POINT ( 'NONE',  ( -6.403773812451086100, 6.440212651073983000, 4.261921680720948100 ) ) ;
#22 = EDGE_CURVE ( 'NONE', #218, #231, #167, .T. ) ;
#23 = PERSON_AND_ORGANIZATION ( #176, #242 ) ;
#24 = CARTESIAN_POINT ( 'NONE',  ( -19.10076080013943300, 19.27809918204364300, 2.443752999275180700 ) ) ;
#25 = CARTESIAN_POINT ( 'NONE',  ( -5.880201862503861700E-014, 6.440212651074064700, -0.2619216807209913100 ) ) ;
#26 = APPLICATION_PROTOCOL_DEFINITION ( 'international standard', 'config_control_design', 1994, #71 ) ;
#27 = CARTESIAN_POINT ( 'NONE',  ( -4.648548230121469300E-015, -8.881784197001250400E-016, 3.234438533363100300 ) ) ;
#28 = CC_DESIGN_APPROVAL ( #49, ( #147 ) ) ;
#29 = CARTESIAN_POINT ( 'NONE',  ( -19.10076080013942200, 19.27809918204386700, 1.556247000724791900 ) ) ;
#30 = DATE_AND_TIME ( #80, #252 ) ;
#31 = CARTESIAN_POINT ( 'NONE',  ( -12.80232070589058000, 6.440212651074064700, -0.003239069221042568200 ) ) ;
#32 = EDGE_CURVE ( 'NONE', #265, #231, #182, .T. ) ;
#33 =( LENGTH_UNIT ( ) NAMED_UNIT ( * ) SI_UNIT ( .MILLI., .METRE. ) );
#34 = PERSON_AND_ORGANIZATION ( #176, #242 ) ;
#35 = FACE_OUTER_BOUND ( 'NONE', #282, .T. ) ;
#36 = CC_DESIGN_SECURITY_CLASSIFICATION ( #147, ( #119 ) ) ;
#37 = LOCAL_TIME ( 17, 5, 14.00000000000000000, #286 ) ;
#38 = ORIENTED_EDGE ( 'NONE', *, *, #10, .F. ) ;
#39 = SHAPE_DEFINITION_REPRESENTATION ( #89, #279 ) ;
#40 = ORIENTED_EDGE ( 'NONE', *, *, #22, .F. ) ;
#41 = CARTESIAN_POINT ( 'NONE',  ( -4.662936703425659800E-015, -8.881784197001250400E-016, 0.7655614666368969500 ) ) ;
#42 = CARTESIAN_POINT ( 'NONE',  ( -6.375590626997979600, -19.27809918204365800, 3.215964997984186900 ) ) ;
#43 = CARTESIAN_POINT ( 'NONE',  ( -19.10076080013942600, -19.27809918204366100, 2.443752999275208700 ) ) ;
#44 = CARTESIAN_POINT ( 'NONE',  ( 19.18519537497650200, -6.440212651074061200, 0.5137038674521857700 ) ) ;
#45 = DATE_AND_TIME ( #93, #290 ) ;
#46 = APPROVAL_ROLE ( '' ) ;
#47 = CARTESIAN_POINT ( 'NONE',  ( -5.854780001592959300E-014, 19.04999999999978800, 0.7655614666368955000 ) ) ;
#48 = CARTESIAN_POINT ( 'NONE',  ( -4.648548230121469300E-015, -8.881784197001250400E-016, 3.234438533363100300 ) ) ;
#49 = APPROVAL ( #238, 'UNSPECIFIED' ) ;
#50 = MECHANICAL_CONTEXT ( 'NONE', #69, 'mechanical' ) ;
#51 = DIRECTION ( 'NONE',  ( 1.000000000000000000, 0.0000000000000000000, 0.0000000000000000000 ) ) ;
#52 = CIRCLE ( 'NONE', #187, 19.05000000000000100 ) ;
#53 = AXIS2_PLACEMENT_3D ( 'NONE', #194, #289, #266 ) ;
#54 = COORDINATED_UNIVERSAL_TIME_OFFSET ( 2, 0, .AHEAD. ) ;
#55 = ORIENTED_EDGE ( 'NONE', *, *, #292, .T. ) ;
#56 =( BOUNDED_SURFACE ( )  B_SPLINE_SURFACE ( 3, 3, ( 
 ( #235, #130, #228, #152 ),
 ( #6, #276, #257, #128 ),
 ( #274, #31, #5, #204 ),
 ( #29, #126, #181, #180 ) ),
 .UNSPECIFIED., .F., .F., .T. ) 
 B_SPLINE_SURFACE_WITH_KNOTS ( ( 4, 4 ),
 ( 4, 4 ),
 ( 0.0000000000000000000, 1.000000000000000000 ),
 ( 0.0000000000000000000, 1.000000000000000000 ),
 .UNSPECIFIED. ) 
 GEOMETRIC_REPRESENTATION_ITEM ( )  RATIONAL_B_SPLINE_SURFACE ( (
 ( 1.000000000000000000, 0.9994558501320361900, 0.9994558501320361900, 1.000000000000000000),
 ( 0.9977982729513736900, 0.9972553211528927300, 0.9972553211528927300, 0.9977982729513736900),
 ( 0.9977982729513736900, 0.9972553211528927300, 0.9972553211528927300, 0.9977982729513736900),
 ( 1.000000000000000000, 0.9994558501320361900, 0.9994558501320361900, 1.000000000000000000) ) ) 
 REPRESENTATION_ITEM ( '' )  SURFACE ( )  );
#57 = CIRCLE ( 'NONE', #101, 19.05000000000000100 ) ;
#58 = CLOSED_SHELL ( 'NONE', ( #208, #107, #127, #256, #8, #178 ) ) ;
#59 = CALENDAR_DATE ( 2019, 7, 1 ) ;
#60 = CC_DESIGN_PERSON_AND_ORGANIZATION_ASSIGNMENT ( #230, #112, ( #119 ) ) ;
#61 = CARTESIAN_POINT ( 'NONE',  ( -4.648548230121469300E-015, -8.881784197001250400E-016, 3.234438533363100300 ) ) ;
#62 = CALENDAR_DATE ( 2019, 7, 1 ) ;
#63 = DIRECTION ( 'NONE',  ( -5.827942386483759700E-018, -2.717192996813919900E-034, -1.000000000000000000 ) ) ;
#64 = CALENDAR_DATE ( 2019, 7, 1 ) ;
#65 = MANIFOLD_SOLID_BREP ( 'Imported1', #58 ) ;
#66 = CARTESIAN_POINT ( 'NONE',  ( 19.18519537497651600, 6.440212651073988300, 3.486296132547775700 ) ) ;
#67 = AXIS2_PLACEMENT_3D ( 'NONE', #48, #211, #51 ) ;
#68 = VECTOR ( 'NONE', #233, 1000.000000000000000 ) ;
#69 = APPLICATION_CONTEXT ( 'configuration controlled 3d designs of mechanical parts and assemblies' ) ;
#70 = EDGE_CURVE ( 'NONE', #226, #77, #52, .T. ) ;
#71 = APPLICATION_CONTEXT ( 'configuration controlled 3d designs of mechanical parts and assemblies' ) ;
#72 = DIRECTION ( 'NONE',  ( 5.827942386483759700E-018, 2.717192996813919900E-034, 1.000000000000000000 ) ) ;
#73 = APPROVAL_PERSON_ORGANIZATION ( #284, #49, #111 ) ;
#74 = COORDINATED_UNIVERSAL_TIME_OFFSET ( 2, 0, .AHEAD. ) ;
#75 = CC_DESIGN_APPROVAL ( #193, ( #20 ) ) ;
#76 = EDGE_CURVE ( 'NONE', #265, #218, #87, .T. ) ;
#77 = VERTEX_POINT ( 'NONE', #142 ) ;
#78 = CARTESIAN_POINT ( 'NONE',  ( -19.18519537497647300, -6.440212651073997200, 3.486296132547799700 ) ) ;
#79 = DIRECTION ( 'NONE',  ( 2.448068743709528500E-016, -1.000000000000000000, -2.338296176548350200E-016 ) ) ;
#80 = CALENDAR_DATE ( 2019, 7, 1 ) ;
#81 = CARTESIAN_POINT ( 'NONE',  ( -5.880201862503861700E-014, -6.440212651074061200, -0.2619216807209895900 ) ) ;
#82 = DATE_AND_TIME ( #64, #113 ) ;
#83 = ORIENTED_EDGE ( 'NONE', *, *, #103, .F. ) ;
#84 = CARTESIAN_POINT ( 'NONE',  ( 0.0000000000000000000, 0.0000000000000000000, 0.0000000000000000000 ) ) ;
#85 = CARTESIAN_POINT ( 'NONE',  ( -4.662936703425659800E-015, -8.881784197001250400E-016, 0.7655614666368970600 ) ) ;
#86 = CARTESIAN_POINT ( 'NONE',  ( 1.039473118133541000E-013, 19.04999999999960300, 3.234438533363118900 ) ) ;
#87 = CIRCLE ( 'NONE', #283, 19.05000000000000100 ) ;
#88 = ORIENTED_EDGE ( 'NONE', *, *, #121, .F. ) ;
#89 = PRODUCT_DEFINITION_SHAPE ( 'NONE', 'NONE',  #20 ) ;
#90 = EDGE_CURVE ( 'NONE', #253, #265, #185, .T. ) ;
#91 = DIRECTION ( 'NONE',  ( -5.827942386483759700E-018, -2.717192996813919900E-034, -1.000000000000000000 ) ) ;
#92 = CARTESIAN_POINT ( 'NONE',  ( -4.662936703425659800E-015, -8.881784197001250400E-016, 0.7655614666368970600 ) ) ;
#93 = CALENDAR_DATE ( 2019, 7, 1 ) ;
#94 = ORIENTED_EDGE ( 'NONE', *, *, #110, .F. ) ;
#95 = DIRECTION ( 'NONE',  ( 1.000000000000000000, 0.0000000000000000000, -5.691349986800548400E-018 ) ) ;
#96 = DIRECTION ( 'NONE',  ( -5.827942386483759700E-018, -2.717192996813919900E-034, -1.000000000000000000 ) ) ;
#97 = CARTESIAN_POINT ( 'NONE',  ( 6.375590626998177700, 19.27809918204364700, 3.215964997984169100 ) ) ;
#98 = CARTESIAN_POINT ( 'NONE',  ( 1.630640067418198700E-013, 19.27809918204364700, 3.215964997984172700 ) ) ;
#99 = CYLINDRICAL_SURFACE ( 'NONE', #138, 19.05000000000000100 ) ;
#100 = CARTESIAN_POINT ( 'NONE',  ( 12.80232070589054100, -6.440212651074061200, -0.003239069221040182500 ) ) ;
#101 = AXIS2_PLACEMENT_3D ( 'NONE', #85, #234, #9 ) ;
#102 = CARTESIAN_POINT ( 'NONE',  ( 12.80232070589062400, 6.440212651073986500, 4.003239069220996700 ) ) ;
#103 = EDGE_CURVE ( 'NONE', #77, #272, #114, .T. ) ;
#104 = PERSON_AND_ORGANIZATION_ROLE ( 'design_owner' ) ;
#105 = CARTESIAN_POINT ( 'NONE',  ( 19.10076080013947600, -19.27809918204365400, 2.443752999275211800 ) ) ;
#106 = CARTESIAN_POINT ( 'NONE',  ( 12.80232070589054100, 6.440212651074064700, -0.003239069221041917200 ) ) ;
#107 = ADVANCED_FACE ( 'NONE', ( #117 ), #198, .T. ) ;
#108 = CARTESIAN_POINT ( 'NONE',  ( 6.403773812451127900, 6.440212651074064700, -0.2619216807209929800 ) ) ;
#109 = CARTESIAN_POINT ( 'NONE',  ( -19.05000000000000400, 1.444773732675583000E-015, 0.7655614666368971700 ) ) ;
#110 = EDGE_CURVE ( 'NONE', #218, #77, #280, .T. ) ;
#111 = APPROVAL_ROLE ( '' ) ;
#112 = PERSON_AND_ORGANIZATION_ROLE ( 'design_supplier' ) ;
#113 = LOCAL_TIME ( 17, 5, 14.00000000000000000, #175 ) ;
#114 = CIRCLE ( 'NONE', #210, 19.05000000000000100 ) ;
#115 = CC_DESIGN_PERSON_AND_ORGANIZATION_ASSIGNMENT ( #188, #160, ( #119 ) ) ;
#116 = AXIS2_PLACEMENT_3D ( 'NONE', #205, #72, #7 ) ;
#117 = FACE_OUTER_BOUND ( 'NONE', #164, .T. ) ;
#118 = ORIENTED_EDGE ( 'NONE', *, *, #76, .T. ) ;
#119 = PRODUCT_DEFINITION_FORMATION_WITH_SPECIFIED_SOURCE ( 'ANY', '', #229, .NOT_KNOWN. ) ;
#120 = FACE_OUTER_BOUND ( 'NONE', #201, .T. ) ;
#121 = EDGE_CURVE ( 'NONE', #191, #226, #150, .T. ) ;
#122 = CARTESIAN_POINT ( 'NONE',  ( 1.665334536937734600E-013, -6.440212651073993700, 4.261921680720989000 ) ) ;
#123 = CARTESIAN_POINT ( 'NONE',  ( 1.665334536937734600E-013, 6.440212651073983900, 4.261921680720962300 ) ) ;
#124 = CARTESIAN_POINT ( 'NONE',  ( -6.375590626997988500, 19.27809918204364700, 3.215964997984159400 ) ) ;
#125 = APPROVAL_PERSON_ORGANIZATION ( #190, #162, #157 ) ;
#126 = CARTESIAN_POINT ( 'NONE',  ( -12.74597733879933700, 19.27809918204386400, 1.041579144196440200 ) ) ;
#127 = ADVANCED_FACE ( 'NONE', ( #287 ), #249, .T. ) ;
#128 = CARTESIAN_POINT ( 'NONE',  ( -1.179611963664229300E-013, -6.440212651074061200, -0.2619216807210033000 ) ) ;
#129 = FACE_OUTER_BOUND ( 'NONE', #141, .T. ) ;
#130 = CARTESIAN_POINT ( 'NONE',  ( -12.74597733879933700, -19.27809918204386000, 1.041579144196440200 ) ) ;
#131 = AXIS2_PLACEMENT_3D ( 'NONE', #84, #153, #4 ) ;
#132 = PERSON_AND_ORGANIZATION ( #176, #242 ) ;
#133 = ORIENTED_EDGE ( 'NONE', *, *, #70, .T. ) ;
#134 = AXIS2_PLACEMENT_3D ( 'NONE', #291, #91, #14 ) ;
#135 = PERSON_AND_ORGANIZATION_ROLE ( 'classification_officer' ) ;
#136 = CC_DESIGN_PERSON_AND_ORGANIZATION_ASSIGNMENT ( #132, #104, ( #229 ) ) ;
#137 = ORIENTED_EDGE ( 'NONE', *, *, #22, .T. ) ;
#138 = AXIS2_PLACEMENT_3D ( 'NONE', #41, #268, #95 ) ;
#139 = DATE_AND_TIME ( #59, #37 ) ;
#140 = ORIENTED_EDGE ( 'NONE', *, *, #103, .T. ) ;
#141 = EDGE_LOOP ( 'NONE', ( #177, #118, #137 ) ) ;
#142 = CARTESIAN_POINT ( 'NONE',  ( -19.05000000000000400, 1.444773732675583000E-015, 3.234438533363100300 ) ) ;
#143 = CARTESIAN_POINT ( 'NONE',  ( 0.0000000000000000000, -1.421085471520200100E-014, -233.4000000000000300 ) ) ;
#144 = CARTESIAN_POINT ( 'NONE',  ( 6.375590626998185700, -19.27809918204365800, 3.215964997984197100 ) ) ;
#145 = CARTESIAN_POINT ( 'NONE',  ( 19.18519537497651900, -6.440212651073990100, 3.486296132547803700 ) ) ;
#146 = DIRECTION ( 'NONE',  ( -5.827942386483759700E-018, -2.717192996813919900E-034, -1.000000000000000000 ) ) ;
#147 = SECURITY_CLASSIFICATION ( '', '', #260 ) ;
#148 = DIRECTION ( 'NONE',  ( 5.827942386483759700E-018, 2.717192996813919900E-034, 1.000000000000000000 ) ) ;
#149 = CARTESIAN_POINT ( 'NONE',  ( 1.075058704280127500E-013, 6.440212651073984800, 4.261921680720944600 ) ) ;
#150 = CIRCLE ( 'NONE', #67, 19.05000000000000100 ) ;
#151 = CARTESIAN_POINT ( 'NONE',  ( -12.74597733879927100, 19.27809918204364300, 2.958420855803539000 ) ) ;
#152 = CARTESIAN_POINT ( 'NONE',  ( -1.179611963664228800E-013, -19.27809918204386400, 0.7840350020158070000 ) ) ;
#153 = DIRECTION ( 'NONE',  ( 0.0000000000000000000, 0.0000000000000000000, 1.000000000000000000 ) ) ;
#154 = CARTESIAN_POINT ( 'NONE',  ( 12.74597733879939200, -19.27809918204365400, 2.958420855803564300 ) ) ;
#155 = CARTESIAN_POINT ( 'NONE',  ( 12.74597733879930000, 19.27809918204386400, 1.041579144196441000 ) ) ;
#156 = CARTESIAN_POINT ( 'NONE',  ( 19.10076080013945100, 19.27809918204386700, 1.556247000724799300 ) ) ;
#157 = APPROVAL_ROLE ( '' ) ;
#158 = ORIENTED_EDGE ( 'NONE', *, *, #76, .F. ) ;
#159 = PERSON_AND_ORGANIZATION ( #176, #242 ) ;
#160 = PERSON_AND_ORGANIZATION_ROLE ( 'creator' ) ;
#161 = ORIENTED_EDGE ( 'NONE', *, *, #121, .T. ) ;
#162 = APPROVAL ( #184, 'UNSPECIFIED' ) ;
#163 = ORIENTED_EDGE ( 'NONE', *, *, #224, .T. ) ;
#164 = EDGE_LOOP ( 'NONE', ( #213, #215, #83 ) ) ;
#165 = CC_DESIGN_DATE_AND_TIME_ASSIGNMENT ( #45, #183, ( #147 ) ) ;
#166 = EDGE_CURVE ( 'NONE', #272, #191, #200, .T. ) ;
#167 = CIRCLE ( 'NONE', #134, 19.05000000000000100 ) ;
#168 = CARTESIAN_POINT ( 'NONE',  ( 1.700029006457271000E-013, -19.27809918204365800, 3.215964997984200700 ) ) ;
#169 = EDGE_LOOP ( 'NONE', ( #237, #3, #55 ) ) ;
#170 = DIRECTION ( 'NONE',  ( -1.000000000000000000, -2.448068743709529900E-016, 4.589817249056400100E-016 ) ) ;
#171 = CARTESIAN_POINT ( 'NONE',  ( -4.648548230121469300E-015, -8.881784197001250400E-016, 3.234438533363100300 ) ) ;
#172 = CARTESIAN_POINT ( 'NONE',  ( 1.133218149595566500E-013, -19.27809918204365800, 3.215964997984182900 ) ) ;
#173 = CARTESIAN_POINT ( 'NONE',  ( 19.04999999999999700, -8.881784197001250400E-016, 3.234438533363100300 ) ) ;
#174 = CARTESIAN_POINT ( 'NONE',  ( -12.80232070589050700, 6.440212651073982100, 4.003239069220999400 ) ) ;
#175 = COORDINATED_UNIVERSAL_TIME_OFFSET ( 2, 0, .AHEAD. ) ;
#176 = PERSON ( 'UNSPECIFIED', 'UNSPECIFIED', 'UNSPECIFIED', ('UNSPECIFIED'), ('UNSPECIFIED'), ('UNSPECIFIED') ) ;
#177 = ORIENTED_EDGE ( 'NONE', *, *, #32, .F. ) ;
#178 = ADVANCED_FACE ( 'NONE', ( #120 ), #261, .T. ) ;
#179 = APPROVAL_STATUS ( 'not_yet_approved' ) ;
#180 = CARTESIAN_POINT ( 'NONE',  ( -1.179611963664228800E-013, 19.27809918204386700, 0.7840350020158070000 ) ) ;
#181 = CARTESIAN_POINT ( 'NONE',  ( -6.375590626998131500, 19.27809918204386400, 0.7840350020158101100 ) ) ;
#182 = CIRCLE ( 'NONE', #53, 237.3999999999999800 ) ;
#183 = DATE_TIME_ROLE ( 'classification_date' ) ;
#184 = APPROVAL_STATUS ( 'not_yet_approved' ) ;
#185 = CIRCLE ( 'NONE', #220, 19.05000000000000100 ) ;
#186 = EDGE_LOOP ( 'NONE', ( #40, #239, #140, #11, #17, #2 ) ) ;
#187 = AXIS2_PLACEMENT_3D ( 'NONE', #171, #222, #192 ) ;
#188 = PERSON_AND_ORGANIZATION ( #176, #242 ) ;
#189 = AXIS2_PLACEMENT_3D ( 'NONE', #143, #170, #79 ) ;
#190 = PERSON_AND_ORGANIZATION ( #176, #242 ) ;
#191 = VERTEX_POINT ( 'NONE', #173 ) ;
#192 = DIRECTION ( 'NONE',  ( 1.000000000000000000, 0.0000000000000000000, 0.0000000000000000000 ) ) ;
#193 = APPROVAL ( #179, 'UNSPECIFIED' ) ;
#194 = CARTESIAN_POINT ( 'NONE',  ( 0.0000000000000000000, -1.421085471520200100E-014, 237.4000000000000100 ) ) ;
#195 = CARTESIAN_POINT ( 'NONE',  ( 19.10076080013946500, 19.27809918204365000, 2.443752999275183900 ) ) ;
#196 = CARTESIAN_POINT ( 'NONE',  ( 1.106590870868001300E-013, -6.440212651073992800, 4.261921680720972100 ) ) ;
#197 =( GEOMETRIC_REPRESENTATION_CONTEXT ( 3 ) GLOBAL_UNCERTAINTY_ASSIGNED_CONTEXT ( ( #12 ) ) GLOBAL_UNIT_ASSIGNED_CONTEXT ( ( #33, #202, #259 ) ) REPRESENTATION_CONTEXT ( 'NONE', 'WORKASPACE' ) );
#198 =( BOUNDED_SURFACE ( )  B_SPLINE_SURFACE ( 3, 3, ( 
 ( #172, #42, #245, #43 ),
 ( #196, #223, #288, #78 ),
 ( #149, #21, #174, #251 ),
 ( #273, #124, #151, #24 ) ),
 .UNSPECIFIED., .F., .F., .F. ) 
 B_SPLINE_SURFACE_WITH_KNOTS ( ( 4, 4 ),
 ( 4, 4 ),
 ( 0.0000000000000000000, 1.000000000000000000 ),
 ( 0.0000000000000000000, 1.000000000000000000 ),
 .UNSPECIFIED. ) 
 GEOMETRIC_REPRESENTATION_ITEM ( )  RATIONAL_B_SPLINE_SURFACE ( (
 ( 1.000000000000000000, 0.9994558501320361900, 0.9994558501320361900, 1.000000000000000000),
 ( 0.9977982729513736900, 0.9972553211528927300, 0.9972553211528927300, 0.9977982729513736900),
 ( 0.9977982729513736900, 0.9972553211528927300, 0.9972553211528927300, 0.9977982729513736900),
 ( 1.000000000000000000, 0.9994558501320361900, 0.9994558501320361900, 1.000000000000000000) ) ) 
 REPRESENTATION_ITEM ( '' )  SURFACE ( )  );
#199 = CARTESIAN_POINT ( 'NONE',  ( 12.74597733879930000, -19.27809918204386000, 1.041579144196441000 ) ) ;
#200 = CIRCLE ( 'NONE', #255, 19.05000000000000100 ) ;
#201 = EDGE_LOOP ( 'NONE', ( #38, #88, #263 ) ) ;
#202 =( NAMED_UNIT ( * ) PLANE_ANGLE_UNIT ( ) SI_UNIT ( $, .RADIAN. ) );
#203 = PERSON_AND_ORGANIZATION_ROLE ( 'creator' ) ;
#204 = CARTESIAN_POINT ( 'NONE',  ( -1.179611963664229300E-013, 6.440212651074064700, -0.2619216807210045800 ) ) ;
#205 = CARTESIAN_POINT ( 'NONE',  ( -4.662936703425659800E-015, -8.881784197001250400E-016, 0.7655614666368969500 ) ) ;
#206 = CC_DESIGN_APPROVAL ( #162, ( #119 ) ) ;
#207 = CARTESIAN_POINT ( 'NONE',  ( -5.854780001592959300E-014, -19.04999999999979800, 0.7655614666368955000 ) ) ;
#208 = ADVANCED_FACE ( 'NONE', ( #217 ), #246, .T. ) ;
#209 = CARTESIAN_POINT ( 'NONE',  ( 6.375590626998024900, 19.27809918204386400, 0.7840350020158187700 ) ) ;
#210 = AXIS2_PLACEMENT_3D ( 'NONE', #61, #96, #244 ) ;
#211 = DIRECTION ( 'NONE',  ( -5.827942386483759700E-018, -2.717192996813919900E-034, -1.000000000000000000 ) ) ;
#212 = APPROVAL_PERSON_ORGANIZATION ( #23, #193, #46 ) ;
#213 = ORIENTED_EDGE ( 'NONE', *, *, #70, .F. ) ;
#214 = APPROVAL_DATE_TIME ( #139, #49 ) ;
#215 = ORIENTED_EDGE ( 'NONE', *, *, #10, .T. ) ;
#216 = PRODUCT_RELATED_PRODUCT_CATEGORY ( 'detail', '', ( #229 ) ) ;
#217 = FACE_OUTER_BOUND ( 'NONE', #169, .T. ) ;
#218 = VERTEX_POINT ( 'NONE', #109 ) ;
#219 = CC_DESIGN_PERSON_AND_ORGANIZATION_ASSIGNMENT ( #34, #203, ( #20 ) ) ;
#220 = AXIS2_PLACEMENT_3D ( 'NONE', #92, #146, #248 ) ;
#221 = DIRECTION ( 'NONE',  ( 1.000000000000000000, 8.881784197001252300E-016, -5.691349986800548400E-018 ) ) ;
#222 = DIRECTION ( 'NONE',  ( -5.827942386483759700E-018, -2.717192996813919900E-034, -1.000000000000000000 ) ) ;
#223 = CARTESIAN_POINT ( 'NONE',  ( -6.403773812451083500, -6.440212651073995400, 4.261921680720974800 ) ) ;
#224 = EDGE_CURVE ( 'NONE', #253, #191, #240, .T. ) ;
#225 = CARTESIAN_POINT ( 'NONE',  ( 19.10076080013945100, -19.27809918204386400, 1.556247000724799300 ) ) ;
#226 = VERTEX_POINT ( 'NONE', #277 ) ;
#227 = CARTESIAN_POINT ( 'NONE',  ( 6.403773812451282400, -6.440212651073992800, 4.261921680720985400 ) ) ;
#228 = CARTESIAN_POINT ( 'NONE',  ( -6.375590626998131500, -19.27809918204386000, 0.7840350020158101100 ) ) ;
#229 = PRODUCT ( '111-1422E UVFS bi-cx 38.1 F250', '111-1422E UVFS bi-cx 38.1 F250', '', ( #50 ) ) ;
#230 = PERSON_AND_ORGANIZATION ( #176, #242 ) ;
#231 = VERTEX_POINT ( 'NONE', #47 ) ;
#232 = CARTESIAN_POINT ( 'NONE',  ( 19.18519537497650200, 6.440212651074064700, 0.5137038674521839900 ) ) ;
#233 = DIRECTION ( 'NONE',  ( 5.827942386483759700E-018, 2.717192996813919900E-034, 1.000000000000000000 ) ) ;
#234 = DIRECTION ( 'NONE',  ( -5.827942386483759700E-018, -2.717192996813919900E-034, -1.000000000000000000 ) ) ;
#235 = CARTESIAN_POINT ( 'NONE',  ( -19.10076080013942200, -19.27809918204386400, 1.556247000724791900 ) ) ;
#236 = CIRCLE ( 'NONE', #189, 237.3999999999999800 ) ;
#237 = ORIENTED_EDGE ( 'NONE', *, *, #90, .T. ) ;
#238 = APPROVAL_STATUS ( 'not_yet_approved' ) ;
#239 = ORIENTED_EDGE ( 'NONE', *, *, #110, .T. ) ;
#240 = LINE ( 'NONE', #269, #271 ) ;
#241 = DIRECTION ( 'NONE',  ( 1.000000000000000000, 0.0000000000000000000, 0.0000000000000000000 ) ) ;
#242 = ORGANIZATION ( 'UNSPECIFIED', 'UNSPECIFIED', '' ) ;
#243 = ORIENTED_EDGE ( 'NONE', *, *, #90, .F. ) ;
#244 = DIRECTION ( 'NONE',  ( 1.000000000000000000, 0.0000000000000000000, 0.0000000000000000000 ) ) ;
#245 = CARTESIAN_POINT ( 'NONE',  ( -12.74597733879926400, -19.27809918204366100, 2.958420855803566500 ) ) ;
#246 =( BOUNDED_SURFACE ( )  B_SPLINE_SURFACE ( 3, 3, ( 
 ( #295, #294, #199, #225 ),
 ( #81, #250, #100, #44 ),
 ( #25, #108, #106, #232 ),
 ( #254, #209, #155, #156 ) ),
 .UNSPECIFIED., .F., .F., .F. ) 
 B_SPLINE_SURFACE_WITH_KNOTS ( ( 4, 4 ),
 ( 4, 4 ),
 ( 0.0000000000000000000, 1.000000000000000000 ),
 ( 0.0000000000000000000, 1.000000000000000000 ),
 .UNSPECIFIED. ) 
 GEOMETRIC_REPRESENTATION_ITEM ( )  RATIONAL_B_SPLINE_SURFACE ( (
 ( 1.000000000000000000, 0.9994558501320361900, 0.9994558501320361900, 1.000000000000000000),
 ( 0.9977982729513736900, 0.9972553211528927300, 0.9972553211528927300, 0.9977982729513736900),
 ( 0.9977982729513736900, 0.9972553211528927300, 0.9972553211528927300, 0.9977982729513736900),
 ( 1.000000000000000000, 0.9994558501320361900, 0.9994558501320361900, 1.000000000000000000) ) ) 
 REPRESENTATION_ITEM ( '' )  SURFACE ( )  );
#247 = CARTESIAN_POINT ( 'NONE',  ( 12.74597733879938300, 19.27809918204365000, 2.958420855803536800 ) ) ;
#248 = DIRECTION ( 'NONE',  ( 1.000000000000000000, 0.0000000000000000000, -5.691349986800548400E-018 ) ) ;
#249 = CYLINDRICAL_SURFACE ( 'NONE', #116, 19.05000000000000100 ) ;
#250 = CARTESIAN_POINT ( 'NONE',  ( 6.403773812451127900, -6.440212651074061200, -0.2619216807209912600 ) ) ;
#251 = CARTESIAN_POINT ( 'NONE',  ( -19.18519537497647300, 6.440212651073980300, 3.486296132547773000 ) ) ;
#252 = LOCAL_TIME ( 17, 5, 14.00000000000000000, #74 ) ;
#253 = VERTEX_POINT ( 'NONE', #1 ) ;
#254 = CARTESIAN_POINT ( 'NONE',  ( -5.854322931666174400E-014, 19.27809918204386700, 0.7840350020158204400 ) ) ;
#255 = AXIS2_PLACEMENT_3D ( 'NONE', #27, #13, #241 ) ;
#256 = ADVANCED_FACE ( 'NONE', ( #129 ), #56, .T. ) ;
#257 = CARTESIAN_POINT ( 'NONE',  ( -6.403773812451233600, -6.440212651074061200, -0.2619216807210000300 ) ) ;
#258 = APPROVAL_DATE_TIME ( #30, #162 ) ;
#259 =( NAMED_UNIT ( * ) SI_UNIT ( $, .STERADIAN. ) SOLID_ANGLE_UNIT ( ) );
#260 = SECURITY_CLASSIFICATION_LEVEL ( 'unclassified' ) ;
#261 =( BOUNDED_SURFACE ( )  B_SPLINE_SURFACE ( 3, 3, ( 
 ( #105, #154, #144, #168 ),
 ( #145, #18, #227, #122 ),
 ( #66, #102, #270, #123 ),
 ( #195, #247, #97, #98 ) ),
 .UNSPECIFIED., .F., .F., .F. ) 
 B_SPLINE_SURFACE_WITH_KNOTS ( ( 4, 4 ),
 ( 4, 4 ),
 ( 0.0000000000000000000, 1.000000000000000000 ),
 ( 0.0000000000000000000, 1.000000000000000000 ),
 .UNSPECIFIED. ) 
 GEOMETRIC_REPRESENTATION_ITEM ( )  RATIONAL_B_SPLINE_SURFACE ( (
 ( 1.000000000000000000, 0.9994558501320361900, 0.9994558501320361900, 1.000000000000000000),
 ( 0.9977982729513736900, 0.9972553211528927300, 0.9972553211528927300, 0.9977982729513736900),
 ( 0.9977982729513736900, 0.9972553211528927300, 0.9972553211528927300, 0.9977982729513736900),
 ( 1.000000000000000000, 0.9994558501320361900, 0.9994558501320361900, 1.000000000000000000) ) ) 
 REPRESENTATION_ITEM ( '' )  SURFACE ( )  );
#262 = DATE_AND_TIME ( #62, #267 ) ;
#263 = ORIENTED_EDGE ( 'NONE', *, *, #166, .F. ) ;
#264 = CC_DESIGN_PERSON_AND_ORGANIZATION_ASSIGNMENT ( #159, #135, ( #147 ) ) ;
#265 = VERTEX_POINT ( 'NONE', #207 ) ;
#266 = DIRECTION ( 'NONE',  ( 4.379057701015053300E-047, -1.000000000000000000, -2.338296176548350200E-016 ) ) ;
#267 = LOCAL_TIME ( 17, 5, 14.00000000000000000, #293 ) ;
#268 = DIRECTION ( 'NONE',  ( 5.827942386483759700E-018, 2.717192996813919900E-034, 1.000000000000000000 ) ) ;
#269 = CARTESIAN_POINT ( 'NONE',  ( 19.04999999999999700, -8.881784197001250400E-016, 0.7655614666368968400 ) ) ;
#270 = CARTESIAN_POINT ( 'NONE',  ( 6.403773812451281500, 6.440212651073985700, 4.261921680720957900 ) ) ;
#271 = VECTOR ( 'NONE', #148, 1000.000000000000000 ) ;
#272 = VERTEX_POINT ( 'NONE', #86 ) ;
#273 = CARTESIAN_POINT ( 'NONE',  ( 1.038829925504179900E-013, 19.27809918204364700, 3.215964997984155400 ) ) ;
#274 = CARTESIAN_POINT ( 'NONE',  ( -19.18519537497647000, 6.440212651074064700, 0.5137038674521767800 ) ) ;
#275 = APPLICATION_PROTOCOL_DEFINITION ( 'international standard', 'config_control_design', 1994, #69 ) ;
#276 = CARTESIAN_POINT ( 'NONE',  ( -12.80232070589058000, -6.440212651074061200, -0.003239069221041050300 ) ) ;
#277 = CARTESIAN_POINT ( 'NONE',  ( 1.132744537268872200E-013, -19.04999999999961700, 3.234438533363118900 ) ) ;
#278 = CARTESIAN_POINT ( 'NONE',  ( -19.05000000000000400, 1.444773732675583000E-015, 0.7655614666368970600 ) ) ;
#279 = ADVANCED_BREP_SHAPE_REPRESENTATION ( '111-1422E UVFS bi-cx 38.1 F250', ( #65, #131 ), #197 ) ;
#280 = LINE ( 'NONE', #278, #68 ) ;
#281 = DATE_TIME_ROLE ( 'creation_date' ) ;
#282 = EDGE_LOOP ( 'NONE', ( #94, #158, #243, #163, #161, #133 ) ) ;
#283 = AXIS2_PLACEMENT_3D ( 'NONE', #19, #63, #221 ) ;
#284 = PERSON_AND_ORGANIZATION ( #176, #242 ) ;
#285 = DESIGN_CONTEXT ( 'detailed design', #71, 'design' ) ;
#286 = COORDINATED_UNIVERSAL_TIME_OFFSET ( 2, 0, .AHEAD. ) ;
#287 = FACE_OUTER_BOUND ( 'NONE', #186, .T. ) ;
#288 = CARTESIAN_POINT ( 'NONE',  ( -12.80232070589050700, -6.440212651073996300, 4.003239069221025100 ) ) ;
#289 = DIRECTION ( 'NONE',  ( 1.000000000000000000, 6.056981397986400500E-032, -2.474187627921070200E-016 ) ) ;
#290 = LOCAL_TIME ( 17, 5, 14.00000000000000000, #54 ) ;
#291 = CARTESIAN_POINT ( 'NONE',  ( -4.662936703425659800E-015, -8.881784197001250400E-016, 0.7655614666368970600 ) ) ;
#292 = EDGE_CURVE ( 'NONE', #231, #253, #57, .T. ) ;
#293 = COORDINATED_UNIVERSAL_TIME_OFFSET ( 2, 0, .AHEAD. ) ;
#294 = CARTESIAN_POINT ( 'NONE',  ( 6.375590626998024900, -19.27809918204386000, 0.7840350020158187700 ) ) ;
#295 = CARTESIAN_POINT ( 'NONE',  ( -5.854322931666174400E-014, -19.27809918204386400, 0.7840350020158204400 ) ) ;
ENDSEC;
END-ISO-10303-21;
