ISO-10303-21;
HEADER;
FILE_DESCRIPTION (( 'STEP AP203' ),
    '1' );
FILE_NAME ('111-1418E UVFS bi-cx 38.1 F200.STEP',
    '2019-01-07T14:27:17',
    ( '' ),
    ( '' ),
    'SwSTEP 2.0',
    'SolidWorks 2017',
    '' );
FILE_SCHEMA (( 'CONFIG_CONTROL_DESIGN' ));
ENDSEC;

DATA;
#1 = ADVANCED_BREP_SHAPE_REPRESENTATION ( '111-1418E UVFS bi-cx 38.1 F200', ( #123, #233 ), #135 ) ;
#2 = LOCAL_TIME ( 16, 27, 17.00000000000000000, #221 ) ;
#3 = CARTESIAN_POINT ( 'NONE',  ( 19.19713048734871200, -6.448216294541267300, 0.6440033732846206500 ) ) ;
#4 = EDGE_CURVE ( 'NONE', #5, #7, #146, .T. ) ;
#5 = VERTEX_POINT ( 'NONE', #143 ) ;
#6 = CC_DESIGN_APPROVAL ( #287, ( #129 ) ) ;
#7 = VERTEX_POINT ( 'NONE', #279 ) ;
#8 = CYLINDRICAL_SURFACE ( 'NONE', #120, 19.05000000000000100 ) ;
#9 = CARTESIAN_POINT ( 'NONE',  ( -6.412729050569445200, -6.448216294541266400, -0.3286668203184932600 ) ) ;
#10 = ORIENTED_EDGE ( 'NONE', *, *, #147, .F. ) ;
#11 = VERTEX_POINT ( 'NONE', #102 ) ;
#12 = DATE_AND_TIME ( #170, #2 ) ;
#13 = EDGE_LOOP ( 'NONE', ( #294, #220, #48 ) ) ;
#14 =( LENGTH_UNIT ( ) NAMED_UNIT ( * ) SI_UNIT ( .MILLI., .METRE. ) );
#15 = FACE_OUTER_BOUND ( 'NONE', #13, .T. ) ;
#16 = CARTESIAN_POINT ( 'NONE',  ( -12.81724255819381500, -6.448216294541298400, 5.004166270744206300 ) ) ;
#17 = APPROVAL_PERSON_ORGANIZATION ( #32, #44, #68 ) ;
#18 = DIRECTION ( 'NONE',  ( 1.000000000000000000, 0.0000000000000000000, 0.0000000000000000000 ) ) ;
#19 = PERSON_AND_ORGANIZATION_ROLE ( 'design_supplier' ) ;
#20 = PRODUCT_RELATED_PRODUCT_CATEGORY ( 'detail', '', ( #141 ) ) ;
#21 = ORIENTED_EDGE ( 'NONE', *, *, #133, .F. ) ;
#22 = VERTEX_POINT ( 'NONE', #173 ) ;
#23 = EDGE_CURVE ( 'NONE', #71, #5, #265, .T. ) ;
#24 = CARTESIAN_POINT ( 'NONE',  ( 19.19713048734876500, -6.448216294541298400, 4.355996626715372200 ) ) ;
#25 = APPLICATION_PROTOCOL_DEFINITION ( 'international standard', 'config_control_design', 1994, #182 ) ;
#26 = CC_DESIGN_PERSON_AND_ORGANIZATION_ASSIGNMENT ( #210, #270, ( #129 ) ) ;
#27 = ORIENTED_EDGE ( 'NONE', *, *, #176, .F. ) ;
#28 = AXIS2_PLACEMENT_3D ( 'NONE', #122, #36, #149 ) ;
#29 = EDGE_LOOP ( 'NONE', ( #111, #193, #241 ) ) ;
#30 = CARTESIAN_POINT ( 'NONE',  ( 12.81724255819381300, -6.448216294541266400, -0.004166270744189764200 ) ) ;
#31 = CARTESIAN_POINT ( 'NONE',  ( -12.81724255819383100, -6.448216294541266400, -0.004166270744148239300 ) ) ;
#32 = PERSON_AND_ORGANIZATION ( #79, #109 ) ;
#33 = CARTESIAN_POINT ( 'NONE',  ( -19.19713048734876500, 6.448216294541354400, 0.6440033732846732800 ) ) ;
#34 = CARTESIAN_POINT ( 'NONE',  ( 3.469446951953614200E-015, 19.27781367557078000, 0.9825938575923347500 ) ) ;
#35 = DATE_AND_TIME ( #140, #252 ) ;
#36 = DIRECTION ( 'NONE',  ( -0.0000000000000000000, -0.0000000000000000000, -1.000000000000000000 ) ) ;
#37 = DIRECTION ( 'NONE',  ( 0.0000000000000000000, -1.000000000000000000, 0.0000000000000000000 ) ) ;
#38 = DIRECTION ( 'NONE',  ( 1.000000000000000000, 0.0000000000000000000, 0.0000000000000000000 ) ) ;
#39 = PERSON_AND_ORGANIZATION ( #79, #109 ) ;
#40 = CARTESIAN_POINT ( 'NONE',  ( -19.19713048734871600, 6.448216294541386300, 4.355996626715392700 ) ) ;
#41 = ADVANCED_FACE ( 'NONE', ( #15 ), #212, .T. ) ;
#42 = PERSON_AND_ORGANIZATION_ROLE ( 'creator' ) ;
#43 = CIRCLE ( 'NONE', #181, 19.05000000000000100 ) ;
#44 = APPROVAL ( #159, 'UNSPECIFIED' ) ;
#45 = CARTESIAN_POINT ( 'NONE',  ( 12.81724255819382700, 6.448216294541386300, 5.004166270744191200 ) ) ;
#46 = PERSON_AND_ORGANIZATION_ROLE ( 'classification_officer' ) ;
#47 = PERSON_AND_ORGANIZATION ( #79, #109 ) ;
#48 = ORIENTED_EDGE ( 'NONE', *, *, #23, .T. ) ;
#49 = APPLICATION_CONTEXT ( 'configuration controlled 3d designs of mechanical parts and assemblies' ) ;
#50 = CALENDAR_DATE ( 2019, 7, 1 ) ;
#51 = FACE_OUTER_BOUND ( 'NONE', #273, .T. ) ;
#52 = APPROVAL ( #232, 'UNSPECIFIED' ) ;
#53 = CARTESIAN_POINT ( 'NONE',  ( -6.368455800075541800, -19.27781367557069500, 0.9825938575923367500 ) ) ;
#54 = CARTESIAN_POINT ( 'NONE',  ( 3.469446951953614200E-015, -19.27781367557069500, 0.9825938575923347500 ) ) ;
#55 = PERSON_AND_ORGANIZATION ( #79, #109 ) ;
#56 = PRODUCT_DEFINITION_SHAPE ( 'NONE', 'NONE',  #129 ) ;
#57 = VECTOR ( 'NONE', #290, 1000.000000000000000 ) ;
#58 = ADVANCED_FACE ( 'NONE', ( #194 ), #242, .T. ) ;
#59 = CARTESIAN_POINT ( 'NONE',  ( -5.684341886080800200E-014, -19.27781367557078000, 4.017406142407697400 ) ) ;
#60 = ORIENTED_EDGE ( 'NONE', *, *, #263, .F. ) ;
#61 = CARTESIAN_POINT ( 'NONE',  ( -12.81724255819381500, 6.448216294541386300, 5.004166270744204500 ) ) ;
#62 = CARTESIAN_POINT ( 'NONE',  ( -4.662936703425659800E-015, -8.881784197001250400E-016, 4.040551048813440200 ) ) ;
#63 = CARTESIAN_POINT ( 'NONE',  ( 5.684341886080800200E-014, -19.05000000000012900, 0.9594489511865658100 ) ) ;
#64 = CARTESIAN_POINT ( 'NONE',  ( -5.684341886080800200E-014, -6.448216294541298400, 5.328666820318540300 ) ) ;
#65 = CARTESIAN_POINT ( 'NONE',  ( 19.06459418959963200, 19.27781367557078000, 1.948548771196910700 ) ) ;
#66 = CARTESIAN_POINT ( 'NONE',  ( -6.368455800075567600, 19.27781367557086500, 4.017406142407698300 ) ) ;
#67 = AXIS2_PLACEMENT_3D ( 'NONE', #285, #151, #288 ) ;
#68 = APPROVAL_ROLE ( '' ) ;
#69 = CARTESIAN_POINT ( 'NONE',  ( 6.412729050569441600, 6.448216294541386300, 5.328666820318536800 ) ) ;
#70 = DATE_TIME_ROLE ( 'classification_date' ) ;
#71 = VERTEX_POINT ( 'NONE', #195 ) ;
#72 = ORIENTED_EDGE ( 'NONE', *, *, #251, .T. ) ;
#73 = DIRECTION ( 'NONE',  ( 1.000000000000000000, 0.0000000000000000000, 0.0000000000000000000 ) ) ;
#74 = AXIS2_PLACEMENT_3D ( 'NONE', #96, #250, #136 ) ;
#75 = CARTESIAN_POINT ( 'NONE',  ( -19.05000000000000400, 1.444773732675583000E-015, 0.9594489511865560400 ) ) ;
#76 = AXIS2_PLACEMENT_3D ( 'NONE', #222, #223, #205 ) ;
#77 = ORIENTED_EDGE ( 'NONE', *, *, #258, .F. ) ;
#78 = VERTEX_POINT ( 'NONE', #150 ) ;
#79 = PERSON ( 'UNSPECIFIED', 'UNSPECIFIED', 'UNSPECIFIED', ('UNSPECIFIED'), ('UNSPECIFIED'), ('UNSPECIFIED') ) ;
#80 = DIRECTION ( 'NONE',  ( -0.0000000000000000000, -0.0000000000000000000, -1.000000000000000000 ) ) ;
#81 = CIRCLE ( 'NONE', #107, 19.05000000000000100 ) ;
#82 = DIRECTION ( 'NONE',  ( 1.000000000000000000, 0.0000000000000000000, 0.0000000000000000000 ) ) ;
#83 = DIRECTION ( 'NONE',  ( 0.0000000000000000000, 0.0000000000000000000, 1.000000000000000000 ) ) ;
#84 = SHAPE_DEFINITION_REPRESENTATION ( #56, #1 ) ;
#85 = CARTESIAN_POINT ( 'NONE',  ( -4.662936703425659800E-015, -8.881784197001250400E-016, 0.9594489511865560400 ) ) ;
#86 = CC_DESIGN_DATE_AND_TIME_ASSIGNMENT ( #276, #94, ( #129 ) ) ;
#87 = DIRECTION ( 'NONE',  ( -0.0000000000000000000, -0.0000000000000000000, -1.000000000000000000 ) ) ;
#88 = CARTESIAN_POINT ( 'NONE',  ( -19.06459418959963900, 19.27781367557086900, 3.051451228803093100 ) ) ;
#89 = CARTESIAN_POINT ( 'NONE',  ( 19.19713048734871200, 6.448216294541354400, 0.6440033732846219800 ) ) ;
#90 = EDGE_CURVE ( 'NONE', #78, #145, #43, .T. ) ;
#91 = ORIENTED_EDGE ( 'NONE', *, *, #90, .T. ) ;
#92 = CIRCLE ( 'NONE', #67, 19.05000000000000100 ) ;
#93 = CARTESIAN_POINT ( 'NONE',  ( 19.06459418959968500, 19.27781367557086900, 3.051451228803070400 ) ) ;
#94 = DATE_TIME_ROLE ( 'creation_date' ) ;
#95 = APPROVAL_DATE_TIME ( #35, #52 ) ;
#96 = CARTESIAN_POINT ( 'NONE',  ( -5.684341886080800200E-014, 5.684341886080800200E-014, -184.5999999999999900 ) ) ;
#97 = ORIENTED_EDGE ( 'NONE', *, *, #251, .F. ) ;
#98 = AXIS2_PLACEMENT_3D ( 'NONE', #264, #246, #266 ) ;
#99 = CARTESIAN_POINT ( 'NONE',  ( 12.81724255819381300, 6.448216294541354400, -0.004166270744188354700 ) ) ;
#100 = PRODUCT_DEFINITION_FORMATION_WITH_SPECIFIED_SOURCE ( 'ANY', '', #141, .NOT_KNOWN. ) ;
#101 = EDGE_CURVE ( 'NONE', #215, #5, #156, .T. ) ;
#102 = CARTESIAN_POINT ( 'NONE',  ( -5.684341886080800200E-014, 19.05000000000027400, 4.040551048813419800 ) ) ;
#103 = EDGE_LOOP ( 'NONE', ( #211, #166, #97 ) ) ;
#104 = DIRECTION ( 'NONE',  ( 0.0000000000000000000, 0.0000000000000000000, 1.000000000000000000 ) ) ;
#105 = CARTESIAN_POINT ( 'NONE',  ( 5.684341886080800200E-014, 19.27781367557078000, 0.9825938575923065500 ) ) ;
#106 = ADVANCED_FACE ( 'NONE', ( #112 ), #139, .T. ) ;
#107 = AXIS2_PLACEMENT_3D ( 'NONE', #85, #175, #38 ) ;
#108 = CARTESIAN_POINT ( 'NONE',  ( 12.72875277701873400, 19.27781367557078000, 1.304854067055055200 ) ) ;
#109 = ORGANIZATION ( 'UNSPECIFIED', 'UNSPECIFIED', '' ) ;
#110 = ADVANCED_FACE ( 'NONE', ( #51 ), #188, .T. ) ;
#111 = ORIENTED_EDGE ( 'NONE', *, *, #258, .T. ) ;
#112 = FACE_OUTER_BOUND ( 'NONE', #103, .T. ) ;
#113 = CARTESIAN_POINT ( 'NONE',  ( 6.368455800075540000, 19.27781367557086500, 4.017406142407695700 ) ) ;
#114 = LINE ( 'NONE', #138, #119 ) ;
#115 = CARTESIAN_POINT ( 'NONE',  ( 6.368455800075566700, -19.27781367557069500, 0.9825938575923066600 ) ) ;
#116 = CARTESIAN_POINT ( 'NONE',  ( 12.72875277701875000, 19.27781367557086500, 3.695145932944935700 ) ) ;
#117 = APPROVAL_PERSON_ORGANIZATION ( #206, #52, #186 ) ;
#118 = CARTESIAN_POINT ( 'NONE',  ( -4.662936703425659800E-015, -8.881784197001250400E-016, 0.9594489511865560400 ) ) ;
#119 = VECTOR ( 'NONE', #160, 1000.000000000000000 ) ;
#120 = AXIS2_PLACEMENT_3D ( 'NONE', #247, #219, #82 ) ;
#121 = CARTESIAN_POINT ( 'NONE',  ( 0.0000000000000000000, 6.448216294541354400, -0.3286668203184933700 ) ) ;
#122 = CARTESIAN_POINT ( 'NONE',  ( -4.662936703425659800E-015, -8.881784197001250400E-016, 0.9594489511865560400 ) ) ;
#123 = MANIFOLD_SOLID_BREP ( 'Imported1', #274 ) ;
#124 = DIRECTION ( 'NONE',  ( 1.000000000000000000, 0.0000000000000000000, 0.0000000000000000000 ) ) ;
#125 = ORIENTED_EDGE ( 'NONE', *, *, #4, .F. ) ;
#126 = FACE_OUTER_BOUND ( 'NONE', #248, .T. ) ;
#127 = APPROVAL_DATE_TIME ( #268, #44 ) ;
#128 = DIRECTION ( 'NONE',  ( -0.0000000000000000000, -0.0000000000000000000, -1.000000000000000000 ) ) ;
#129 = PRODUCT_DEFINITION ( 'UNKNOWN', '', #100, #144 ) ;
#130 = CARTESIAN_POINT ( 'NONE',  ( 0.0000000000000000000, 0.0000000000000000000, 0.0000000000000000000 ) ) ;
#131 = ORIENTED_EDGE ( 'NONE', *, *, #23, .F. ) ;
#132 = ORIENTED_EDGE ( 'NONE', *, *, #235, .T. ) ;
#133 = EDGE_CURVE ( 'NONE', #7, #22, #114, .T. ) ;
#134 = CARTESIAN_POINT ( 'NONE',  ( 5.684341886080800200E-014, 5.684341886080800200E-014, 189.5999999999999900 ) ) ;
#135 =( GEOMETRIC_REPRESENTATION_CONTEXT ( 3 ) GLOBAL_UNCERTAINTY_ASSIGNED_CONTEXT ( ( #238 ) ) GLOBAL_UNIT_ASSIGNED_CONTEXT ( ( #14, #204, #245 ) ) REPRESENTATION_CONTEXT ( 'NONE', 'WORKASPACE' ) );
#136 = DIRECTION ( 'NONE',  ( 0.0000000000000000000, -1.000000000000000000, 0.0000000000000000000 ) ) ;
#137 = COORDINATED_UNIVERSAL_TIME_OFFSET ( 2, 0, .AHEAD. ) ;
#138 = CARTESIAN_POINT ( 'NONE',  ( 19.04999999999999700, -8.881784197001250400E-016, 0.9594489511865560400 ) ) ;
#139 =( BOUNDED_SURFACE ( )  B_SPLINE_SURFACE ( 3, 3, ( 
 ( #59, #291, #153, #200 ),
 ( #64, #197, #16, #180 ),
 ( #203, #152, #61, #40 ),
 ( #178, #66, #225, #88 ) ),
 .UNSPECIFIED., .F., .F., .T. ) 
 B_SPLINE_SURFACE_WITH_KNOTS ( ( 4, 4 ),
 ( 4, 4 ),
 ( 0.0000000000000000000, 1.000000000000000000 ),
 ( 0.0000000000000000000, 1.000000000000000000 ),
 .UNSPECIFIED. ) 
 GEOMETRIC_REPRESENTATION_ITEM ( )  RATIONAL_B_SPLINE_SURFACE ( (
 ( 1.000000000000000000, 0.9991459129823127000, 0.9991459129823127000, 1.000000000000000000),
 ( 0.9965450286301254000, 0.9956938924586316000, 0.9956938924586316000, 0.9965450286301254000),
 ( 0.9965450286301254000, 0.9956938924586316000, 0.9956938924586316000, 0.9965450286301254000),
 ( 1.000000000000000000, 0.9991459129823127000, 0.9991459129823127000, 1.000000000000000000) ) ) 
 REPRESENTATION_ITEM ( '' )  SURFACE ( )  );
#140 = CALENDAR_DATE ( 2019, 7, 1 ) ;
#141 = PRODUCT ( '111-1418E UVFS bi-cx 38.1 F200', '111-1418E UVFS bi-cx 38.1 F200', '', ( #292 ) ) ;
#142 = CIRCLE ( 'NONE', #214, 19.05000000000000100 ) ;
#143 = CARTESIAN_POINT ( 'NONE',  ( 5.684341886080800200E-014, 19.05000000000018500, 0.9594489511865658100 ) ) ;
#144 = DESIGN_CONTEXT ( 'detailed design', #49, 'design' ) ;
#145 = VERTEX_POINT ( 'NONE', #295 ) ;
#146 = CIRCLE ( 'NONE', #28, 19.05000000000000100 ) ;
#147 = EDGE_CURVE ( 'NONE', #78, #11, #284, .T. ) ;
#148 = CARTESIAN_POINT ( 'NONE',  ( -12.81724255819383100, 6.448216294541354400, -0.004166270744146505400 ) ) ;
#149 = DIRECTION ( 'NONE',  ( 1.000000000000000000, 1.776356839400250500E-015, 0.0000000000000000000 ) ) ;
#150 = CARTESIAN_POINT ( 'NONE',  ( -5.684341886080800200E-014, -19.05000000000022100, 4.040551048813419800 ) ) ;
#151 = DIRECTION ( 'NONE',  ( -0.0000000000000000000, -0.0000000000000000000, -1.000000000000000000 ) ) ;
#152 = CARTESIAN_POINT ( 'NONE',  ( -6.412729050569468300, 6.448216294541386300, 5.328666820318538600 ) ) ;
#153 = CARTESIAN_POINT ( 'NONE',  ( -12.72875277701873900, -19.27781367557078000, 3.695145932944949000 ) ) ;
#154 = CARTESIAN_POINT ( 'NONE',  ( -4.662936703425659800E-015, -8.881784197001250400E-016, 4.040551048813440200 ) ) ;
#155 = SECURITY_CLASSIFICATION_LEVEL ( 'unclassified' ) ;
#156 = CIRCLE ( 'NONE', #243, 189.5999999999999900 ) ;
#157 = CARTESIAN_POINT ( 'NONE',  ( 12.81724255819382700, -6.448216294541298400, 5.004166270744193000 ) ) ;
#158 = CARTESIAN_POINT ( 'NONE',  ( 6.412729050569441600, -6.448216294541298400, 5.328666820318538600 ) ) ;
#159 = APPROVAL_STATUS ( 'not_yet_approved' ) ;
#160 = DIRECTION ( 'NONE',  ( 0.0000000000000000000, 0.0000000000000000000, 1.000000000000000000 ) ) ;
#161 = APPROVAL_STATUS ( 'not_yet_approved' ) ;
#162 = PERSON_AND_ORGANIZATION ( #79, #109 ) ;
#163 = CC_DESIGN_PERSON_AND_ORGANIZATION_ASSIGNMENT ( #39, #42, ( #100 ) ) ;
#164 = CARTESIAN_POINT ( 'NONE',  ( 6.412729050569465600, -6.448216294541266400, -0.3286668203185230100 ) ) ;
#165 = AXIS2_PLACEMENT_3D ( 'NONE', #261, #80, #283 ) ;
#166 = ORIENTED_EDGE ( 'NONE', *, *, #147, .T. ) ;
#167 = CALENDAR_DATE ( 2019, 7, 1 ) ;
#168 = CARTESIAN_POINT ( 'NONE',  ( 5.684341886080800200E-014, 6.448216294541354400, -0.3286668203185214600 ) ) ;
#169 = CIRCLE ( 'NONE', #98, 19.05000000000000100 ) ;
#170 = CALENDAR_DATE ( 2019, 7, 1 ) ;
#171 = CARTESIAN_POINT ( 'NONE',  ( -19.06459418959968500, 19.27781367557078000, 1.948548771196961800 ) ) ;
#172 = ADVANCED_FACE ( 'NONE', ( #227 ), #286, .T. ) ;
#173 = CARTESIAN_POINT ( 'NONE',  ( 19.04999999999999700, -8.881784197001250400E-016, 4.040551048813440200 ) ) ;
#174 = CARTESIAN_POINT ( 'NONE',  ( -12.72875277701875000, -19.27781367557069500, 1.304854067055097000 ) ) ;
#175 = DIRECTION ( 'NONE',  ( -0.0000000000000000000, -0.0000000000000000000, -1.000000000000000000 ) ) ;
#176 = EDGE_CURVE ( 'NONE', #11, #22, #142, .T. ) ;
#177 = PERSON_AND_ORGANIZATION ( #79, #109 ) ;
#178 = CARTESIAN_POINT ( 'NONE',  ( -5.684341886080800200E-014, 19.27781367557086900, 4.017406142407697400 ) ) ;
#179 = CC_DESIGN_APPROVAL ( #52, ( #100 ) ) ;
#180 = CARTESIAN_POINT ( 'NONE',  ( -19.19713048734871600, -6.448216294541298400, 4.355996626715394400 ) ) ;
#181 = AXIS2_PLACEMENT_3D ( 'NONE', #154, #128, #262 ) ;
#182 = APPLICATION_CONTEXT ( 'configuration controlled 3d designs of mechanical parts and assemblies' ) ;
#183 = CARTESIAN_POINT ( 'NONE',  ( 19.19713048734876500, 6.448216294541386300, 4.355996626715370500 ) ) ;
#184 = APPLICATION_PROTOCOL_DEFINITION ( 'international standard', 'config_control_design', 1994, #49 ) ;
#185 = ORIENTED_EDGE ( 'NONE', *, *, #216, .F. ) ;
#186 = APPROVAL_ROLE ( '' ) ;
#187 = CIRCLE ( 'NONE', #76, 19.05000000000000100 ) ;
#188 =( BOUNDED_SURFACE ( )  B_SPLINE_SURFACE ( 3, 3, ( 
 ( #249, #208, #293, #269 ),
 ( #24, #157, #158, #275 ),
 ( #183, #45, #69, #228 ),
 ( #93, #116, #113, #271 ) ),
 .UNSPECIFIED., .F., .F., .F. ) 
 B_SPLINE_SURFACE_WITH_KNOTS ( ( 4, 4 ),
 ( 4, 4 ),
 ( 0.0000000000000000000, 1.000000000000000000 ),
 ( 0.0000000000000000000, 1.000000000000000000 ),
 .UNSPECIFIED. ) 
 GEOMETRIC_REPRESENTATION_ITEM ( )  RATIONAL_B_SPLINE_SURFACE ( (
 ( 1.000000000000000000, 0.9991459129823127000, 0.9991459129823127000, 1.000000000000000000),
 ( 0.9965450286301254000, 0.9956938924586316000, 0.9956938924586316000, 0.9965450286301254000),
 ( 0.9965450286301254000, 0.9956938924586316000, 0.9956938924586316000, 0.9965450286301254000),
 ( 1.000000000000000000, 0.9991459129823127000, 0.9991459129823127000, 1.000000000000000000) ) ) 
 REPRESENTATION_ITEM ( '' )  SURFACE ( )  );
#189 = CC_DESIGN_APPROVAL ( #44, ( #209 ) ) ;
#190 = CARTESIAN_POINT ( 'NONE',  ( -19.06459418959968500, -19.27781367557069500, 1.948548771196961800 ) ) ;
#191 = LOCAL_TIME ( 16, 27, 17.00000000000000000, #240 ) ;
#192 = CC_DESIGN_PERSON_AND_ORGANIZATION_ASSIGNMENT ( #55, #19, ( #100 ) ) ;
#193 = ORIENTED_EDGE ( 'NONE', *, *, #101, .T. ) ;
#194 = FACE_OUTER_BOUND ( 'NONE', #254, .T. ) ;
#195 = CARTESIAN_POINT ( 'NONE',  ( -19.05000000000000400, 1.444773732675583000E-015, 0.9594489511865560400 ) ) ;
#196 = LINE ( 'NONE', #75, #57 ) ;
#197 = CARTESIAN_POINT ( 'NONE',  ( -6.412729050569468300, -6.448216294541298400, 5.328666820318540300 ) ) ;
#198 = LOCAL_TIME ( 16, 27, 17.00000000000000000, #280 ) ;
#199 = DIRECTION ( 'NONE',  ( 1.000000000000000000, 8.881784197001252300E-016, 0.0000000000000000000 ) ) ;
#200 = CARTESIAN_POINT ( 'NONE',  ( -19.06459418959963900, -19.27781367557078000, 3.051451228803093100 ) ) ;
#201 = CARTESIAN_POINT ( 'NONE',  ( 6.368455800075566700, 19.27781367557078000, 0.9825938575923066600 ) ) ;
#202 = ORIENTED_EDGE ( 'NONE', *, *, #235, .F. ) ;
#203 = CARTESIAN_POINT ( 'NONE',  ( -5.684341886080800200E-014, 6.448216294541386300, 5.328666820318538600 ) ) ;
#204 =( NAMED_UNIT ( * ) PLANE_ANGLE_UNIT ( ) SI_UNIT ( $, .RADIAN. ) );
#205 = DIRECTION ( 'NONE',  ( 1.000000000000000000, 0.0000000000000000000, 0.0000000000000000000 ) ) ;
#206 = PERSON_AND_ORGANIZATION ( #79, #109 ) ;
#207 = COORDINATED_UNIVERSAL_TIME_OFFSET ( 2, 0, .AHEAD. ) ;
#208 = CARTESIAN_POINT ( 'NONE',  ( 12.72875277701875000, -19.27781367557078000, 3.695145932944935700 ) ) ;
#209 = SECURITY_CLASSIFICATION ( '', '', #155 ) ;
#210 = PERSON_AND_ORGANIZATION ( #79, #109 ) ;
#211 = ORIENTED_EDGE ( 'NONE', *, *, #90, .F. ) ;
#212 =( BOUNDED_SURFACE ( )  B_SPLINE_SURFACE ( 3, 3, ( 
 ( #190, #174, #53, #54 ),
 ( #259, #31, #9, #244 ),
 ( #33, #148, #213, #121 ),
 ( #171, #218, #255, #34 ) ),
 .UNSPECIFIED., .F., .F., .T. ) 
 B_SPLINE_SURFACE_WITH_KNOTS ( ( 4, 4 ),
 ( 4, 4 ),
 ( 0.0000000000000000000, 1.000000000000000000 ),
 ( 0.0000000000000000000, 1.000000000000000000 ),
 .UNSPECIFIED. ) 
 GEOMETRIC_REPRESENTATION_ITEM ( )  RATIONAL_B_SPLINE_SURFACE ( (
 ( 1.000000000000000000, 0.9991459129823127000, 0.9991459129823127000, 1.000000000000000000),
 ( 0.9965450286301254000, 0.9956938924586316000, 0.9956938924586316000, 0.9965450286301254000),
 ( 0.9965450286301254000, 0.9956938924586316000, 0.9956938924586316000, 0.9965450286301254000),
 ( 1.000000000000000000, 0.9991459129823127000, 0.9991459129823127000, 1.000000000000000000) ) ) 
 REPRESENTATION_ITEM ( '' )  SURFACE ( )  );
#213 = CARTESIAN_POINT ( 'NONE',  ( -6.412729050569445200, 6.448216294541354400, -0.3286668203184914800 ) ) ;
#214 = AXIS2_PLACEMENT_3D ( 'NONE', #62, #87, #199 ) ;
#215 = VERTEX_POINT ( 'NONE', #63 ) ;
#216 = EDGE_CURVE ( 'NONE', #71, #145, #196, .T. ) ;
#217 = LOCAL_TIME ( 16, 27, 17.00000000000000000, #137 ) ;
#218 = CARTESIAN_POINT ( 'NONE',  ( -12.72875277701875000, 19.27781367557078000, 1.304854067055097000 ) ) ;
#219 = DIRECTION ( 'NONE',  ( 0.0000000000000000000, 0.0000000000000000000, 1.000000000000000000 ) ) ;
#220 = ORIENTED_EDGE ( 'NONE', *, *, #263, .T. ) ;
#221 = COORDINATED_UNIVERSAL_TIME_OFFSET ( 2, 0, .AHEAD. ) ;
#222 = CARTESIAN_POINT ( 'NONE',  ( -4.662936703425659800E-015, -8.881784197001250400E-016, 4.040551048813440200 ) ) ;
#223 = DIRECTION ( 'NONE',  ( -0.0000000000000000000, -0.0000000000000000000, -1.000000000000000000 ) ) ;
#224 = CC_DESIGN_DATE_AND_TIME_ASSIGNMENT ( #234, #70, ( #209 ) ) ;
#225 = CARTESIAN_POINT ( 'NONE',  ( -12.72875277701873900, 19.27781367557086500, 3.695145932944949000 ) ) ;
#226 = AXIS2_PLACEMENT_3D ( 'NONE', #118, #104, #124 ) ;
#227 = FACE_OUTER_BOUND ( 'NONE', #29, .T. ) ;
#228 = CARTESIAN_POINT ( 'NONE',  ( -6.938893903907228400E-015, 6.448216294541386300, 5.328666820318538600 ) ) ;
#229 = PERSON_AND_ORGANIZATION_ROLE ( 'design_owner' ) ;
#230 = APPROVAL_ROLE ( '' ) ;
#231 = CARTESIAN_POINT ( 'NONE',  ( 5.684341886080800200E-014, -19.27781367557069500, 0.9825938575923065500 ) ) ;
#232 = APPROVAL_STATUS ( 'not_yet_approved' ) ;
#233 = AXIS2_PLACEMENT_3D ( 'NONE', #130, #83, #73 ) ;
#234 = DATE_AND_TIME ( #50, #198 ) ;
#235 = EDGE_CURVE ( 'NONE', #22, #78, #169, .T. ) ;
#236 = CARTESIAN_POINT ( 'NONE',  ( 12.72875277701873400, -19.27781367557069500, 1.304854067055055200 ) ) ;
#237 = CARTESIAN_POINT ( 'NONE',  ( 5.684341886080800200E-014, -6.448216294541267300, -0.3286668203185229600 ) ) ;
#238 = UNCERTAINTY_MEASURE_WITH_UNIT (LENGTH_MEASURE( 1.000000000000000100E-005 ), #14, 'distance_accuracy_value', 'NONE');
#239 = CARTESIAN_POINT ( 'NONE',  ( 6.412729050569465600, 6.448216294541354400, -0.3286668203185214600 ) ) ;
#240 = COORDINATED_UNIVERSAL_TIME_OFFSET ( 2, 0, .AHEAD. ) ;
#241 = ORIENTED_EDGE ( 'NONE', *, *, #4, .T. ) ;
#242 = CYLINDRICAL_SURFACE ( 'NONE', #226, 19.05000000000000100 ) ;
#243 = AXIS2_PLACEMENT_3D ( 'NONE', #134, #18, #37 ) ;
#244 = CARTESIAN_POINT ( 'NONE',  ( 0.0000000000000000000, -6.448216294541267300, -0.3286668203184950900 ) ) ;
#245 =( NAMED_UNIT ( * ) SI_UNIT ( $, .STERADIAN. ) SOLID_ANGLE_UNIT ( ) );
#246 = DIRECTION ( 'NONE',  ( -0.0000000000000000000, -0.0000000000000000000, -1.000000000000000000 ) ) ;
#247 = CARTESIAN_POINT ( 'NONE',  ( -4.662936703425659800E-015, -8.881784197001250400E-016, 0.9594489511865560400 ) ) ;
#248 = EDGE_LOOP ( 'NONE', ( #185, #60, #77, #253, #132, #91 ) ) ;
#249 = CARTESIAN_POINT ( 'NONE',  ( 19.06459418959968500, -19.27781367557078000, 3.051451228803070400 ) ) ;
#250 = DIRECTION ( 'NONE',  ( -1.000000000000000000, 0.0000000000000000000, 0.0000000000000000000 ) ) ;
#251 = EDGE_CURVE ( 'NONE', #145, #11, #187, .T. ) ;
#252 = LOCAL_TIME ( 16, 27, 17.00000000000000000, #207 ) ;
#253 = ORIENTED_EDGE ( 'NONE', *, *, #133, .T. ) ;
#254 = EDGE_LOOP ( 'NONE', ( #131, #257, #72, #281, #21, #125 ) ) ;
#255 = CARTESIAN_POINT ( 'NONE',  ( -6.368455800075541800, 19.27781367557078000, 0.9825938575923367500 ) ) ;
#256 = APPROVAL_DATE_TIME ( #12, #287 ) ;
#257 = ORIENTED_EDGE ( 'NONE', *, *, #216, .T. ) ;
#258 = EDGE_CURVE ( 'NONE', #7, #215, #81, .T. ) ;
#259 = CARTESIAN_POINT ( 'NONE',  ( -19.19713048734876500, -6.448216294541267300, 0.6440033732846716100 ) ) ;
#260 = ADVANCED_FACE ( 'NONE', ( #126 ), #8, .T. ) ;
#261 = CARTESIAN_POINT ( 'NONE',  ( -4.662936703425659800E-015, -8.881784197001250400E-016, 0.9594489511865560400 ) ) ;
#262 = DIRECTION ( 'NONE',  ( 1.000000000000000000, 8.881784197001252300E-016, 0.0000000000000000000 ) ) ;
#263 = EDGE_CURVE ( 'NONE', #215, #71, #92, .T. ) ;
#264 = CARTESIAN_POINT ( 'NONE',  ( -4.662936703425659800E-015, -8.881784197001250400E-016, 4.040551048813440200 ) ) ;
#265 = CIRCLE ( 'NONE', #165, 19.05000000000000100 ) ;
#266 = DIRECTION ( 'NONE',  ( 1.000000000000000000, 0.0000000000000000000, 0.0000000000000000000 ) ) ;
#267 = CC_DESIGN_PERSON_AND_ORGANIZATION_ASSIGNMENT ( #47, #46, ( #209 ) ) ;
#268 = DATE_AND_TIME ( #167, #217 ) ;
#269 = CARTESIAN_POINT ( 'NONE',  ( -6.938893903907228400E-015, -19.27781367557078000, 4.017406142407697400 ) ) ;
#270 = PERSON_AND_ORGANIZATION_ROLE ( 'creator' ) ;
#271 = CARTESIAN_POINT ( 'NONE',  ( -6.938893903907228400E-015, 19.27781367557086900, 4.017406142407697400 ) ) ;
#272 = CC_DESIGN_PERSON_AND_ORGANIZATION_ASSIGNMENT ( #177, #229, ( #141 ) ) ;
#273 = EDGE_LOOP ( 'NONE', ( #10, #202, #27 ) ) ;
#274 = CLOSED_SHELL ( 'NONE', ( #172, #106, #58, #41, #260, #110 ) ) ;
#275 = CARTESIAN_POINT ( 'NONE',  ( -6.938893903907228400E-015, -6.448216294541298400, 5.328666820318540300 ) ) ;
#276 = DATE_AND_TIME ( #289, #191 ) ;
#277 = CC_DESIGN_SECURITY_CLASSIFICATION ( #209, ( #100 ) ) ;
#278 = CARTESIAN_POINT ( 'NONE',  ( 19.06459418959963200, -19.27781367557069500, 1.948548771196910700 ) ) ;
#279 = CARTESIAN_POINT ( 'NONE',  ( 19.04999999999999700, -8.881784197001250400E-016, 0.9594489511865560400 ) ) ;
#280 = COORDINATED_UNIVERSAL_TIME_OFFSET ( 2, 0, .AHEAD. ) ;
#281 = ORIENTED_EDGE ( 'NONE', *, *, #176, .T. ) ;
#282 = APPROVAL_PERSON_ORGANIZATION ( #162, #287, #230 ) ;
#283 = DIRECTION ( 'NONE',  ( 1.000000000000000000, -8.881784197001252300E-016, 0.0000000000000000000 ) ) ;
#284 = CIRCLE ( 'NONE', #74, 189.5999999999999900 ) ;
#285 = CARTESIAN_POINT ( 'NONE',  ( -4.662936703425659800E-015, -8.881784197001250400E-016, 0.9594489511865560400 ) ) ;
#286 =( BOUNDED_SURFACE ( )  B_SPLINE_SURFACE ( 3, 3, ( 
 ( #231, #115, #236, #278 ),
 ( #237, #164, #30, #3 ),
 ( #168, #239, #99, #89 ),
 ( #105, #201, #108, #65 ) ),
 .UNSPECIFIED., .F., .F., .F. ) 
 B_SPLINE_SURFACE_WITH_KNOTS ( ( 4, 4 ),
 ( 4, 4 ),
 ( 0.0000000000000000000, 1.000000000000000000 ),
 ( 0.0000000000000000000, 1.000000000000000000 ),
 .UNSPECIFIED. ) 
 GEOMETRIC_REPRESENTATION_ITEM ( )  RATIONAL_B_SPLINE_SURFACE ( (
 ( 1.000000000000000000, 0.9991459129823127000, 0.9991459129823127000, 1.000000000000000000),
 ( 0.9965450286301254000, 0.9956938924586316000, 0.9956938924586316000, 0.9965450286301254000),
 ( 0.9965450286301254000, 0.9956938924586316000, 0.9956938924586316000, 0.9965450286301254000),
 ( 1.000000000000000000, 0.9991459129823127000, 0.9991459129823127000, 1.000000000000000000) ) ) 
 REPRESENTATION_ITEM ( '' )  SURFACE ( )  );
#287 = APPROVAL ( #161, 'UNSPECIFIED' ) ;
#288 = DIRECTION ( 'NONE',  ( 1.000000000000000000, 0.0000000000000000000, 0.0000000000000000000 ) ) ;
#289 = CALENDAR_DATE ( 2019, 7, 1 ) ;
#290 = DIRECTION ( 'NONE',  ( 0.0000000000000000000, 0.0000000000000000000, 1.000000000000000000 ) ) ;
#291 = CARTESIAN_POINT ( 'NONE',  ( -6.368455800075567600, -19.27781367557078000, 4.017406142407698300 ) ) ;
#292 = MECHANICAL_CONTEXT ( 'NONE', #182, 'mechanical' ) ;
#293 = CARTESIAN_POINT ( 'NONE',  ( 6.368455800075540000, -19.27781367557078000, 4.017406142407695700 ) ) ;
#294 = ORIENTED_EDGE ( 'NONE', *, *, #101, .F. ) ;
#295 = CARTESIAN_POINT ( 'NONE',  ( -19.05000000000000400, 1.444773732675583000E-015, 4.040551048813440200 ) ) ;
ENDSEC;
END-ISO-10303-21;
