ISO-10303-21;
HEADER;
FILE_DESCRIPTION (( 'STEP AP203' ),
    '1' );
FILE_NAME ('111-1414E UVFS bi-cx 38.1 F150.STEP',
    '2019-01-07T14:04:09',
    ( '' ),
    ( '' ),
    'SwSTEP 2.0',
    'SolidWorks 2017',
    '' );
FILE_SCHEMA (( 'CONFIG_CONTROL_DESIGN' ));
ENDSEC;

DATA;
#1 = DIRECTION ( 'NONE',  ( 1.000000000000000000, 0.0000000000000000000, 0.0000000000000000000 ) ) ;
#2 = ORIENTED_EDGE ( 'NONE', *, *, #212, .F. ) ;
#3 = CC_DESIGN_PERSON_AND_ORGANIZATION_ASSIGNMENT ( #223, #104, ( #274 ) ) ;
#4 = DIRECTION ( 'NONE',  ( -0.0000000000000000000, -0.0000000000000000000, -1.000000000000000000 ) ) ;
#5 = PERSON_AND_ORGANIZATION ( #41, #269 ) ;
#6 = CARTESIAN_POINT ( 'NONE',  ( -4.662936703425659800E-015, -8.881784197001250400E-016, 1.283627462899680000 ) ) ;
#7 = CARTESIAN_POINT ( 'NONE',  ( -12.84972407235969200, 6.465635167009407900, 5.005885216130524300 ) ) ;
#8 = CLOSED_SHELL ( 'NONE', ( #132, #116, #40, #162, #38, #66 ) ) ;
#9 = CARTESIAN_POINT ( 'NONE',  ( -5.724659634693300200E-014, -19.27719367776729000, 3.685428541515434200 ) ) ;
#10 = CARTESIAN_POINT ( 'NONE',  ( 12.84972407235969500, 6.465635167009423000, -0.005885216130550159600 ) ) ;
#11 = CARTESIAN_POINT ( 'NONE',  ( 18.98619515748883700, 19.27719367776729300, 2.398400985633958100 ) ) ;
#12 = CARTESIAN_POINT ( 'NONE',  ( 6.432225929957267500, -6.465635167009391900, -0.4409116593213960300 ) ) ;
#13 = CARTESIAN_POINT ( 'NONE',  ( 2.842170943040400100E-014, 1.421085471520200100E-014, 142.0000000000000300 ) ) ;
#14 = EDGE_CURVE ( 'NONE', #197, #87, #235, .T. ) ;
#15 = CARTESIAN_POINT ( 'NONE',  ( -4.662936703425659800E-015, -8.881784197001250400E-016, 3.716372537100320900 ) ) ;
#16 = DIRECTION ( 'NONE',  ( 0.0000000000000000000, 0.0000000000000000000, 1.000000000000000000 ) ) ;
#17 = PRODUCT ( '111-1414E UVFS bi-cx 38.1 F150', '111-1414E UVFS bi-cx 38.1 F150', '', ( #228 ) ) ;
#18 = ORIENTED_EDGE ( 'NONE', *, *, #44, .F. ) ;
#19 = CARTESIAN_POINT ( 'NONE',  ( -18.98619515748884000, 19.27719367776731800, 2.601599014366018400 ) ) ;
#20 = MANIFOLD_SOLID_BREP ( 'Imported1', #8 ) ;
#21 = ORIENTED_EDGE ( 'NONE', *, *, #170, .F. ) ;
#22 = COORDINATED_UNIVERSAL_TIME_OFFSET ( 2, 0, .AHEAD. ) ;
#23 = PRODUCT_RELATED_PRODUCT_CATEGORY ( 'detail', '', ( #17 ) ) ;
#24 = PERSON_AND_ORGANIZATION_ROLE ( 'design_supplier' ) ;
#25 = COORDINATED_UNIVERSAL_TIME_OFFSET ( 2, 0, .AHEAD. ) ;
#26 = AXIS2_PLACEMENT_3D ( 'NONE', #37, #92, #152 ) ;
#27 = CIRCLE ( 'NONE', #26, 19.05000000000000100 ) ;
#28 = LOCAL_TIME ( 16, 4, 9.000000000000000000, #276 ) ;
#29 = CARTESIAN_POINT ( 'NONE',  ( 19.04999999999999700, -8.881784197001250400E-016, 3.716372537100320900 ) ) ;
#30 = CALENDAR_DATE ( 2019, 7, 1 ) ;
#31 = CARTESIAN_POINT ( 'NONE',  ( -6.352953311589301300, 19.27719367776729300, 3.685428541515432400 ) ) ;
#32 = DIRECTION ( 'NONE',  ( -0.0000000000000000000, -0.0000000000000000000, -1.000000000000000000 ) ) ;
#33 = CARTESIAN_POINT ( 'NONE',  ( 12.84972407235959800, -6.465635167009398100, 5.005885216130535800 ) ) ;
#34 = CARTESIAN_POINT ( 'NONE',  ( -19.22310629616091400, -6.465635167009397200, 0.8621755209996793100 ) ) ;
#35 = CARTESIAN_POINT ( 'NONE',  ( -6.432225929957178700, -6.465635167009393700, -0.4409116593214017500 ) ) ;
#36 = ORIENTED_EDGE ( 'NONE', *, *, #209, .F. ) ;
#37 = CARTESIAN_POINT ( 'NONE',  ( -4.662936703425659800E-015, -8.881784197001250400E-016, 1.283627462899680000 ) ) ;
#38 = ADVANCED_FACE ( 'NONE', ( #147 ), #52, .T. ) ;
#39 = DIRECTION ( 'NONE',  ( 0.0000000000000000000, 0.0000000000000000000, 1.000000000000000000 ) ) ;
#40 = ADVANCED_FACE ( 'NONE', ( #142 ), #102, .T. ) ;
#41 = PERSON ( 'UNSPECIFIED', 'UNSPECIFIED', 'UNSPECIFIED', ('UNSPECIFIED'), ('UNSPECIFIED'), ('UNSPECIFIED') ) ;
#42 = CIRCLE ( 'NONE', #195, 142.0000000000000300 ) ;
#43 = PERSON_AND_ORGANIZATION ( #41, #269 ) ;
#44 = EDGE_CURVE ( 'NONE', #87, #106, #159, .T. ) ;
#45 = DIRECTION ( 'NONE',  ( -0.0000000000000000000, -0.0000000000000000000, -1.000000000000000000 ) ) ;
#46 = ORIENTED_EDGE ( 'NONE', *, *, #155, .F. ) ;
#47 = APPROVAL_DATE_TIME ( #173, #55 ) ;
#48 = PRODUCT_DEFINITION_FORMATION_WITH_SPECIFIED_SOURCE ( 'ANY', '', #17, .NOT_KNOWN. ) ;
#49 = CIRCLE ( 'NONE', #174, 19.05000000000000100 ) ;
#50 = DATE_TIME_ROLE ( 'creation_date' ) ;
#51 = AXIS2_PLACEMENT_3D ( 'NONE', #286, #187, #70 ) ;
#52 = CYLINDRICAL_SURFACE ( 'NONE', #110, 19.05000000000000100 ) ;
#53 = EDGE_CURVE ( 'NONE', #283, #234, #222, .T. ) ;
#54 =( BOUNDED_SURFACE ( )  B_SPLINE_SURFACE ( 3, 3, ( 
 ( #245, #285, #186, #161 ),
 ( #158, #12, #63, #219 ),
 ( #127, #202, #10, #225 ),
 ( #88, #204, #90, #205 ) ),
 .UNSPECIFIED., .F., .F., .F. ) 
 B_SPLINE_SURFACE_WITH_KNOTS ( ( 4, 4 ),
 ( 4, 4 ),
 ( 0.0000000000000000000, 1.000000000000000000 ),
 ( 0.0000000000000000000, 1.000000000000000000 ),
 .UNSPECIFIED. ) 
 GEOMETRIC_REPRESENTATION_ITEM ( )  RATIONAL_B_SPLINE_SURFACE ( (
 ( 1.000000000000000000, 0.9984735416411924000, 0.9984735416411924000, 1.000000000000000000),
 ( 0.9938283030118095800, 0.9923112654914576500, 0.9923112654914576500, 0.9938283030118095800),
 ( 0.9938283030118095800, 0.9923112654914576500, 0.9923112654914576500, 0.9938283030118095800),
 ( 1.000000000000000000, 0.9984735416411924000, 0.9984735416411924000, 1.000000000000000000) ) ) 
 REPRESENTATION_ITEM ( '' )  SURFACE ( )  );
#55 = APPROVAL ( #164, 'UNSPECIFIED' ) ;
#56 = ORIENTED_EDGE ( 'NONE', *, *, #145, .T. ) ;
#57 = DATE_AND_TIME ( #236, #262 ) ;
#58 = DIRECTION ( 'NONE',  ( 0.0000000000000000000, 0.0000000000000000000, 1.000000000000000000 ) ) ;
#59 = CARTESIAN_POINT ( 'NONE',  ( -2.081668171172168500E-014, -19.27719367776729000, 3.685428541515438600 ) ) ;
#60 = ORIENTED_EDGE ( 'NONE', *, *, #224, .F. ) ;
#61 = CARTESIAN_POINT ( 'NONE',  ( -12.84972407235959800, -6.465635167009394600, -0.005885216130532595600 ) ) ;
#62 = CC_DESIGN_DATE_AND_TIME_ASSIGNMENT ( #83, #50, ( #274 ) ) ;
#63 = CARTESIAN_POINT ( 'NONE',  ( 12.84972407235969900, -6.465635167009391900, -0.005885216130522620900 ) ) ;
#64 = ADVANCED_BREP_SHAPE_REPRESENTATION ( '111-1414E UVFS bi-cx 38.1 F150', ( #20, #250 ), #105 ) ;
#65 = APPLICATION_CONTEXT ( 'configuration controlled 3d designs of mechanical parts and assemblies' ) ;
#66 = ADVANCED_FACE ( 'NONE', ( #291 ), #114, .T. ) ;
#67 = ORIENTED_EDGE ( 'NONE', *, *, #14, .T. ) ;
#68 = COORDINATED_UNIVERSAL_TIME_OFFSET ( 2, 0, .AHEAD. ) ;
#69 = PRODUCT_DEFINITION_SHAPE ( 'NONE', 'NONE',  #274 ) ;
#70 = DIRECTION ( 'NONE',  ( 1.000000000000000000, -8.881784197001252300E-016, 0.0000000000000000000 ) ) ;
#71 = CARTESIAN_POINT ( 'NONE',  ( 1.734723475976807100E-014, 19.27719367776732200, 1.314571458484536900 ) ) ;
#72 = CC_DESIGN_APPROVAL ( #96, ( #48 ) ) ;
#73 = CARTESIAN_POINT ( 'NONE',  ( -12.69136034515008200, 19.27719367776731500, 1.744236509587105100 ) ) ;
#74 = ORIENTED_EDGE ( 'NONE', *, *, #271, .T. ) ;
#75 = DIRECTION ( 'NONE',  ( -0.0000000000000000000, -0.0000000000000000000, -1.000000000000000000 ) ) ;
#76 = CC_DESIGN_SECURITY_CLASSIFICATION ( #208, ( #48 ) ) ;
#77 = PERSON_AND_ORGANIZATION_ROLE ( 'creator' ) ;
#78 = VERTEX_POINT ( 'NONE', #281 ) ;
#79 = APPROVAL_ROLE ( '' ) ;
#80 = EDGE_CURVE ( 'NONE', #106, #175, #27, .T. ) ;
#81 = EDGE_LOOP ( 'NONE', ( #67, #56, #74 ) ) ;
#82 = AXIS2_PLACEMENT_3D ( 'NONE', #191, #133, #136 ) ;
#83 = DATE_AND_TIME ( #109, #259 ) ;
#84 = AXIS2_PLACEMENT_3D ( 'NONE', #190, #75, #100 ) ;
#85 = DIRECTION ( 'NONE',  ( 0.0000000000000000000, 0.0000000000000000000, 1.000000000000000000 ) ) ;
#86 = CARTESIAN_POINT ( 'NONE',  ( -19.22310629616102800, 6.465635167009409700, 4.137824479000307100 ) ) ;
#87 = VERTEX_POINT ( 'NONE', #217 ) ;
#88 = CARTESIAN_POINT ( 'NONE',  ( 4.935690906077037200E-014, 19.27719367776732200, 1.314571458484542500 ) ) ;
#89 = CARTESIAN_POINT ( 'NONE',  ( 12.84972407235959800, 6.465635167009404300, 5.005885216130534100 ) ) ;
#90 = CARTESIAN_POINT ( 'NONE',  ( 12.69136034515017300, 19.27719367776732200, 1.744236509587116000 ) ) ;
#91 = AXIS2_PLACEMENT_3D ( 'NONE', #256, #125, #1 ) ;
#92 = DIRECTION ( 'NONE',  ( -0.0000000000000000000, -0.0000000000000000000, -1.000000000000000000 ) ) ;
#93 = VERTEX_POINT ( 'NONE', #29 ) ;
#94 = CARTESIAN_POINT ( 'NONE',  ( -12.69136034515017600, -19.27719367776727900, 3.255763490412860900 ) ) ;
#95 =( LENGTH_UNIT ( ) NAMED_UNIT ( * ) SI_UNIT ( .MILLI., .METRE. ) );
#96 = APPROVAL ( #294, 'UNSPECIFIED' ) ;
#97 = CARTESIAN_POINT ( 'NONE',  ( -12.84972407235959900, 6.465635167009417600, -0.005885216130560351100 ) ) ;
#98 = LINE ( 'NONE', #230, #268 ) ;
#99 = DATE_AND_TIME ( #293, #289 ) ;
#100 = DIRECTION ( 'NONE',  ( 1.000000000000000000, 8.881784197001252300E-016, 0.0000000000000000000 ) ) ;
#101 = AXIS2_PLACEMENT_3D ( 'NONE', #260, #4, #198 ) ;
#102 = CYLINDRICAL_SURFACE ( 'NONE', #277, 19.05000000000000100 ) ;
#103 = CC_DESIGN_PERSON_AND_ORGANIZATION_ASSIGNMENT ( #160, #77, ( #48 ) ) ;
#104 = PERSON_AND_ORGANIZATION_ROLE ( 'creator' ) ;
#105 =( GEOMETRIC_REPRESENTATION_CONTEXT ( 3 ) GLOBAL_UNCERTAINTY_ASSIGNED_CONTEXT ( ( #176 ) ) GLOBAL_UNIT_ASSIGNED_CONTEXT ( ( #95, #121, #117 ) ) REPRESENTATION_CONTEXT ( 'NONE', 'WORKASPACE' ) );
#106 = VERTEX_POINT ( 'NONE', #115 ) ;
#107 = APPROVAL ( #167, 'UNSPECIFIED' ) ;
#108 = CIRCLE ( 'NONE', #51, 19.05000000000000100 ) ;
#109 = CALENDAR_DATE ( 2019, 7, 1 ) ;
#110 = AXIS2_PLACEMENT_3D ( 'NONE', #279, #58, #150 ) ;
#111 = CARTESIAN_POINT ( 'NONE',  ( 12.69136034515007900, 19.27719367776729000, 3.255763490412870300 ) ) ;
#112 = DIRECTION ( 'NONE',  ( 1.000000000000000000, 0.0000000000000000000, 0.0000000000000000000 ) ) ;
#113 = CARTESIAN_POINT ( 'NONE',  ( -4.935690906077022700E-014, 19.27719367776729700, 3.685428541515434200 ) ) ;
#114 =( BOUNDED_SURFACE ( )  B_SPLINE_SURFACE ( 3, 3, ( 
 ( #239, #218, #179, #59 ),
 ( #130, #33, #181, #156 ),
 ( #243, #89, #220, #157 ),
 ( #11, #111, #203, #184 ) ),
 .UNSPECIFIED., .F., .F., .F. ) 
 B_SPLINE_SURFACE_WITH_KNOTS ( ( 4, 4 ),
 ( 4, 4 ),
 ( 0.0000000000000000000, 1.000000000000000000 ),
 ( 0.0000000000000000000, 1.000000000000000000 ),
 .UNSPECIFIED. ) 
 GEOMETRIC_REPRESENTATION_ITEM ( )  RATIONAL_B_SPLINE_SURFACE ( (
 ( 1.000000000000000000, 0.9984735416411924000, 0.9984735416411924000, 1.000000000000000000),
 ( 0.9938283030118095800, 0.9923112654914576500, 0.9923112654914576500, 0.9938283030118095800),
 ( 0.9938283030118095800, 0.9923112654914576500, 0.9923112654914576500, 0.9938283030118095800),
 ( 1.000000000000000000, 0.9984735416411924000, 0.9984735416411924000, 1.000000000000000000) ) ) 
 REPRESENTATION_ITEM ( '' )  SURFACE ( )  );
#115 = CARTESIAN_POINT ( 'NONE',  ( -19.05000000000000400, 1.444773732675583000E-015, 1.283627462899680000 ) ) ;
#116 = ADVANCED_FACE ( 'NONE', ( #266 ), #169, .T. ) ;
#117 =( NAMED_UNIT ( * ) SI_UNIT ( $, .STERADIAN. ) SOLID_ANGLE_UNIT ( ) );
#118 = PERSON_AND_ORGANIZATION_ROLE ( 'design_owner' ) ;
#119 = CARTESIAN_POINT ( 'NONE',  ( 19.04999999999999700, -8.881784197001250400E-016, 1.283627462899680000 ) ) ;
#120 = CARTESIAN_POINT ( 'NONE',  ( -4.940887389576213700E-014, 19.04999999999997900, 3.716372537100326200 ) ) ;
#121 =( NAMED_UNIT ( * ) PLANE_ANGLE_UNIT ( ) SI_UNIT ( $, .RADIAN. ) );
#122 = ORIENTED_EDGE ( 'NONE', *, *, #53, .F. ) ;
#123 = COORDINATED_UNIVERSAL_TIME_OFFSET ( 2, 0, .AHEAD. ) ;
#124 = EDGE_LOOP ( 'NONE', ( #122, #46, #60 ) ) ;
#125 = DIRECTION ( 'NONE',  ( -0.0000000000000000000, -0.0000000000000000000, -1.000000000000000000 ) ) ;
#126 = PERSON_AND_ORGANIZATION ( #41, #269 ) ;
#127 = CARTESIAN_POINT ( 'NONE',  ( 5.228909397441661900E-014, 6.465635167009417600, -0.4409116593214248400 ) ) ;
#128 = EDGE_LOOP ( 'NONE', ( #213, #18, #233, #255, #275, #238 ) ) ;
#129 = CARTESIAN_POINT ( 'NONE',  ( -12.69136034515007200, -19.27719367776729300, 1.744236509587133300 ) ) ;
#130 = CARTESIAN_POINT ( 'NONE',  ( 19.22310629616091400, -6.465635167009400800, 4.137824479000323100 ) ) ;
#131 = CARTESIAN_POINT ( 'NONE',  ( -12.69136034515016900, 19.27719367776729700, 3.255763490412860900 ) ) ;
#132 = ADVANCED_FACE ( 'NONE', ( #229 ), #54, .T. ) ;
#133 = DIRECTION ( 'NONE',  ( -0.0000000000000000000, -0.0000000000000000000, -1.000000000000000000 ) ) ;
#134 = CC_DESIGN_APPROVAL ( #107, ( #208 ) ) ;
#135 = APPLICATION_CONTEXT ( 'configuration controlled 3d designs of mechanical parts and assemblies' ) ;
#136 = DIRECTION ( 'NONE',  ( 1.000000000000000000, 8.881784197001252300E-016, 0.0000000000000000000 ) ) ;
#137 = ORIENTED_EDGE ( 'NONE', *, *, #44, .T. ) ;
#138 = AXIS2_PLACEMENT_3D ( 'NONE', #214, #148, #177 ) ;
#139 = APPROVAL_ROLE ( '' ) ;
#140 = DATE_TIME_ROLE ( 'classification_date' ) ;
#141 = CC_DESIGN_PERSON_AND_ORGANIZATION_ASSIGNMENT ( #153, #24, ( #48 ) ) ;
#142 = FACE_OUTER_BOUND ( 'NONE', #288, .T. ) ;
#143 = APPROVAL_PERSON_ORGANIZATION ( #5, #55, #189 ) ;
#144 = SECURITY_CLASSIFICATION_LEVEL ( 'unclassified' ) ;
#145 = EDGE_CURVE ( 'NONE', #87, #175, #42, .T. ) ;
#146 = ORIENTED_EDGE ( 'NONE', *, *, #80, .T. ) ;
#147 = FACE_OUTER_BOUND ( 'NONE', #128, .T. ) ;
#148 = DIRECTION ( 'NONE',  ( -1.000000000000000000, 2.046378590692400000E-016, -1.768487577667339900E-016 ) ) ;
#149 = CC_DESIGN_APPROVAL ( #55, ( #274 ) ) ;
#150 = DIRECTION ( 'NONE',  ( 1.000000000000000000, 0.0000000000000000000, 0.0000000000000000000 ) ) ;
#151 = CIRCLE ( 'NONE', #84, 19.05000000000000100 ) ;
#152 = DIRECTION ( 'NONE',  ( 1.000000000000000000, 0.0000000000000000000, 0.0000000000000000000 ) ) ;
#153 = PERSON_AND_ORGANIZATION ( #41, #269 ) ;
#154 = CARTESIAN_POINT ( 'NONE',  ( -18.98619515748894700, -19.27719367776728600, 2.398400985633944300 ) ) ;
#155 = EDGE_CURVE ( 'NONE', #93, #283, #272, .T. ) ;
#156 = CARTESIAN_POINT ( 'NONE',  ( -2.081668171172168500E-014, -6.465635167009397200, 5.440911659321402600 ) ) ;
#157 = CARTESIAN_POINT ( 'NONE',  ( -2.081668171172168500E-014, 6.465635167009407000, 5.440911659321401700 ) ) ;
#158 = CARTESIAN_POINT ( 'NONE',  ( 5.493532145061580300E-014, -6.465635167009393700, -0.4409116593213970900 ) ) ;
#159 = CIRCLE ( 'NONE', #91, 19.05000000000000100 ) ;
#160 = PERSON_AND_ORGANIZATION ( #41, #269 ) ;
#161 = CARTESIAN_POINT ( 'NONE',  ( 18.98619515748894700, -19.27719367776729300, 2.601599014366060100 ) ) ;
#162 = ADVANCED_FACE ( 'NONE', ( #172 ), #226, .T. ) ;
#163 = DIRECTION ( 'NONE',  ( 1.000000000000000000, -8.881784197001252300E-016, 0.0000000000000000000 ) ) ;
#164 = APPROVAL_STATUS ( 'not_yet_approved' ) ;
#165 = PERSON_AND_ORGANIZATION ( #41, #269 ) ;
#166 = CARTESIAN_POINT ( 'NONE',  ( -6.432225929957179600, 6.465635167009419400, -0.4409116593214298400 ) ) ;
#167 = APPROVAL_STATUS ( 'not_yet_approved' ) ;
#168 = ORIENTED_EDGE ( 'NONE', *, *, #145, .F. ) ;
#169 =( BOUNDED_SURFACE ( )  B_SPLINE_SURFACE ( 3, 3, ( 
 ( #9, #185, #94, #154 ),
 ( #180, #246, #221, #265 ),
 ( #244, #200, #7, #86 ),
 ( #113, #31, #131, #264 ) ),
 .UNSPECIFIED., .F., .F., .T. ) 
 B_SPLINE_SURFACE_WITH_KNOTS ( ( 4, 4 ),
 ( 4, 4 ),
 ( 0.0000000000000000000, 1.000000000000000000 ),
 ( 0.0000000000000000000, 1.000000000000000000 ),
 .UNSPECIFIED. ) 
 GEOMETRIC_REPRESENTATION_ITEM ( )  RATIONAL_B_SPLINE_SURFACE ( (
 ( 1.000000000000000000, 0.9984735416411924000, 0.9984735416411924000, 1.000000000000000000),
 ( 0.9938283030118095800, 0.9923112654914576500, 0.9923112654914576500, 0.9938283030118095800),
 ( 0.9938283030118095800, 0.9923112654914576500, 0.9923112654914576500, 0.9938283030118095800),
 ( 1.000000000000000000, 0.9984735416411924000, 0.9984735416411924000, 1.000000000000000000) ) ) 
 REPRESENTATION_ITEM ( '' )  SURFACE ( )  );
#170 = EDGE_CURVE ( 'NONE', #197, #93, #98, .T. ) ;
#171 = PERSON_AND_ORGANIZATION_ROLE ( 'classification_officer' ) ;
#172 = FACE_OUTER_BOUND ( 'NONE', #192, .T. ) ;
#173 = DATE_AND_TIME ( #247, #28 ) ;
#174 = AXIS2_PLACEMENT_3D ( 'NONE', #15, #45, #163 ) ;
#175 = VERTEX_POINT ( 'NONE', #270 ) ;
#176 = UNCERTAINTY_MEASURE_WITH_UNIT (LENGTH_MEASURE( 1.000000000000000100E-005 ), #95, 'distance_accuracy_value', 'NONE');
#177 = DIRECTION ( 'NONE',  ( -2.046378590692399300E-016, -1.000000000000000000, 0.0000000000000000000 ) ) ;
#178 = VECTOR ( 'NONE', #16, 1000.000000000000000 ) ;
#179 = CARTESIAN_POINT ( 'NONE',  ( 6.352953311589218700, -19.27719367776728300, 3.685428541515437800 ) ) ;
#180 = CARTESIAN_POINT ( 'NONE',  ( -5.493532145061565100E-014, -6.465635167009397200, 5.440911659321397300 ) ) ;
#181 = CARTESIAN_POINT ( 'NONE',  ( 6.432225929957178700, -6.465635167009398100, 5.440911659321404400 ) ) ;
#182 = CARTESIAN_POINT ( 'NONE',  ( 2.081668171172168500E-014, -19.27719367776729300, 1.314571458484565100 ) ) ;
#183 = APPROVAL_DATE_TIME ( #57, #107 ) ;
#184 = CARTESIAN_POINT ( 'NONE',  ( -1.387778780781445700E-014, 19.27719367776729700, 3.685428541515438600 ) ) ;
#185 = CARTESIAN_POINT ( 'NONE',  ( -6.352953311589308400, -19.27719367776728300, 3.685428541515432400 ) ) ;
#186 = CARTESIAN_POINT ( 'NONE',  ( 12.69136034515017600, -19.27719367776728600, 1.744236509587142800 ) ) ;
#187 = DIRECTION ( 'NONE',  ( -0.0000000000000000000, -0.0000000000000000000, -1.000000000000000000 ) ) ;
#188 = SHAPE_DEFINITION_REPRESENTATION ( #69, #64 ) ;
#189 = APPROVAL_ROLE ( '' ) ;
#190 = CARTESIAN_POINT ( 'NONE',  ( -4.662936703425659800E-015, -8.881784197001250400E-016, 3.716372537100320900 ) ) ;
#191 = CARTESIAN_POINT ( 'NONE',  ( -4.662936703425659800E-015, -8.881784197001250400E-016, 3.716372537100320900 ) ) ;
#192 = EDGE_LOOP ( 'NONE', ( #168, #137, #146 ) ) ;
#193 = ORIENTED_EDGE ( 'NONE', *, *, #212, .T. ) ;
#194 = LOCAL_TIME ( 16, 4, 9.000000000000000000, #123 ) ;
#195 = AXIS2_PLACEMENT_3D ( 'NONE', #13, #242, #280 ) ;
#196 = ORIENTED_EDGE ( 'NONE', *, *, #271, .F. ) ;
#197 = VERTEX_POINT ( 'NONE', #119 ) ;
#198 = DIRECTION ( 'NONE',  ( 1.000000000000000000, 0.0000000000000000000, 0.0000000000000000000 ) ) ;
#199 = DIRECTION ( 'NONE',  ( 1.000000000000000000, 0.0000000000000000000, 0.0000000000000000000 ) ) ;
#200 = CARTESIAN_POINT ( 'NONE',  ( -6.432225929957264800, 6.465635167009407900, 5.440911659321397300 ) ) ;
#201 = ORIENTED_EDGE ( 'NONE', *, *, #237, .T. ) ;
#202 = CARTESIAN_POINT ( 'NONE',  ( 6.432225929957265700, 6.465635167009422100, -0.4409116593214237900 ) ) ;
#203 = CARTESIAN_POINT ( 'NONE',  ( 6.352953311589225800, 19.27719367776729300, 3.685428541515437800 ) ) ;
#204 = CARTESIAN_POINT ( 'NONE',  ( 6.352953311589303100, 19.27719367776731800, 1.314571458484543200 ) ) ;
#205 = CARTESIAN_POINT ( 'NONE',  ( 18.98619515748894300, 19.27719367776732500, 2.601599014366033000 ) ) ;
#206 = DIRECTION ( 'NONE',  ( 1.000000000000000000, 0.0000000000000000000, 0.0000000000000000000 ) ) ;
#207 = CARTESIAN_POINT ( 'NONE',  ( -19.22310629616091800, 6.465635167009414100, 0.8621755209996515600 ) ) ;
#208 = SECURITY_CLASSIFICATION ( '', '', #144 ) ;
#209 = EDGE_CURVE ( 'NONE', #283, #78, #210, .T. ) ;
#210 = CIRCLE ( 'NONE', #82, 19.05000000000000100 ) ;
#211 = DATE_AND_TIME ( #30, #194 ) ;
#212 = EDGE_CURVE ( 'NONE', #78, #234, #151, .T. ) ;
#213 = ORIENTED_EDGE ( 'NONE', *, *, #237, .F. ) ;
#214 = CARTESIAN_POINT ( 'NONE',  ( -2.842170943040400100E-014, 1.421085471520200100E-014, -137.0000000000000000 ) ) ;
#215 = LINE ( 'NONE', #252, #178 ) ;
#216 = APPROVAL_DATE_TIME ( #211, #96 ) ;
#217 = CARTESIAN_POINT ( 'NONE',  ( 5.720557632630031500E-014, -19.04999999999996500, 1.283627462899676400 ) ) ;
#218 = CARTESIAN_POINT ( 'NONE',  ( 12.69136034515007200, -19.27719367776728600, 3.255763490412870300 ) ) ;
#219 = CARTESIAN_POINT ( 'NONE',  ( 19.22310629616103500, -6.465635167009390100, 0.8621755209996931900 ) ) ;
#220 = CARTESIAN_POINT ( 'NONE',  ( 6.432225929957178700, 6.465635167009404300, 5.440911659321403500 ) ) ;
#221 = CARTESIAN_POINT ( 'NONE',  ( -12.84972407235969500, -6.465635167009394600, 5.005885216130525200 ) ) ;
#222 = CIRCLE ( 'NONE', #138, 142.0000000000000300 ) ;
#223 = PERSON_AND_ORGANIZATION ( #41, #269 ) ;
#224 = EDGE_CURVE ( 'NONE', #234, #93, #49, .T. ) ;
#225 = CARTESIAN_POINT ( 'NONE',  ( 19.22310629616103500, 6.465635167009421200, 0.8621755209996659900 ) ) ;
#226 =( BOUNDED_SURFACE ( )  B_SPLINE_SURFACE ( 3, 3, ( 
 ( #263, #129, #282, #182 ),
 ( #34, #61, #35, #227 ),
 ( #207, #97, #166, #232 ),
 ( #19, #73, #248, #71 ) ),
 .UNSPECIFIED., .F., .F., .F. ) 
 B_SPLINE_SURFACE_WITH_KNOTS ( ( 4, 4 ),
 ( 4, 4 ),
 ( 0.0000000000000000000, 1.000000000000000000 ),
 ( 0.0000000000000000000, 1.000000000000000000 ),
 .UNSPECIFIED. ) 
 GEOMETRIC_REPRESENTATION_ITEM ( )  RATIONAL_B_SPLINE_SURFACE ( (
 ( 1.000000000000000000, 0.9984735416411924000, 0.9984735416411924000, 1.000000000000000000),
 ( 0.9938283030118095800, 0.9923112654914576500, 0.9923112654914576500, 0.9938283030118095800),
 ( 0.9938283030118095800, 0.9923112654914576500, 0.9923112654914576500, 0.9938283030118095800),
 ( 1.000000000000000000, 0.9984735416411924000, 0.9984735416411924000, 1.000000000000000000) ) ) 
 REPRESENTATION_ITEM ( '' )  SURFACE ( )  );
#227 = CARTESIAN_POINT ( 'NONE',  ( 2.081668171172168500E-014, -6.465635167009392800, -0.4409116593214021900 ) ) ;
#228 = MECHANICAL_CONTEXT ( 'NONE', #65, 'mechanical' ) ;
#229 = FACE_OUTER_BOUND ( 'NONE', #81, .T. ) ;
#230 = CARTESIAN_POINT ( 'NONE',  ( 19.04999999999999700, -8.881784197001250400E-016, 1.283627462899680000 ) ) ;
#231 = DIRECTION ( 'NONE',  ( 0.0000000000000000000, 0.0000000000000000000, 1.000000000000000000 ) ) ;
#232 = CARTESIAN_POINT ( 'NONE',  ( 2.081668171172168500E-014, 6.465635167009418500, -0.4409116593214301700 ) ) ;
#233 = ORIENTED_EDGE ( 'NONE', *, *, #14, .F. ) ;
#234 = VERTEX_POINT ( 'NONE', #120 ) ;
#235 = CIRCLE ( 'NONE', #101, 19.05000000000000100 ) ;
#236 = CALENDAR_DATE ( 2019, 7, 1 ) ;
#237 = EDGE_CURVE ( 'NONE', #106, #78, #215, .T. ) ;
#238 = ORIENTED_EDGE ( 'NONE', *, *, #209, .T. ) ;
#239 = CARTESIAN_POINT ( 'NONE',  ( 18.98619515748882900, -19.27719367776729300, 2.398400985633958100 ) ) ;
#240 = APPROVAL_PERSON_ORGANIZATION ( #284, #107, #139 ) ;
#241 = CARTESIAN_POINT ( 'NONE',  ( -4.662936703425659800E-015, -8.881784197001250400E-016, 3.716372537100320900 ) ) ;
#242 = DIRECTION ( 'NONE',  ( 1.000000000000000000, 2.046378590692400000E-016, 1.768487577667350000E-016 ) ) ;
#243 = CARTESIAN_POINT ( 'NONE',  ( 19.22310629616091400, 6.465635167009404300, 4.137824479000322200 ) ) ;
#244 = CARTESIAN_POINT ( 'NONE',  ( -5.228909397441647400E-014, 6.465635167009407000, 5.440911659321396400 ) ) ;
#245 = CARTESIAN_POINT ( 'NONE',  ( 5.724659634693315300E-014, -19.27719367776729300, 1.314571458484570200 ) ) ;
#246 = CARTESIAN_POINT ( 'NONE',  ( -6.432225929957267500, -6.465635167009394600, 5.440911659321398200 ) ) ;
#247 = CALENDAR_DATE ( 2019, 7, 1 ) ;
#248 = CARTESIAN_POINT ( 'NONE',  ( -6.352953311589223200, 19.27719367776731800, 1.314571458484536700 ) ) ;
#249 = CARTESIAN_POINT ( 'NONE',  ( 0.0000000000000000000, 0.0000000000000000000, 0.0000000000000000000 ) ) ;
#250 = AXIS2_PLACEMENT_3D ( 'NONE', #249, #39, #206 ) ;
#251 = EDGE_LOOP ( 'NONE', ( #36, #257, #2 ) ) ;
#252 = CARTESIAN_POINT ( 'NONE',  ( -19.05000000000000400, 1.444773732675583000E-015, 1.283627462899680000 ) ) ;
#253 = AXIS2_PLACEMENT_3D ( 'NONE', #241, #32, #112 ) ;
#254 = ORIENTED_EDGE ( 'NONE', *, *, #80, .F. ) ;
#255 = ORIENTED_EDGE ( 'NONE', *, *, #170, .T. ) ;
#256 = CARTESIAN_POINT ( 'NONE',  ( -4.662936703425659800E-015, -8.881784197001250400E-016, 1.283627462899680000 ) ) ;
#257 = ORIENTED_EDGE ( 'NONE', *, *, #53, .T. ) ;
#258 = DESIGN_CONTEXT ( 'detailed design', #135, 'design' ) ;
#259 = LOCAL_TIME ( 16, 4, 9.000000000000000000, #22 ) ;
#260 = CARTESIAN_POINT ( 'NONE',  ( -4.662936703425659800E-015, -8.881784197001250400E-016, 1.283627462899680000 ) ) ;
#261 = CC_DESIGN_PERSON_AND_ORGANIZATION_ASSIGNMENT ( #165, #118, ( #17 ) ) ;
#262 = LOCAL_TIME ( 16, 4, 9.000000000000000000, #25 ) ;
#263 = CARTESIAN_POINT ( 'NONE',  ( -18.98619515748882900, -19.27719367776729700, 2.601599014366046300 ) ) ;
#264 = CARTESIAN_POINT ( 'NONE',  ( -18.98619515748893600, 19.27719367776730100, 2.398400985633944300 ) ) ;
#265 = CARTESIAN_POINT ( 'NONE',  ( -19.22310629616103100, -6.465635167009393700, 4.137824479000308000 ) ) ;
#266 = FACE_OUTER_BOUND ( 'NONE', #251, .T. ) ;
#267 = CARTESIAN_POINT ( 'NONE',  ( -5.720557632630017600E-014, -19.04999999999996500, 3.716372537100326200 ) ) ;
#268 = VECTOR ( 'NONE', #231, 1000.000000000000000 ) ;
#269 = ORGANIZATION ( 'UNSPECIFIED', 'UNSPECIFIED', '' ) ;
#270 = CARTESIAN_POINT ( 'NONE',  ( 4.940887389576228200E-014, 19.04999999999998300, 1.283627462899676400 ) ) ;
#271 = EDGE_CURVE ( 'NONE', #175, #197, #108, .T. ) ;
#272 = CIRCLE ( 'NONE', #253, 19.05000000000000100 ) ;
#273 = APPROVAL_PERSON_ORGANIZATION ( #43, #96, #79 ) ;
#274 = PRODUCT_DEFINITION ( 'UNKNOWN', '', #48, #258 ) ;
#275 = ORIENTED_EDGE ( 'NONE', *, *, #155, .T. ) ;
#276 = COORDINATED_UNIVERSAL_TIME_OFFSET ( 2, 0, .AHEAD. ) ;
#277 = AXIS2_PLACEMENT_3D ( 'NONE', #6, #85, #199 ) ;
#278 = CC_DESIGN_PERSON_AND_ORGANIZATION_ASSIGNMENT ( #126, #171, ( #208 ) ) ;
#279 = CARTESIAN_POINT ( 'NONE',  ( -4.662936703425659800E-015, -8.881784197001250400E-016, 1.283627462899680000 ) ) ;
#280 = DIRECTION ( 'NONE',  ( 2.046378590692401000E-016, -1.000000000000000000, -3.909236002201254700E-016 ) ) ;
#281 = CARTESIAN_POINT ( 'NONE',  ( -19.05000000000000400, 1.444773732675583000E-015, 3.716372537100320900 ) ) ;
#282 = CARTESIAN_POINT ( 'NONE',  ( -6.352953311589218700, -19.27719367776729000, 1.314571458484565400 ) ) ;
#283 = VERTEX_POINT ( 'NONE', #267 ) ;
#284 = PERSON_AND_ORGANIZATION ( #41, #269 ) ;
#285 = CARTESIAN_POINT ( 'NONE',  ( 6.352953311589308400, -19.27719367776729000, 1.314571458484571100 ) ) ;
#286 = CARTESIAN_POINT ( 'NONE',  ( -4.662936703425659800E-015, -8.881784197001250400E-016, 1.283627462899680000 ) ) ;
#287 = APPLICATION_PROTOCOL_DEFINITION ( 'international standard', 'config_control_design', 1994, #65 ) ;
#288 = EDGE_LOOP ( 'NONE', ( #254, #201, #193, #292, #21, #196 ) ) ;
#289 = LOCAL_TIME ( 16, 4, 9.000000000000000000, #68 ) ;
#290 = APPLICATION_PROTOCOL_DEFINITION ( 'international standard', 'config_control_design', 1994, #135 ) ;
#291 = FACE_OUTER_BOUND ( 'NONE', #124, .T. ) ;
#292 = ORIENTED_EDGE ( 'NONE', *, *, #224, .T. ) ;
#293 = CALENDAR_DATE ( 2019, 7, 1 ) ;
#294 = APPROVAL_STATUS ( 'not_yet_approved' ) ;
#295 = CC_DESIGN_DATE_AND_TIME_ASSIGNMENT ( #99, #140, ( #208 ) ) ;
ENDSEC;
END-ISO-10303-21;
