ISO-10303-21;
HEADER;
FILE_DESCRIPTION (( 'STEP AP203' ),
    '1' );
FILE_NAME ('111-1410E UVFS bi-cx 38.1 F100.STEP',
    '2019-01-07T13:48:43',
    ( '' ),
    ( '' ),
    'SwSTEP 2.0',
    'SolidWorks 2017',
    '' );
FILE_SCHEMA (( 'CONFIG_CONTROL_DESIGN' ));
ENDSEC;

DATA;
#1 = ORGANIZATION ( 'UNSPECIFIED', 'UNSPECIFIED', '' ) ;
#2 = ORIENTED_EDGE ( 'NONE', *, *, #191, .T. ) ;
#3 = DATE_AND_TIME ( #144, #162 ) ;
#4 = VERTEX_POINT ( 'NONE', #11 ) ;
#5 = CARTESIAN_POINT ( 'NONE',  ( 12.94491913692941900, -6.516659801340982700, 5.010284657103978700 ) ) ;
#6 = CARTESIAN_POINT ( 'NONE',  ( 19.29920134248170500, 6.516659801340979100, 3.692971767161839800 ) ) ;
#7 = CARTESIAN_POINT ( 'NONE',  ( 2.775557561562891400E-014, 19.27538825053095900, 3.011143309620899700 ) ) ;
#8 = COORDINATED_UNIVERSAL_TIME_OFFSET ( 2, 0, .AHEAD. ) ;
#9 = ORIENTED_EDGE ( 'NONE', *, *, #24, .T. ) ;
#10 = CARTESIAN_POINT ( 'NONE',  ( -19.29920134248170200, -6.516659801340981800, 1.307028232838167900 ) ) ;
#11 = CARTESIAN_POINT ( 'NONE',  ( 7.105427357600998700E-015, -19.05000000000000100, 3.057868783570822500 ) ) ;
#12 = CARTESIAN_POINT ( 'NONE',  ( 19.29920134248172700, -6.516659801340980000, 1.307028232838164200 ) ) ;
#13 = CARTESIAN_POINT ( 'NONE',  ( -18.75898081670264600, -19.27538825053095600, 1.087126413152689900 ) ) ;
#14 = FACE_OUTER_BOUND ( 'NONE', #94, .T. ) ;
#15 = AXIS2_PLACEMENT_3D ( 'NONE', #291, #160, #113 ) ;
#16 = CARTESIAN_POINT ( 'NONE',  ( -12.58256678367808100, 19.27538825053095600, 2.632434733783253200 ) ) ;
#17 = AXIS2_PLACEMENT_3D ( 'NONE', #159, #25, #112 ) ;
#18 = CARTESIAN_POINT ( 'NONE',  ( 12.58256678367808100, -19.27538825053095600, 2.632434733783244300 ) ) ;
#19 = APPROVAL_PERSON_ORGANIZATION ( #269, #168, #69 ) ;
#20 = FACE_OUTER_BOUND ( 'NONE', #114, .T. ) ;
#21 = UNCERTAINTY_MEASURE_WITH_UNIT (LENGTH_MEASURE( 1.000000000000000100E-005 ), #249, 'distance_accuracy_value', 'NONE');
#22 = PERSON_AND_ORGANIZATION_ROLE ( 'classification_officer' ) ;
#23 = CARTESIAN_POINT ( 'NONE',  ( -7.105427357601000300E-015, -19.05000000000000100, 1.942131216429180000 ) ) ;
#24 = EDGE_CURVE ( 'NONE', #259, #28, #236, .T. ) ;
#25 = DIRECTION ( 'NONE',  ( -1.165588477296749900E-017, -5.434385993627839900E-034, -1.000000000000000000 ) ) ;
#26 = CALENDAR_DATE ( 2019, 7, 1 ) ;
#27 = ORIENTED_EDGE ( 'NONE', *, *, #80, .T. ) ;
#28 = VERTEX_POINT ( 'NONE', #196 ) ;
#29 = EDGE_CURVE ( 'NONE', #4, #212, #97, .T. ) ;
#30 = CIRCLE ( 'NONE', #17, 19.05000000000000100 ) ;
#31 = AXIS2_PLACEMENT_3D ( 'NONE', #209, #49, #250 ) ;
#32 = CARTESIAN_POINT ( 'NONE',  ( 18.75898081670262100, -19.27538825053095900, 1.087126413152686300 ) ) ;
#33 =( BOUNDED_SURFACE ( )  B_SPLINE_SURFACE ( 3, 3, ( 
 ( #99, #260, #257, #278 ),
 ( #10, #79, #101, #258 ),
 ( #173, #36, #285, #110 ),
 ( #226, #16, #44, #223 ) ),
 .UNSPECIFIED., .F., .F., .F. ) 
 B_SPLINE_SURFACE_WITH_KNOTS ( ( 4, 4 ),
 ( 4, 4 ),
 ( 0.0000000000000000000, 1.000000000000000000 ),
 ( 0.0000000000000000000, 1.000000000000000000 ),
 .UNSPECIFIED. ) 
 GEOMETRIC_REPRESENTATION_ITEM ( )  RATIONAL_B_SPLINE_SURFACE ( (
 ( 1.000000000000000000, 0.9965208913857622800, 0.9965208913857622800, 1.000000000000000000),
 ( 0.9859544019041024400, 0.9825241594511923100, 0.9825241594511923100, 0.9859544019041024400),
 ( 0.9859544019041024400, 0.9825241594511923100, 0.9825241594511923100, 0.9859544019041024400),
 ( 1.000000000000000000, 0.9965208913857622800, 0.9965208913857622800, 1.000000000000000000) ) ) 
 REPRESENTATION_ITEM ( '' )  SURFACE ( )  );
#34 = EDGE_CURVE ( 'NONE', #55, #212, #81, .T. ) ;
#35 = SHAPE_DEFINITION_REPRESENTATION ( #76, #225 ) ;
#36 = CARTESIAN_POINT ( 'NONE',  ( -12.94491913692942500, 6.516659801340981800, -0.01028465710397686300 ) ) ;
#37 = DIRECTION ( 'NONE',  ( -1.165588477296749900E-017, -5.434385993627839900E-034, -1.000000000000000000 ) ) ;
#38 = CC_DESIGN_PERSON_AND_ORGANIZATION_ASSIGNMENT ( #254, #22, ( #118 ) ) ;
#39 = ADVANCED_FACE ( 'NONE', ( #210 ), #47, .T. ) ;
#40 = ORIENTED_EDGE ( 'NONE', *, *, #52, .F. ) ;
#41 = CARTESIAN_POINT ( 'NONE',  ( -12.94491913692943000, 6.516659801340983500, 5.010284657103991200 ) ) ;
#42 = APPROVAL_PERSON_ORGANIZATION ( #98, #53, #71 ) ;
#43 = CARTESIAN_POINT ( 'NONE',  ( 12.94491913692942500, -6.516659801340980900, -0.01028465710398358300 ) ) ;
#44 = CARTESIAN_POINT ( 'NONE',  ( -6.307742382483524100, 19.27538825053095900, 1.988856690379106500 ) ) ;
#45 = CARTESIAN_POINT ( 'NONE',  ( -12.58256678367808200, -19.27538825053095600, 2.367565266216760600 ) ) ;
#46 = CARTESIAN_POINT ( 'NONE',  ( 19.04999999999999700, -8.881784197001250400E-016, 1.942131216429179700 ) ) ;
#47 =( BOUNDED_SURFACE ( )  B_SPLINE_SURFACE ( 3, 3, ( 
 ( #32, #125, #193, #84 ),
 ( #151, #5, #59, #172 ),
 ( #6, #120, #57, #78 ),
 ( #119, #176, #217, #7 ) ),
 .UNSPECIFIED., .F., .F., .F. ) 
 B_SPLINE_SURFACE_WITH_KNOTS ( ( 4, 4 ),
 ( 4, 4 ),
 ( 0.0000000000000000000, 1.000000000000000000 ),
 ( 0.0000000000000000000, 1.000000000000000000 ),
 .UNSPECIFIED. ) 
 GEOMETRIC_REPRESENTATION_ITEM ( )  RATIONAL_B_SPLINE_SURFACE ( (
 ( 1.000000000000000000, 0.9965208913857622800, 0.9965208913857622800, 1.000000000000000000),
 ( 0.9859544019041024400, 0.9825241594511923100, 0.9825241594511923100, 0.9859544019041024400),
 ( 0.9859544019041024400, 0.9825241594511923100, 0.9825241594511923100, 0.9859544019041024400),
 ( 1.000000000000000000, 0.9965208913857622800, 0.9965208913857622800, 1.000000000000000000) ) ) 
 REPRESENTATION_ITEM ( '' )  SURFACE ( )  );
#48 = APPLICATION_PROTOCOL_DEFINITION ( 'international standard', 'config_control_design', 1994, #272 ) ;
#49 = DIRECTION ( 'NONE',  ( -1.165588477296749900E-017, -5.434385993627839900E-034, -1.000000000000000000 ) ) ;
#50 = ORIENTED_EDGE ( 'NONE', *, *, #34, .F. ) ;
#51 = PERSON_AND_ORGANIZATION_ROLE ( 'creator' ) ;
#52 = EDGE_CURVE ( 'NONE', #248, #28, #294, .T. ) ;
#53 = APPROVAL ( #184, 'UNSPECIFIED' ) ;
#54 = APPROVAL_DATE_TIME ( #181, #168 ) ;
#55 = VERTEX_POINT ( 'NONE', #82 ) ;
#56 = CC_DESIGN_PERSON_AND_ORGANIZATION_ASSIGNMENT ( #115, #292, ( #135 ) ) ;
#57 = CARTESIAN_POINT ( 'NONE',  ( 6.489392544592021700, 6.516659801340982700, 5.672396440287750300 ) ) ;
#58 = DIRECTION ( 'NONE',  ( 0.0000000000000000000, -1.000000000000000000, 5.880418562633244000E-016 ) ) ;
#59 = CARTESIAN_POINT ( 'NONE',  ( 6.489392544592017300, -6.516659801340981800, 5.672396440287746700 ) ) ;
#60 = ADVANCED_FACE ( 'NONE', ( #14 ), #75, .T. ) ;
#61 = CARTESIAN_POINT ( 'NONE',  ( 7.105427357600998700E-015, -19.27538825053095600, 3.011143309620906400 ) ) ;
#62 = ORIENTED_EDGE ( 'NONE', *, *, #239, .F. ) ;
#63 = CARTESIAN_POINT ( 'NONE',  ( 7.105427357600999500E-015, 6.516659801340981800, 5.672396440287757400 ) ) ;
#64 = CARTESIAN_POINT ( 'NONE',  ( -4.662936703425659800E-015, -8.881784197001250400E-016, 1.942131216429180200 ) ) ;
#65 = DIRECTION ( 'NONE',  ( 1.000000000000000000, 0.0000000000000000000, 0.0000000000000000000 ) ) ;
#66 = LINE ( 'NONE', #203, #133 ) ;
#67 = ORIENTED_EDGE ( 'NONE', *, *, #29, .T. ) ;
#68 = DIRECTION ( 'NONE',  ( -1.165588477296749900E-017, -5.434385993627839900E-034, -1.000000000000000000 ) ) ;
#69 = APPROVAL_ROLE ( '' ) ;
#70 = AXIS2_PLACEMENT_3D ( 'NONE', #256, #234, #123 ) ;
#71 = APPROVAL_ROLE ( '' ) ;
#72 = PERSON_AND_ORGANIZATION ( #265, #1 ) ;
#73 = CARTESIAN_POINT ( 'NONE',  ( -4.662936703425659800E-015, -8.881784197001250400E-016, 1.942131216429180000 ) ) ;
#74 = ORIENTED_EDGE ( 'NONE', *, *, #96, .F. ) ;
#75 = CYLINDRICAL_SURFACE ( 'NONE', #233, 19.05000000000000100 ) ;
#76 = PRODUCT_DEFINITION_SHAPE ( 'NONE', 'NONE',  #135 ) ;
#77 = COORDINATED_UNIVERSAL_TIME_OFFSET ( 2, 0, .AHEAD. ) ;
#78 = CARTESIAN_POINT ( 'NONE',  ( 3.122502256758252800E-014, 6.516659801340980900, 5.672396440287751100 ) ) ;
#79 = CARTESIAN_POINT ( 'NONE',  ( -12.94491913692941900, -6.516659801340982700, -0.01028465710397404600 ) ) ;
#80 = EDGE_CURVE ( 'NONE', #4, #55, #195, .T. ) ;
#81 = CIRCLE ( 'NONE', #142, 19.05000000000000100 ) ;
#82 = CARTESIAN_POINT ( 'NONE',  ( -19.05000000000000400, 1.444773732675583000E-015, 3.057868783570820700 ) ) ;
#83 = ADVANCED_FACE ( 'NONE', ( #148 ), #33, .T. ) ;
#84 = CARTESIAN_POINT ( 'NONE',  ( 2.775557561562891400E-014, -19.27538825053095600, 3.011143309620898800 ) ) ;
#85 = CARTESIAN_POINT ( 'NONE',  ( 7.105427357600998700E-015, 19.04999999999999700, 3.057868783570829100 ) ) ;
#86 = DATE_AND_TIME ( #220, #242 ) ;
#87 = CARTESIAN_POINT ( 'NONE',  ( -19.29920134248173400, 6.516659801340980900, 3.692971767161842900 ) ) ;
#88 = CARTESIAN_POINT ( 'NONE',  ( -6.489392544592003100, 6.516659801340983500, 5.672396440287756500 ) ) ;
#89 = CIRCLE ( 'NONE', #158, 19.05000000000000100 ) ;
#90 = EDGE_LOOP ( 'NONE', ( #40, #243, #130, #192, #74, #62 ) ) ;
#91 = CARTESIAN_POINT ( 'NONE',  ( 0.0000000000000000000, 0.0000000000000000000, 0.0000000000000000000 ) ) ;
#92 = AXIS2_PLACEMENT_3D ( 'NONE', #91, #136, #65 ) ;
#93 = MECHANICAL_CONTEXT ( 'NONE', #272, 'mechanical' ) ;
#94 = EDGE_LOOP ( 'NONE', ( #229, #145, #275, #163, #232, #27 ) ) ;
#95 = AXIS2_PLACEMENT_3D ( 'NONE', #147, #37, #194 ) ;
#96 = EDGE_CURVE ( 'NONE', #117, #187, #182, .T. ) ;
#97 = CIRCLE ( 'NONE', #121, 94.40000000000000600 ) ;
#98 = PERSON_AND_ORGANIZATION ( #265, #1 ) ;
#99 = CARTESIAN_POINT ( 'NONE',  ( -18.75898081670262100, -19.27538825053095900, 3.912873586847318100 ) ) ;
#100 = CIRCLE ( 'NONE', #31, 19.05000000000000100 ) ;
#101 = CARTESIAN_POINT ( 'NONE',  ( -6.489392544592021700, -6.516659801340981800, -0.6723964402877410400 ) ) ;
#102 = CC_DESIGN_PERSON_AND_ORGANIZATION_ASSIGNMENT ( #206, #51, ( #146 ) ) ;
#103 = DIRECTION ( 'NONE',  ( 1.000000000000000000, 0.0000000000000000000, 0.0000000000000000000 ) ) ;
#104 = CARTESIAN_POINT ( 'NONE',  ( -7.105427357601000300E-015, -7.105427357601000300E-015, 94.40000000000000600 ) ) ;
#105 = CLOSED_SHELL ( 'NONE', ( #198, #174, #262, #83, #60, #39 ) ) ;
#106 = DIRECTION ( 'NONE',  ( 1.000000000000000000, 0.0000000000000000000, -1.138269997360109700E-017 ) ) ;
#107 = CARTESIAN_POINT ( 'NONE',  ( 12.94491913692942800, 6.516659801340983500, -0.01028465710398575300 ) ) ;
#108 = CC_DESIGN_DATE_AND_TIME_ASSIGNMENT ( #86, #230, ( #118 ) ) ;
#109 = CARTESIAN_POINT ( 'NONE',  ( 19.29920134248173000, 6.516659801340980900, 1.307028232838162200 ) ) ;
#110 = CARTESIAN_POINT ( 'NONE',  ( -3.122502256758252800E-014, 6.516659801340980900, -0.6723964402877459200 ) ) ;
#111 = CARTESIAN_POINT ( 'NONE',  ( -6.307742382483506400, 19.27538825053095900, 3.011143309620905900 ) ) ;
#112 = DIRECTION ( 'NONE',  ( 1.000000000000000000, 8.881784197001252300E-016, -2.276539994720219300E-017 ) ) ;
#113 = DIRECTION ( 'NONE',  ( 1.000000000000000000, 0.0000000000000000000, -1.138269997360109700E-017 ) ) ;
#114 = EDGE_LOOP ( 'NONE', ( #282, #67, #50 ) ) ;
#115 = PERSON_AND_ORGANIZATION ( #265, #1 ) ;
#116 = LOCAL_TIME ( 15, 48, 43.00000000000000000, #77 ) ;
#117 = VERTEX_POINT ( 'NONE', #237 ) ;
#118 = SECURITY_CLASSIFICATION ( '', '', #137 ) ;
#119 = CARTESIAN_POINT ( 'NONE',  ( 18.75898081670262800, 19.27538825053095600, 1.087126413152686300 ) ) ;
#120 = CARTESIAN_POINT ( 'NONE',  ( 12.94491913692942500, 6.516659801340981800, 5.010284657103981400 ) ) ;
#121 = AXIS2_PLACEMENT_3D ( 'NONE', #281, #280, #58 ) ;
#122 = MANIFOLD_SOLID_BREP ( 'Imported1', #105 ) ;
#123 = DIRECTION ( 'NONE',  ( 1.000000000000000000, 0.0000000000000000000, -2.276539994720219300E-017 ) ) ;
#124 = ORIENTED_EDGE ( 'NONE', *, *, #208, .F. ) ;
#125 = CARTESIAN_POINT ( 'NONE',  ( 12.58256678367807700, -19.27538825053095900, 2.367565266216751200 ) ) ;
#126 = CC_DESIGN_APPROVAL ( #53, ( #118 ) ) ;
#127 = CARTESIAN_POINT ( 'NONE',  ( 6.489392544592002200, -6.516659801340980900, -0.6723964402877498100 ) ) ;
#128 = CARTESIAN_POINT ( 'NONE',  ( 19.04999999999999700, -8.881784197001250400E-016, 3.057868783570819800 ) ) ;
#129 = CC_DESIGN_DATE_AND_TIME_ASSIGNMENT ( #3, #207, ( #135 ) ) ;
#130 = ORIENTED_EDGE ( 'NONE', *, *, #34, .T. ) ;
#131 = CARTESIAN_POINT ( 'NONE',  ( -7.105427357601000300E-015, -19.27538825053095600, 1.988856690379098300 ) ) ;
#132 = CARTESIAN_POINT ( 'NONE',  ( -6.307742382483503700, -19.27538825053095600, 3.011143309620905900 ) ) ;
#133 = VECTOR ( 'NONE', #157, 1000.000000000000000 ) ;
#134 = APPROVAL_ROLE ( '' ) ;
#135 = PRODUCT_DEFINITION ( 'UNKNOWN', '', #146, #274 ) ;
#136 = DIRECTION ( 'NONE',  ( 0.0000000000000000000, 0.0000000000000000000, 1.000000000000000000 ) ) ;
#137 = SECURITY_CLASSIFICATION_LEVEL ( 'unclassified' ) ;
#138 = APPROVAL_PERSON_ORGANIZATION ( #200, #164, #134 ) ;
#139 = APPLICATION_PROTOCOL_DEFINITION ( 'international standard', 'config_control_design', 1994, #204 ) ;
#140 = EDGE_LOOP ( 'NONE', ( #143, #189, #124 ) ) ;
#141 =( BOUNDED_SURFACE ( )  B_SPLINE_SURFACE ( 3, 3, ( 
 ( #131, #156, #18, #153 ),
 ( #283, #127, #43, #12 ),
 ( #286, #240, #107, #109 ),
 ( #177, #264, #155, #241 ) ),
 .UNSPECIFIED., .F., .F., .T. ) 
 B_SPLINE_SURFACE_WITH_KNOTS ( ( 4, 4 ),
 ( 4, 4 ),
 ( 0.0000000000000000000, 1.000000000000000000 ),
 ( 0.0000000000000000000, 1.000000000000000000 ),
 .UNSPECIFIED. ) 
 GEOMETRIC_REPRESENTATION_ITEM ( )  RATIONAL_B_SPLINE_SURFACE ( (
 ( 1.000000000000000000, 0.9965208913857622800, 0.9965208913857622800, 1.000000000000000000),
 ( 0.9859544019041024400, 0.9825241594511923100, 0.9825241594511923100, 0.9859544019041024400),
 ( 0.9859544019041024400, 0.9825241594511923100, 0.9825241594511923100, 0.9859544019041024400),
 ( 1.000000000000000000, 0.9965208913857622800, 0.9965208913857622800, 1.000000000000000000) ) ) 
 REPRESENTATION_ITEM ( '' )  SURFACE ( )  );
#142 = AXIS2_PLACEMENT_3D ( 'NONE', #218, #276, #215 ) ;
#143 = ORIENTED_EDGE ( 'NONE', *, *, #29, .F. ) ;
#144 = CALENDAR_DATE ( 2019, 7, 1 ) ;
#145 = ORIENTED_EDGE ( 'NONE', *, *, #191, .F. ) ;
#146 = PRODUCT_DEFINITION_FORMATION_WITH_SPECIFIED_SOURCE ( 'ANY', '', #178, .NOT_KNOWN. ) ;
#147 = CARTESIAN_POINT ( 'NONE',  ( -4.662936703425659800E-015, -8.881784197001250400E-016, 1.942131216429180200 ) ) ;
#148 = FACE_OUTER_BOUND ( 'NONE', #253, .T. ) ;
#149 = CARTESIAN_POINT ( 'NONE',  ( -4.662936703425659800E-015, -8.881784197001250400E-016, 1.942131216429180000 ) ) ;
#150 = DIRECTION ( 'NONE',  ( 1.000000000000000000, 0.0000000000000000000, -1.138269997360109700E-017 ) ) ;
#151 = CARTESIAN_POINT ( 'NONE',  ( 19.29920134248170200, -6.516659801340981800, 3.692971767161837600 ) ) ;
#152 =( GEOMETRIC_REPRESENTATION_CONTEXT ( 3 ) GLOBAL_UNCERTAINTY_ASSIGNED_CONTEXT ( ( #21 ) ) GLOBAL_UNIT_ASSIGNED_CONTEXT ( ( #249, #287, #231 ) ) REPRESENTATION_CONTEXT ( 'NONE', 'WORKASPACE' ) );
#153 = CARTESIAN_POINT ( 'NONE',  ( 18.75898081670264300, -19.27538825053095600, 3.912873586847314600 ) ) ;
#154 = VECTOR ( 'NONE', #199, 1000.000000000000000 ) ;
#155 = CARTESIAN_POINT ( 'NONE',  ( 12.58256678367808100, 19.27538825053095900, 2.632434733783243900 ) ) ;
#156 = CARTESIAN_POINT ( 'NONE',  ( 6.307742382483502800, -19.27538825053095600, 1.988856690379098300 ) ) ;
#157 = DIRECTION ( 'NONE',  ( 1.165588477296749900E-017, 5.434385993627839900E-034, 1.000000000000000000 ) ) ;
#158 = AXIS2_PLACEMENT_3D ( 'NONE', #205, #68, #268 ) ;
#159 = CARTESIAN_POINT ( 'NONE',  ( -4.649931794906186200E-015, -8.881784197001250400E-016, 3.057868783570820300 ) ) ;
#160 = DIRECTION ( 'NONE',  ( -1.165588477296749900E-017, -5.434385993627839900E-034, -1.000000000000000000 ) ) ;
#161 = CARTESIAN_POINT ( 'NONE',  ( -19.05000000000000400, 1.444773732675583000E-015, 1.942131216429180400 ) ) ;
#162 = LOCAL_TIME ( 15, 48, 43.00000000000000000, #219 ) ;
#163 = ORIENTED_EDGE ( 'NONE', *, *, #96, .T. ) ;
#164 = APPROVAL ( #227, 'UNSPECIFIED' ) ;
#165 = PERSON_AND_ORGANIZATION_ROLE ( 'design_supplier' ) ;
#166 = FACE_OUTER_BOUND ( 'NONE', #267, .T. ) ;
#167 = CYLINDRICAL_SURFACE ( 'NONE', #288, 19.05000000000000100 ) ;
#168 = APPROVAL ( #289, 'UNSPECIFIED' ) ;
#169 = ORIENTED_EDGE ( 'NONE', *, *, #239, .T. ) ;
#170 = DIRECTION ( 'NONE',  ( 0.0000000000000000000, -1.000000000000000000, -5.880418562633244000E-016 ) ) ;
#171 = CC_DESIGN_APPROVAL ( #164, ( #146 ) ) ;
#172 = CARTESIAN_POINT ( 'NONE',  ( 2.775557561562891700E-014, -6.516659801340980000, 5.672396440287747600 ) ) ;
#173 = CARTESIAN_POINT ( 'NONE',  ( -19.29920134248170500, 6.516659801340979100, 1.307028232838165000 ) ) ;
#174 = ADVANCED_FACE ( 'NONE', ( #20 ), #279, .T. ) ;
#175 = ORIENTED_EDGE ( 'NONE', *, *, #216, .T. ) ;
#176 = CARTESIAN_POINT ( 'NONE',  ( 12.58256678367808100, 19.27538825053095600, 2.367565266216751200 ) ) ;
#177 = CARTESIAN_POINT ( 'NONE',  ( -7.105427357601000300E-015, 19.27538825053095900, 1.988856690379098300 ) ) ;
#178 = PRODUCT ( '111-1410E UVFS bi-cx 38.1 F100', '111-1410E UVFS bi-cx 38.1 F100', '', ( #93 ) ) ;
#179 = CARTESIAN_POINT ( 'NONE',  ( -12.58256678367808400, 19.27538825053095900, 2.367565266216760600 ) ) ;
#180 = EDGE_CURVE ( 'NONE', #248, #55, #66, .T. ) ;
#181 = DATE_AND_TIME ( #235, #246 ) ;
#182 = LINE ( 'NONE', #46, #154 ) ;
#183 = CC_DESIGN_APPROVAL ( #168, ( #135 ) ) ;
#184 = APPROVAL_STATUS ( 'not_yet_approved' ) ;
#185 = PERSON_AND_ORGANIZATION_ROLE ( 'design_owner' ) ;
#186 = APPROVAL_DATE_TIME ( #251, #164 ) ;
#187 = VERTEX_POINT ( 'NONE', #128 ) ;
#188 = CC_DESIGN_SECURITY_CLASSIFICATION ( #118, ( #146 ) ) ;
#189 = ORIENTED_EDGE ( 'NONE', *, *, #284, .F. ) ;
#190 = COORDINATED_UNIVERSAL_TIME_OFFSET ( 2, 0, .AHEAD. ) ;
#191 = EDGE_CURVE ( 'NONE', #259, #248, #228, .T. ) ;
#192 = ORIENTED_EDGE ( 'NONE', *, *, #208, .T. ) ;
#193 = CARTESIAN_POINT ( 'NONE',  ( 6.307742382483517900, -19.27538825053095600, 3.011143309620897500 ) ) ;
#194 = DIRECTION ( 'NONE',  ( 1.000000000000000000, 0.0000000000000000000, -1.138269997360109700E-017 ) ) ;
#195 = CIRCLE ( 'NONE', #70, 19.05000000000000100 ) ;
#196 = CARTESIAN_POINT ( 'NONE',  ( -7.105427357601000300E-015, 19.04999999999999700, 1.942131216429173100 ) ) ;
#197 = DIRECTION ( 'NONE',  ( 1.165588477296749900E-017, 5.434385993627839900E-034, 1.000000000000000000 ) ) ;
#198 = ADVANCED_FACE ( 'NONE', ( #166 ), #141, .T. ) ;
#199 = DIRECTION ( 'NONE',  ( 1.165588477296749900E-017, 5.434385993627839900E-034, 1.000000000000000000 ) ) ;
#200 = PERSON_AND_ORGANIZATION ( #265, #1 ) ;
#201 = ORIENTED_EDGE ( 'NONE', *, *, #24, .F. ) ;
#202 = CARTESIAN_POINT ( 'NONE',  ( -19.29920134248173000, -6.516659801340980000, 3.692971767161840300 ) ) ;
#203 = CARTESIAN_POINT ( 'NONE',  ( -19.05000000000000400, 1.444773732675583000E-015, 1.942131216429180200 ) ) ;
#204 = APPLICATION_CONTEXT ( 'configuration controlled 3d designs of mechanical parts and assemblies' ) ;
#205 = CARTESIAN_POINT ( 'NONE',  ( -4.649931794906186200E-015, -8.881784197001250400E-016, 3.057868783570820300 ) ) ;
#206 = PERSON_AND_ORGANIZATION ( #265, #1 ) ;
#207 = DATE_TIME_ROLE ( 'creation_date' ) ;
#208 = EDGE_CURVE ( 'NONE', #212, #187, #30, .T. ) ;
#209 = CARTESIAN_POINT ( 'NONE',  ( -4.662936703425659800E-015, -8.881784197001250400E-016, 1.942131216429180200 ) ) ;
#210 = FACE_OUTER_BOUND ( 'NONE', #140, .T. ) ;
#211 = PERSON_AND_ORGANIZATION ( #265, #1 ) ;
#212 = VERTEX_POINT ( 'NONE', #85 ) ;
#213 = APPROVAL_DATE_TIME ( #271, #53 ) ;
#214 = CIRCLE ( 'NONE', #15, 19.05000000000000100 ) ;
#215 = DIRECTION ( 'NONE',  ( 1.000000000000000000, 0.0000000000000000000, -2.276539994720219300E-017 ) ) ;
#216 = EDGE_CURVE ( 'NONE', #117, #259, #214, .T. ) ;
#217 = CARTESIAN_POINT ( 'NONE',  ( 6.307742382483520600, 19.27538825053095900, 3.011143309620898400 ) ) ;
#218 = CARTESIAN_POINT ( 'NONE',  ( -4.649931794906186200E-015, -8.881784197001250400E-016, 3.057868783570820300 ) ) ;
#219 = COORDINATED_UNIVERSAL_TIME_OFFSET ( 2, 0, .AHEAD. ) ;
#220 = CALENDAR_DATE ( 2019, 7, 1 ) ;
#221 = CARTESIAN_POINT ( 'NONE',  ( -18.75898081670265000, 19.27538825053095900, 1.087126413152689400 ) ) ;
#222 = DIRECTION ( 'NONE',  ( -1.165588477296749900E-017, -5.434385993627839900E-034, -1.000000000000000000 ) ) ;
#223 = CARTESIAN_POINT ( 'NONE',  ( -3.122502256758252800E-014, 19.27538825053095900, 1.988856690379104700 ) ) ;
#224 = CARTESIAN_POINT ( 'NONE',  ( -12.94491913692942700, -6.516659801340980900, 5.010284657103987600 ) ) ;
#225 = ADVANCED_BREP_SHAPE_REPRESENTATION ( '111-1410E UVFS bi-cx 38.1 F100', ( #122, #92 ), #152 ) ;
#226 = CARTESIAN_POINT ( 'NONE',  ( -18.75898081670262800, 19.27538825053095600, 3.912873586847318100 ) ) ;
#227 = APPROVAL_STATUS ( 'not_yet_approved' ) ;
#228 = CIRCLE ( 'NONE', #293, 19.05000000000000100 ) ;
#229 = ORIENTED_EDGE ( 'NONE', *, *, #180, .F. ) ;
#230 = DATE_TIME_ROLE ( 'classification_date' ) ;
#231 =( NAMED_UNIT ( * ) SI_UNIT ( $, .STERADIAN. ) SOLID_ANGLE_UNIT ( ) );
#232 = ORIENTED_EDGE ( 'NONE', *, *, #284, .T. ) ;
#233 = AXIS2_PLACEMENT_3D ( 'NONE', #149, #197, #150 ) ;
#234 = DIRECTION ( 'NONE',  ( -1.165588477296749900E-017, -5.434385993627839900E-034, -1.000000000000000000 ) ) ;
#235 = CALENDAR_DATE ( 2019, 7, 1 ) ;
#236 = CIRCLE ( 'NONE', #273, 94.40000000000000600 ) ;
#237 = CARTESIAN_POINT ( 'NONE',  ( 19.04999999999999700, -8.881784197001250400E-016, 1.942131216429180000 ) ) ;
#238 = CARTESIAN_POINT ( 'NONE',  ( -6.489392544592002200, -6.516659801340980900, 5.672396440287753800 ) ) ;
#239 = EDGE_CURVE ( 'NONE', #28, #117, #100, .T. ) ;
#240 = CARTESIAN_POINT ( 'NONE',  ( 6.489392544592002200, 6.516659801340983500, -0.6723964402877522500 ) ) ;
#241 = CARTESIAN_POINT ( 'NONE',  ( 18.75898081670264600, 19.27538825053095900, 3.912873586847314600 ) ) ;
#242 = LOCAL_TIME ( 15, 48, 43.00000000000000000, #190 ) ;
#243 = ORIENTED_EDGE ( 'NONE', *, *, #180, .T. ) ;
#244 = CARTESIAN_POINT ( 'NONE',  ( 7.105427357600998700E-015, 19.27538825053095900, 3.011143309620906400 ) ) ;
#245 = CC_DESIGN_PERSON_AND_ORGANIZATION_ASSIGNMENT ( #72, #165, ( #146 ) ) ;
#246 = LOCAL_TIME ( 15, 48, 43.00000000000000000, #8 ) ;
#247 = DIRECTION ( 'NONE',  ( 1.000000000000000000, 0.0000000000000000000, -1.138269997360109700E-017 ) ) ;
#248 = VERTEX_POINT ( 'NONE', #161 ) ;
#249 =( LENGTH_UNIT ( ) NAMED_UNIT ( * ) SI_UNIT ( .MILLI., .METRE. ) );
#250 = DIRECTION ( 'NONE',  ( 1.000000000000000000, 8.881784197001252300E-016, -1.138269997360109700E-017 ) ) ;
#251 = DATE_AND_TIME ( #26, #116 ) ;
#252 = ORIENTED_EDGE ( 'NONE', *, *, #52, .T. ) ;
#253 = EDGE_LOOP ( 'NONE', ( #201, #2, #252 ) ) ;
#254 = PERSON_AND_ORGANIZATION ( #265, #1 ) ;
#255 = LOCAL_TIME ( 15, 48, 43.00000000000000000, #290 ) ;
#256 = CARTESIAN_POINT ( 'NONE',  ( -4.649931794906186200E-015, -8.881784197001250400E-016, 3.057868783570820300 ) ) ;
#257 = CARTESIAN_POINT ( 'NONE',  ( -6.307742382483521500, -19.27538825053095600, 1.988856690379107000 ) ) ;
#258 = CARTESIAN_POINT ( 'NONE',  ( -3.122502256758252800E-014, -6.516659801340980000, -0.6723964402877427000 ) ) ;
#259 = VERTEX_POINT ( 'NONE', #23 ) ;
#260 = CARTESIAN_POINT ( 'NONE',  ( -12.58256678367807700, -19.27538825053095900, 2.632434733783253200 ) ) ;
#261 = CC_DESIGN_PERSON_AND_ORGANIZATION_ASSIGNMENT ( #211, #185, ( #178 ) ) ;
#262 = ADVANCED_FACE ( 'NONE', ( #277 ), #167, .T. ) ;
#263 = PRODUCT_RELATED_PRODUCT_CATEGORY ( 'detail', '', ( #178 ) ) ;
#264 = CARTESIAN_POINT ( 'NONE',  ( 6.307742382483504600, 19.27538825053095900, 1.988856690379098300 ) ) ;
#265 = PERSON ( 'UNSPECIFIED', 'UNSPECIFIED', 'UNSPECIFIED', ('UNSPECIFIED'), ('UNSPECIFIED'), ('UNSPECIFIED') ) ;
#266 = CARTESIAN_POINT ( 'NONE',  ( 7.105427357600999500E-015, -6.516659801340979100, 5.672396440287754700 ) ) ;
#267 = EDGE_LOOP ( 'NONE', ( #175, #9, #169 ) ) ;
#268 = DIRECTION ( 'NONE',  ( 1.000000000000000000, 0.0000000000000000000, -2.276539994720219300E-017 ) ) ;
#269 = PERSON_AND_ORGANIZATION ( #265, #1 ) ;
#270 = DIRECTION ( 'NONE',  ( 1.165588477296749900E-017, 5.434385993627839900E-034, 1.000000000000000000 ) ) ;
#271 = DATE_AND_TIME ( #295, #255 ) ;
#272 = APPLICATION_CONTEXT ( 'configuration controlled 3d designs of mechanical parts and assemblies' ) ;
#273 = AXIS2_PLACEMENT_3D ( 'NONE', #104, #103, #170 ) ;
#274 = DESIGN_CONTEXT ( 'detailed design', #204, 'design' ) ;
#275 = ORIENTED_EDGE ( 'NONE', *, *, #216, .F. ) ;
#276 = DIRECTION ( 'NONE',  ( -1.165588477296749900E-017, -5.434385993627839900E-034, -1.000000000000000000 ) ) ;
#277 = FACE_OUTER_BOUND ( 'NONE', #90, .T. ) ;
#278 = CARTESIAN_POINT ( 'NONE',  ( -3.122502256758252800E-014, -19.27538825053095600, 1.988856690379105200 ) ) ;
#279 =( BOUNDED_SURFACE ( )  B_SPLINE_SURFACE ( 3, 3, ( 
 ( #61, #132, #45, #13 ),
 ( #266, #238, #224, #202 ),
 ( #63, #88, #41, #87 ),
 ( #244, #111, #179, #221 ) ),
 .UNSPECIFIED., .F., .F., .F. ) 
 B_SPLINE_SURFACE_WITH_KNOTS ( ( 4, 4 ),
 ( 4, 4 ),
 ( 0.0000000000000000000, 1.000000000000000000 ),
 ( 0.0000000000000000000, 1.000000000000000000 ),
 .UNSPECIFIED. ) 
 GEOMETRIC_REPRESENTATION_ITEM ( )  RATIONAL_B_SPLINE_SURFACE ( (
 ( 1.000000000000000000, 0.9965208913857622800, 0.9965208913857622800, 1.000000000000000000),
 ( 0.9859544019041024400, 0.9825241594511923100, 0.9825241594511923100, 0.9859544019041024400),
 ( 0.9859544019041024400, 0.9825241594511923100, 0.9825241594511923100, 0.9859544019041024400),
 ( 1.000000000000000000, 0.9965208913857622800, 0.9965208913857622800, 1.000000000000000000) ) ) 
 REPRESENTATION_ITEM ( '' )  SURFACE ( )  );
#280 = DIRECTION ( 'NONE',  ( -1.000000000000000000, 0.0000000000000000000, 0.0000000000000000000 ) ) ;
#281 = CARTESIAN_POINT ( 'NONE',  ( 7.105427357601000300E-015, -7.105427357601000300E-015, -89.40000000000000600 ) ) ;
#282 = ORIENTED_EDGE ( 'NONE', *, *, #80, .F. ) ;
#283 = CARTESIAN_POINT ( 'NONE',  ( -7.105427357601000300E-015, -6.516659801340979100, -0.6723964402877500300 ) ) ;
#284 = EDGE_CURVE ( 'NONE', #187, #4, #89, .T. ) ;
#285 = CARTESIAN_POINT ( 'NONE',  ( -6.489392544592021700, 6.516659801340982700, -0.6723964402877442600 ) ) ;
#286 = CARTESIAN_POINT ( 'NONE',  ( -7.105427357601000300E-015, 6.516659801340981800, -0.6723964402877520300 ) ) ;
#287 =( NAMED_UNIT ( * ) PLANE_ANGLE_UNIT ( ) SI_UNIT ( $, .RADIAN. ) );
#288 = AXIS2_PLACEMENT_3D ( 'NONE', #73, #270, #247 ) ;
#289 = APPROVAL_STATUS ( 'not_yet_approved' ) ;
#290 = COORDINATED_UNIVERSAL_TIME_OFFSET ( 2, 0, .AHEAD. ) ;
#291 = CARTESIAN_POINT ( 'NONE',  ( -4.662936703425659800E-015, -8.881784197001250400E-016, 1.942131216429180200 ) ) ;
#292 = PERSON_AND_ORGANIZATION_ROLE ( 'creator' ) ;
#293 = AXIS2_PLACEMENT_3D ( 'NONE', #64, #222, #106 ) ;
#294 = CIRCLE ( 'NONE', #95, 19.05000000000000100 ) ;
#295 = CALENDAR_DATE ( 2019, 7, 1 ) ;
ENDSEC;
END-ISO-10303-21;
