ISO-10303-21;
HEADER;
FILE_DESCRIPTION (( 'STEP AP203' ),
    '1' );
FILE_NAME ('111-1250E UVFS bi-cx 25.4 F750.STEP',
    '2019-01-07T12:22:03',
    ( '' ),
    ( '' ),
    'SwSTEP 2.0',
    'SolidWorks 2017',
    '' );
FILE_SCHEMA (( 'CONFIG_CONTROL_DESIGN' ));
ENDSEC;

DATA;
#1 = CARTESIAN_POINT ( 'NONE',  ( -6.245004513516505500E-014, 4.284591192303931700, -0.03858721698577178400 ) ) ;
#2 = CARTESIAN_POINT ( 'NONE',  ( 12.77688274131096000, -4.284591192303873100, 0.07579968688505352200 ) ) ;
#3 = CARTESIAN_POINT ( 'NONE',  ( -4.258324240262275900, 12.85238361694701600, 0.1157491329169251400 ) ) ;
#4 = CLOSED_SHELL ( 'NONE', ( #99, #237, #215, #26, #143, #23 ) ) ;
#5 = PERSON_AND_ORGANIZATION ( #135, #287 ) ;
#6 = CARTESIAN_POINT ( 'NONE',  ( 12.69999999999999900, 2.442490654175340100E-015, 2.886979558842409900 ) ) ;
#7 =( NAMED_UNIT ( * ) PLANE_ANGLE_UNIT ( ) SI_UNIT ( $, .RADIAN. ) );
#8 = CARTESIAN_POINT ( 'NONE',  ( -12.77688274131096000, -4.284591192303873100, 2.924200313114949400 ) ) ;
#9 = ORIENTED_EDGE ( 'NONE', *, *, #264, .F. ) ;
#10 = VERTEX_POINT ( 'NONE', #191 ) ;
#11 = CARTESIAN_POINT ( 'NONE',  ( -8.516477838726860500, 12.85238361694701600, 2.846129126733998300 ) ) ;
#12 = DIRECTION ( 'NONE',  ( 1.000000000000000000, 0.0000000000000000000, 0.0000000000000000000 ) ) ;
#13 = EDGE_CURVE ( 'NONE', #71, #249, #116, .T. ) ;
#14 = DATE_TIME_ROLE ( 'creation_date' ) ;
#15 = CC_DESIGN_PERSON_AND_ORGANIZATION_ASSIGNMENT ( #175, #89, ( #111 ) ) ;
#16 = ORIENTED_EDGE ( 'NONE', *, *, #36, .T. ) ;
#17 = APPROVAL_STATUS ( 'not_yet_approved' ) ;
#18 = ORIENTED_EDGE ( 'NONE', *, *, #139, .T. ) ;
#19 = COORDINATED_UNIVERSAL_TIME_OFFSET ( 2, 0, .AHEAD. ) ;
#20 = LOCAL_TIME ( 14, 22, 3.000000000000000000, #183 ) ;
#21 = CARTESIAN_POINT ( 'NONE',  ( -12.77411952547502100, -12.85238361694695400, 0.2301112986954345600 ) ) ;
#22 = CARTESIAN_POINT ( 'NONE',  ( 12.77411952547502100, 12.85238361694701200, 2.769888701304568100 ) ) ;
#23 = ADVANCED_FACE ( 'NONE', ( #55 ), #206, .T. ) ;
#24 = ORIENTED_EDGE ( 'NONE', *, *, #13, .T. ) ;
#25 = CARTESIAN_POINT ( 'NONE',  ( 4.996003610813200500E-016, 2.442490654175340100E-015, 2.886979558842409900 ) ) ;
#26 = ADVANCED_FACE ( 'NONE', ( #65 ), #92, .T. ) ;
#27 = PRODUCT_RELATED_PRODUCT_CATEGORY ( 'detail', '', ( #290 ) ) ;
#28 = VERTEX_POINT ( 'NONE', #70 ) ;
#29 = CARTESIAN_POINT ( 'NONE',  ( 1.136868377216160500E-013, 4.284591192303931700, -0.03858721698579779100 ) ) ;
#30 = DIRECTION ( 'NONE',  ( 1.000000000000000000, 0.0000000000000000000, 0.0000000000000000000 ) ) ;
#31 = AXIS2_PLACEMENT_3D ( 'NONE', #173, #199, #100 ) ;
#32 = CARTESIAN_POINT ( 'NONE',  ( -8.516477838726860500, -12.85238361694695500, 2.846129126733998300 ) ) ;
#33 = CARTESIAN_POINT ( 'NONE',  ( -12.77411952547488600, 12.85238361694701200, 2.769888701304525500 ) ) ;
#34 = ORIENTED_EDGE ( 'NONE', *, *, #222, .F. ) ;
#35 = CARTESIAN_POINT ( 'NONE',  ( 4.996003610813200500E-016, 2.442490654175340100E-015, 2.886979558842409900 ) ) ;
#36 = EDGE_CURVE ( 'NONE', #10, #28, #40, .T. ) ;
#37 = SECURITY_CLASSIFICATION_LEVEL ( 'unclassified' ) ;
#38 = CIRCLE ( 'NONE', #94, 713.6000000000000200 ) ;
#39 = CALENDAR_DATE ( 2019, 7, 1 ) ;
#40 = CIRCLE ( 'NONE', #74, 12.69999999999999900 ) ;
#41 = CARTESIAN_POINT ( 'NONE',  ( 8.518320068744005300, 4.284591192303932600, 3.000457230385684200 ) ) ;
#42 = ORIENTED_EDGE ( 'NONE', *, *, #234, .F. ) ;
#43 = COORDINATED_UNIVERSAL_TIME_OFFSET ( 2, 0, .AHEAD. ) ;
#44 = DIRECTION ( 'NONE',  ( -0.0000000000000000000, -0.0000000000000000000, -1.000000000000000000 ) ) ;
#45 = AXIS2_PLACEMENT_3D ( 'NONE', #103, #106, #81 ) ;
#46 = CARTESIAN_POINT ( 'NONE',  ( -12.77688274131109300, 4.284591192303931700, 0.07579968688501168000 ) ) ;
#47 = ORIENTED_EDGE ( 'NONE', *, *, #85, .F. ) ;
#48 = CARTESIAN_POINT ( 'NONE',  ( 4.259245373726873400, 4.284591192303932600, -0.03858721698579779800 ) ) ;
#49 = ADVANCED_BREP_SHAPE_REPRESENTATION ( '111-1250E UVFS bi-cx 25.4 F750', ( #252, #124 ), #109 ) ;
#50 = CARTESIAN_POINT ( 'NONE',  ( 1.136868377216160000E-013, -12.69999999999958900, 0.1130204411576396000 ) ) ;
#51 = CARTESIAN_POINT ( 'NONE',  ( 1.136868377216160000E-013, 12.85238361694701200, 0.1157491329168980300 ) ) ;
#52 = DATE_AND_TIME ( #235, #268 ) ;
#53 = ORIENTED_EDGE ( 'NONE', *, *, #283, .T. ) ;
#54 = CARTESIAN_POINT ( 'NONE',  ( -6.071532165918824800E-014, 12.85238361694701200, 0.1157491329169240800 ) ) ;
#55 = FACE_OUTER_BOUND ( 'NONE', #121, .T. ) ;
#56 = APPROVAL ( #17, 'UNSPECIFIED' ) ;
#57 = PERSON_AND_ORGANIZATION ( #135, #287 ) ;
#58 = CARTESIAN_POINT ( 'NONE',  ( -4.259245373726873400, -4.284591192303874000, 3.038587216985800100 ) ) ;
#59 = CARTESIAN_POINT ( 'NONE',  ( -1.136868377216160000E-013, -12.69999999999958900, 2.886979558842363700 ) ) ;
#60 = EDGE_CURVE ( 'NONE', #148, #90, #88, .T. ) ;
#61 = DIRECTION ( 'NONE',  ( -0.0000000000000000000, -0.0000000000000000000, -1.000000000000000000 ) ) ;
#62 = APPROVAL_PERSON_ORGANIZATION ( #163, #56, #233 ) ;
#63 = APPROVAL_STATUS ( 'not_yet_approved' ) ;
#64 =( BOUNDED_SURFACE ( )  B_SPLINE_SURFACE ( 3, 3, ( 
 ( #223, #277, #218, #278 ),
 ( #225, #75, #200, #2 ),
 ( #29, #48, #150, #101 ),
 ( #51, #176, #98, #224 ) ),
 .UNSPECIFIED., .F., .F., .F. ) 
 B_SPLINE_SURFACE_WITH_KNOTS ( ( 4, 4 ),
 ( 4, 4 ),
 ( 0.0000000000000000000, 1.000000000000000000 ),
 ( 0.0000000000000000000, 1.000000000000000000 ),
 .UNSPECIFIED. ) 
 GEOMETRIC_REPRESENTATION_ITEM ( )  RATIONAL_B_SPLINE_SURFACE ( (
 ( 1.000000000000000000, 0.9999732849844323900, 0.9999732849844323900, 1.000000000000000000),
 ( 0.9998918636650626600, 0.9998651515383589800, 0.9998651515383589800, 0.9998918636650626600),
 ( 0.9998918636650626600, 0.9998651515383589800, 0.9998651515383589800, 0.9998918636650626600),
 ( 1.000000000000000000, 0.9999732849844323900, 0.9999732849844323900, 1.000000000000000000) ) ) 
 REPRESENTATION_ITEM ( '' )  SURFACE ( )  );
#65 = FACE_OUTER_BOUND ( 'NONE', #130, .T. ) ;
#66 = AXIS2_PLACEMENT_3D ( 'NONE', #77, #260, #126 ) ;
#67 = CARTESIAN_POINT ( 'NONE',  ( 4.259245373726881400, -4.284591192303874000, 3.038587216985774400 ) ) ;
#68 = CARTESIAN_POINT ( 'NONE',  ( 5.898059818321144100E-014, 12.85238361694701200, 2.884250867083078400 ) ) ;
#69 = AXIS2_PLACEMENT_3D ( 'NONE', #35, #61, #84 ) ;
#70 = CARTESIAN_POINT ( 'NONE',  ( 1.136868377216160000E-013, 12.69999999999964800, 0.1130204411576396000 ) ) ;
#71 = VERTEX_POINT ( 'NONE', #6 ) ;
#72 = CARTESIAN_POINT ( 'NONE',  ( -8.518320068744005300, 4.284591192303932600, -0.0004572303856812076600 ) ) ;
#73 = CC_DESIGN_SECURITY_CLASSIFICATION ( #181, ( #111 ) ) ;
#74 = AXIS2_PLACEMENT_3D ( 'NONE', #123, #129, #171 ) ;
#75 = CARTESIAN_POINT ( 'NONE',  ( 4.259245373726873400, -4.284591192303874000, -0.03858721698579847100 ) ) ;
#76 = CIRCLE ( 'NONE', #144, 12.69999999999999900 ) ;
#77 = CARTESIAN_POINT ( 'NONE',  ( 4.996003610813200500E-016, 2.442490654175340100E-015, 0.1130204411575940200 ) ) ;
#78 = CARTESIAN_POINT ( 'NONE',  ( -12.77688274131096000, 4.284591192303931700, 2.924200313114949000 ) ) ;
#79 = CARTESIAN_POINT ( 'NONE',  ( -12.69999999999999900, 3.997792089092478900E-015, 0.1130204411575940200 ) ) ;
#80 = DIRECTION ( 'NONE',  ( 1.000000000000000000, 0.0000000000000000000, 0.0000000000000000000 ) ) ;
#81 = DIRECTION ( 'NONE',  ( 1.000000000000000000, 8.881784197001252300E-016, 0.0000000000000000000 ) ) ;
#82 = CIRCLE ( 'NONE', #45, 12.69999999999999900 ) ;
#83 = CC_DESIGN_PERSON_AND_ORGANIZATION_ASSIGNMENT ( #221, #136, ( #111 ) ) ;
#84 = DIRECTION ( 'NONE',  ( 1.000000000000000000, -8.881784197001252300E-016, 0.0000000000000000000 ) ) ;
#85 = EDGE_CURVE ( 'NONE', #249, #195, #257, .T. ) ;
#86 = APPROVAL_STATUS ( 'not_yet_approved' ) ;
#87 = APPROVAL_ROLE ( '' ) ;
#88 = CIRCLE ( 'NONE', #117, 12.69999999999999900 ) ;
#89 = PERSON_AND_ORGANIZATION_ROLE ( 'design_supplier' ) ;
#90 = VERTEX_POINT ( 'NONE', #50 ) ;
#91 = CALENDAR_DATE ( 2019, 7, 1 ) ;
#92 =( BOUNDED_SURFACE ( )  B_SPLINE_SURFACE ( 3, 3, ( 
 ( #21, #122, #115, #292 ),
 ( #217, #213, #271, #196 ),
 ( #46, #72, #272, #1 ),
 ( #190, #211, #3, #54 ) ),
 .UNSPECIFIED., .F., .F., .F. ) 
 B_SPLINE_SURFACE_WITH_KNOTS ( ( 4, 4 ),
 ( 4, 4 ),
 ( 0.0000000000000000000, 1.000000000000000000 ),
 ( 0.0000000000000000000, 1.000000000000000000 ),
 .UNSPECIFIED. ) 
 GEOMETRIC_REPRESENTATION_ITEM ( )  RATIONAL_B_SPLINE_SURFACE ( (
 ( 1.000000000000000000, 0.9999732849844323900, 0.9999732849844323900, 1.000000000000000000),
 ( 0.9998918636650626600, 0.9998651515383589800, 0.9998651515383589800, 0.9998918636650626600),
 ( 0.9998918636650626600, 0.9998651515383589800, 0.9998651515383589800, 0.9998918636650626600),
 ( 1.000000000000000000, 0.9999732849844323900, 0.9999732849844323900, 1.000000000000000000) ) ) 
 REPRESENTATION_ITEM ( '' )  SURFACE ( )  );
#93 = CIRCLE ( 'NONE', #69, 12.69999999999999900 ) ;
#94 = AXIS2_PLACEMENT_3D ( 'NONE', #104, #80, #156 ) ;
#95 = DIRECTION ( 'NONE',  ( -0.0000000000000000000, -0.0000000000000000000, -1.000000000000000000 ) ) ;
#96 = ORIENTED_EDGE ( 'NONE', *, *, #222, .T. ) ;
#97 = DATE_AND_TIME ( #236, #20 ) ;
#98 = CARTESIAN_POINT ( 'NONE',  ( 8.516477838726860500, 12.85238361694701600, 0.1538708732660040400 ) ) ;
#99 = ADVANCED_FACE ( 'NONE', ( #294 ), #64, .T. ) ;
#100 = DIRECTION ( 'NONE',  ( 0.0000000000000000000, -1.000000000000000000, -3.111611616101896000E-016 ) ) ;
#101 = CARTESIAN_POINT ( 'NONE',  ( 12.77688274131096000, 4.284591192303931700, 0.07579968688505420200 ) ) ;
#102 = CARTESIAN_POINT ( 'NONE',  ( 4.996003610813200500E-016, 2.442490654175340100E-015, 2.886979558842409900 ) ) ;
#103 = CARTESIAN_POINT ( 'NONE',  ( 4.996003610813200500E-016, 2.442490654175340100E-015, 2.886979558842409900 ) ) ;
#104 = CARTESIAN_POINT ( 'NONE',  ( 1.136868377216160000E-013, 5.684341886080800200E-014, 713.6000000000000200 ) ) ;
#105 = CC_DESIGN_APPROVAL ( #142, ( #181 ) ) ;
#106 = DIRECTION ( 'NONE',  ( -0.0000000000000000000, -0.0000000000000000000, -1.000000000000000000 ) ) ;
#107 = ORIENTED_EDGE ( 'NONE', *, *, #264, .T. ) ;
#108 = DIRECTION ( 'NONE',  ( 0.0000000000000000000, 0.0000000000000000000, 1.000000000000000000 ) ) ;
#109 =( GEOMETRIC_REPRESENTATION_CONTEXT ( 3 ) GLOBAL_UNCERTAINTY_ASSIGNED_CONTEXT ( ( #152 ) ) GLOBAL_UNIT_ASSIGNED_CONTEXT ( ( #286, #7, #177 ) ) REPRESENTATION_CONTEXT ( 'NONE', 'WORKASPACE' ) );
#110 = DIRECTION ( 'NONE',  ( 0.0000000000000000000, 0.0000000000000000000, 1.000000000000000000 ) ) ;
#111 = PRODUCT_DEFINITION_FORMATION_WITH_SPECIFIED_SOURCE ( 'ANY', '', #290, .NOT_KNOWN. ) ;
#112 = CC_DESIGN_DATE_AND_TIME_ASSIGNMENT ( #52, #14, ( #119 ) ) ;
#113 =( BOUNDED_SURFACE ( )  B_SPLINE_SURFACE ( 3, 3, ( 
 ( #134, #226, #32, #244 ),
 ( #228, #58, #282, #8 ),
 ( #178, #133, #262, #78 ),
 ( #131, #203, #11, #33 ) ),
 .UNSPECIFIED., .F., .F., .F. ) 
 B_SPLINE_SURFACE_WITH_KNOTS ( ( 4, 4 ),
 ( 4, 4 ),
 ( 0.0000000000000000000, 1.000000000000000000 ),
 ( 0.0000000000000000000, 1.000000000000000000 ),
 .UNSPECIFIED. ) 
 GEOMETRIC_REPRESENTATION_ITEM ( )  RATIONAL_B_SPLINE_SURFACE ( (
 ( 1.000000000000000000, 0.9999732849844323900, 0.9999732849844323900, 1.000000000000000000),
 ( 0.9998918636650626600, 0.9998651515383589800, 0.9998651515383589800, 0.9998918636650626600),
 ( 0.9998918636650626600, 0.9998651515383589800, 0.9998651515383589800, 0.9998918636650626600),
 ( 1.000000000000000000, 0.9999732849844323900, 0.9999732849844323900, 1.000000000000000000) ) ) 
 REPRESENTATION_ITEM ( '' )  SURFACE ( )  );
#114 = APPROVAL_DATE_TIME ( #276, #189 ) ;
#115 = CARTESIAN_POINT ( 'NONE',  ( -4.258324240262275900, -12.85238361694695500, 0.1157491329169251400 ) ) ;
#116 = CIRCLE ( 'NONE', #137, 12.69999999999999900 ) ;
#117 = AXIS2_PLACEMENT_3D ( 'NONE', #146, #279, #198 ) ;
#118 = CARTESIAN_POINT ( 'NONE',  ( 12.77411952547502100, -12.85238361694695400, 2.769888701304568100 ) ) ;
#119 = PRODUCT_DEFINITION ( 'UNKNOWN', '', #111, #159 ) ;
#120 = ORIENTED_EDGE ( 'NONE', *, *, #216, .T. ) ;
#121 = EDGE_LOOP ( 'NONE', ( #209, #251, #250 ) ) ;
#122 = CARTESIAN_POINT ( 'NONE',  ( -8.516477838726933300, -12.85238361694695500, 0.1538708732659582500 ) ) ;
#123 = CARTESIAN_POINT ( 'NONE',  ( 4.996003610813200500E-016, 2.442490654175340100E-015, 0.1130204411575940200 ) ) ;
#124 = AXIS2_PLACEMENT_3D ( 'NONE', #246, #108, #267 ) ;
#125 = DIRECTION ( 'NONE',  ( 0.0000000000000000000, 0.0000000000000000000, 1.000000000000000000 ) ) ;
#126 = DIRECTION ( 'NONE',  ( 1.000000000000000000, 0.0000000000000000000, 0.0000000000000000000 ) ) ;
#127 = APPROVAL_PERSON_ORGANIZATION ( #149, #189, #158 ) ;
#128 = CARTESIAN_POINT ( 'NONE',  ( 4.996003610813200500E-016, 2.442490654175340100E-015, 0.1130204411575940200 ) ) ;
#129 = DIRECTION ( 'NONE',  ( -0.0000000000000000000, -0.0000000000000000000, -1.000000000000000000 ) ) ;
#130 = EDGE_LOOP ( 'NONE', ( #34, #245, #16 ) ) ;
#131 = CARTESIAN_POINT ( 'NONE',  ( -1.136868377216160000E-013, 12.85238361694701200, 2.884250867083104600 ) ) ;
#132 = EDGE_CURVE ( 'NONE', #249, #230, #147, .T. ) ;
#133 = CARTESIAN_POINT ( 'NONE',  ( -4.259245373726873400, 4.284591192303932600, 3.038587216985799700 ) ) ;
#134 = CARTESIAN_POINT ( 'NONE',  ( -1.136868377216160000E-013, -12.85238361694695400, 2.884250867083104600 ) ) ;
#135 = PERSON ( 'UNSPECIFIED', 'UNSPECIFIED', 'UNSPECIFIED', ('UNSPECIFIED'), ('UNSPECIFIED'), ('UNSPECIFIED') ) ;
#136 = PERSON_AND_ORGANIZATION_ROLE ( 'creator' ) ;
#137 = AXIS2_PLACEMENT_3D ( 'NONE', #25, #44, #167 ) ;
#138 = EDGE_LOOP ( 'NONE', ( #9, #42, #188, #18, #24, #261 ) ) ;
#139 = EDGE_CURVE ( 'NONE', #148, #71, #239, .T. ) ;
#140 = EDGE_LOOP ( 'NONE', ( #194, #96, #265 ) ) ;
#141 = CARTESIAN_POINT ( 'NONE',  ( 8.516477838726933300, 12.85238361694701600, 2.846129126734044100 ) ) ;
#142 = APPROVAL ( #86, 'UNSPECIFIED' ) ;
#143 = ADVANCED_FACE ( 'NONE', ( #273 ), #187, .T. ) ;
#144 = AXIS2_PLACEMENT_3D ( 'NONE', #263, #227, #12 ) ;
#145 = CARTESIAN_POINT ( 'NONE',  ( 8.518320068744005300, -4.284591192303874000, 3.000457230385684700 ) ) ;
#146 = CARTESIAN_POINT ( 'NONE',  ( 4.996003610813200500E-016, 2.442490654175340100E-015, 0.1130204411575940200 ) ) ;
#147 = CIRCLE ( 'NONE', #31, 713.6000000000000200 ) ;
#148 = VERTEX_POINT ( 'NONE', #151 ) ;
#149 = PERSON_AND_ORGANIZATION ( #135, #287 ) ;
#150 = CARTESIAN_POINT ( 'NONE',  ( 8.518320068743934200, 4.284591192303932600, -0.0004572303856353866200 ) ) ;
#151 = CARTESIAN_POINT ( 'NONE',  ( 12.69999999999999900, 2.442490654175340100E-015, 0.1130204411575940200 ) ) ;
#152 = UNCERTAINTY_MEASURE_WITH_UNIT (LENGTH_MEASURE( 1.000000000000000100E-005 ), #286, 'distance_accuracy_value', 'NONE');
#153 = DIRECTION ( 'NONE',  ( 1.000000000000000000, 0.0000000000000000000, 0.0000000000000000000 ) ) ;
#154 = FACE_OUTER_BOUND ( 'NONE', #219, .T. ) ;
#155 = CC_DESIGN_APPROVAL ( #189, ( #119 ) ) ;
#156 = DIRECTION ( 'NONE',  ( 0.0000000000000000000, -1.000000000000000000, 3.111611616101896000E-016 ) ) ;
#157 = PERSON_AND_ORGANIZATION ( #135, #287 ) ;
#158 = APPROVAL_ROLE ( '' ) ;
#159 = DESIGN_CONTEXT ( 'detailed design', #207, 'design' ) ;
#160 = PERSON_AND_ORGANIZATION_ROLE ( 'classification_officer' ) ;
#161 = VECTOR ( 'NONE', #110, 1000.000000000000000 ) ;
#162 = EDGE_CURVE ( 'NONE', #28, #148, #208, .T. ) ;
#163 = PERSON_AND_ORGANIZATION ( #135, #287 ) ;
#164 = LOCAL_TIME ( 14, 22, 3.000000000000000000, #43 ) ;
#165 = CARTESIAN_POINT ( 'NONE',  ( 5.898059818321144100E-014, -12.85238361694695400, 2.884250867083078400 ) ) ;
#166 = CC_DESIGN_PERSON_AND_ORGANIZATION_ASSIGNMENT ( #210, #266, ( #119 ) ) ;
#167 = DIRECTION ( 'NONE',  ( 1.000000000000000000, 0.0000000000000000000, 0.0000000000000000000 ) ) ;
#168 = CARTESIAN_POINT ( 'NONE',  ( 4.996003610813200500E-016, 2.442490654175340100E-015, 0.1130204411575940200 ) ) ;
#169 = ORIENTED_EDGE ( 'NONE', *, *, #139, .F. ) ;
#170 = APPROVAL_DATE_TIME ( #285, #142 ) ;
#171 = DIRECTION ( 'NONE',  ( 1.000000000000000000, 0.0000000000000000000, 0.0000000000000000000 ) ) ;
#172 = CC_DESIGN_PERSON_AND_ORGANIZATION_ASSIGNMENT ( #5, #185, ( #290 ) ) ;
#173 = CARTESIAN_POINT ( 'NONE',  ( -1.136868377216160000E-013, 5.684341886080800200E-014, -710.6000000000000200 ) ) ;
#174 = CARTESIAN_POINT ( 'NONE',  ( 12.69999999999999900, 2.442490654175340100E-015, 0.1130204411575940200 ) ) ;
#175 = PERSON_AND_ORGANIZATION ( #135, #287 ) ;
#176 = CARTESIAN_POINT ( 'NONE',  ( 4.258324240262267000, 12.85238361694701600, 0.1157491329168980500 ) ) ;
#177 =( NAMED_UNIT ( * ) SI_UNIT ( $, .STERADIAN. ) SOLID_ANGLE_UNIT ( ) );
#178 = CARTESIAN_POINT ( 'NONE',  ( -1.136868377216160500E-013, 4.284591192303931700, 3.038587216985801000 ) ) ;
#179 = VECTOR ( 'NONE', #125, 1000.000000000000000 ) ;
#180 = CARTESIAN_POINT ( 'NONE',  ( -1.136868377216160000E-013, 12.69999999999964800, 2.886979558842363700 ) ) ;
#181 = SECURITY_CLASSIFICATION ( '', '', #37 ) ;
#182 = LOCAL_TIME ( 14, 22, 3.000000000000000000, #241 ) ;
#183 = COORDINATED_UNIVERSAL_TIME_OFFSET ( 2, 0, .AHEAD. ) ;
#184 = APPLICATION_CONTEXT ( 'configuration controlled 3d designs of mechanical parts and assemblies' ) ;
#185 = PERSON_AND_ORGANIZATION_ROLE ( 'design_owner' ) ;
#186 = DATE_TIME_ROLE ( 'classification_date' ) ;
#187 = CYLINDRICAL_SURFACE ( 'NONE', #66, 12.69999999999999900 ) ;
#188 = ORIENTED_EDGE ( 'NONE', *, *, #60, .F. ) ;
#189 = APPROVAL ( #63, 'UNSPECIFIED' ) ;
#190 = CARTESIAN_POINT ( 'NONE',  ( -12.77411952547502100, 12.85238361694701200, 0.2301112986954345600 ) ) ;
#191 = CARTESIAN_POINT ( 'NONE',  ( -12.69999999999999900, 3.997792089092478900E-015, 0.1130204411575940200 ) ) ;
#192 = CARTESIAN_POINT ( 'NONE',  ( 6.071532165918824800E-014, -4.284591192303873100, 3.038587216985775700 ) ) ;
#193 = CC_DESIGN_PERSON_AND_ORGANIZATION_ASSIGNMENT ( #157, #160, ( #181 ) ) ;
#194 = ORIENTED_EDGE ( 'NONE', *, *, #60, .T. ) ;
#195 = VERTEX_POINT ( 'NONE', #281 ) ;
#196 = CARTESIAN_POINT ( 'NONE',  ( -6.245004513516505500E-014, -4.284591192303873100, -0.03858721698577243000 ) ) ;
#197 = DIRECTION ( 'NONE',  ( -0.0000000000000000000, -0.0000000000000000000, -1.000000000000000000 ) ) ;
#198 = DIRECTION ( 'NONE',  ( 1.000000000000000000, 0.0000000000000000000, 0.0000000000000000000 ) ) ;
#199 = DIRECTION ( 'NONE',  ( -1.000000000000000000, 0.0000000000000000000, 0.0000000000000000000 ) ) ;
#200 = CARTESIAN_POINT ( 'NONE',  ( 8.518320068743934200, -4.284591192303874000, -0.0004572303856360641900 ) ) ;
#201 = CC_DESIGN_APPROVAL ( #56, ( #111 ) ) ;
#202 = CC_DESIGN_DATE_AND_TIME_ASSIGNMENT ( #247, #186, ( #181 ) ) ;
#203 = CARTESIAN_POINT ( 'NONE',  ( -4.258324240262267000, 12.85238361694701600, 2.884250867083104600 ) ) ;
#204 = CYLINDRICAL_SURFACE ( 'NONE', #205, 12.69999999999999900 ) ;
#205 = AXIS2_PLACEMENT_3D ( 'NONE', #128, #242, #153 ) ;
#206 =( BOUNDED_SURFACE ( )  B_SPLINE_SURFACE ( 3, 3, ( 
 ( #118, #253, #269, #165 ),
 ( #255, #145, #67, #192 ),
 ( #212, #41, #293, #254 ),
 ( #22, #141, #238, #68 ) ),
 .UNSPECIFIED., .F., .F., .F. ) 
 B_SPLINE_SURFACE_WITH_KNOTS ( ( 4, 4 ),
 ( 4, 4 ),
 ( 0.0000000000000000000, 1.000000000000000000 ),
 ( 0.0000000000000000000, 1.000000000000000000 ),
 .UNSPECIFIED. ) 
 GEOMETRIC_REPRESENTATION_ITEM ( )  RATIONAL_B_SPLINE_SURFACE ( (
 ( 1.000000000000000000, 0.9999732849844323900, 0.9999732849844323900, 1.000000000000000000),
 ( 0.9998918636650626600, 0.9998651515383589800, 0.9998651515383589800, 0.9998918636650626600),
 ( 0.9998918636650626600, 0.9998651515383589800, 0.9998651515383589800, 0.9998918636650626600),
 ( 1.000000000000000000, 0.9999732849844323900, 0.9999732849844323900, 1.000000000000000000) ) ) 
 REPRESENTATION_ITEM ( '' )  SURFACE ( )  );
#207 = APPLICATION_CONTEXT ( 'configuration controlled 3d designs of mechanical parts and assemblies' ) ;
#208 = CIRCLE ( 'NONE', #259, 12.69999999999999900 ) ;
#209 = ORIENTED_EDGE ( 'NONE', *, *, #132, .F. ) ;
#210 = PERSON_AND_ORGANIZATION ( #135, #287 ) ;
#211 = CARTESIAN_POINT ( 'NONE',  ( -8.516477838726933300, 12.85238361694701600, 0.1538708732659582500 ) ) ;
#212 = CARTESIAN_POINT ( 'NONE',  ( 12.77688274131109300, 4.284591192303931700, 2.924200313114991600 ) ) ;
#213 = CARTESIAN_POINT ( 'NONE',  ( -8.518320068744005300, -4.284591192303874000, -0.0004572303856818852300 ) ) ;
#214 = APPROVAL_PERSON_ORGANIZATION ( #57, #142, #87 ) ;
#215 = ADVANCED_FACE ( 'NONE', ( #154 ), #204, .T. ) ;
#216 = EDGE_CURVE ( 'NONE', #230, #71, #82, .T. ) ;
#217 = CARTESIAN_POINT ( 'NONE',  ( -12.77688274131109300, -4.284591192303873100, 0.07579968688501100000 ) ) ;
#218 = CARTESIAN_POINT ( 'NONE',  ( 8.516477838726860500, -12.85238361694695500, 0.1538708732660040400 ) ) ;
#219 = EDGE_LOOP ( 'NONE', ( #295, #107, #53, #120, #169, #291 ) ) ;
#220 = EDGE_LOOP ( 'NONE', ( #47, #284, #280 ) ) ;
#221 = PERSON_AND_ORGANIZATION ( #135, #287 ) ;
#222 = EDGE_CURVE ( 'NONE', #90, #28, #38, .T. ) ;
#223 = CARTESIAN_POINT ( 'NONE',  ( 1.136868377216160000E-013, -12.85238361694695400, 0.1157491329168980300 ) ) ;
#224 = CARTESIAN_POINT ( 'NONE',  ( 12.77411952547488600, 12.85238361694701200, 0.2301112986954770800 ) ) ;
#225 = CARTESIAN_POINT ( 'NONE',  ( 1.136868377216160500E-013, -4.284591192303873100, -0.03858721698579846400 ) ) ;
#226 = CARTESIAN_POINT ( 'NONE',  ( -4.258324240262267000, -12.85238361694695500, 2.884250867083104600 ) ) ;
#227 = DIRECTION ( 'NONE',  ( -0.0000000000000000000, -0.0000000000000000000, -1.000000000000000000 ) ) ;
#228 = CARTESIAN_POINT ( 'NONE',  ( -1.136868377216160500E-013, -4.284591192303873100, 3.038587216985801500 ) ) ;
#229 = LINE ( 'NONE', #79, #161 ) ;
#230 = VERTEX_POINT ( 'NONE', #180 ) ;
#231 = COORDINATED_UNIVERSAL_TIME_OFFSET ( 2, 0, .AHEAD. ) ;
#232 = SHAPE_DEFINITION_REPRESENTATION ( #243, #49 ) ;
#233 = APPROVAL_ROLE ( '' ) ;
#234 = EDGE_CURVE ( 'NONE', #90, #10, #76, .T. ) ;
#235 = CALENDAR_DATE ( 2019, 7, 1 ) ;
#236 = CALENDAR_DATE ( 2019, 7, 1 ) ;
#237 = ADVANCED_FACE ( 'NONE', ( #270 ), #113, .T. ) ;
#238 = CARTESIAN_POINT ( 'NONE',  ( 4.258324240262274100, 12.85238361694701600, 2.884250867083077500 ) ) ;
#239 = LINE ( 'NONE', #174, #179 ) ;
#240 = LOCAL_TIME ( 14, 22, 3.000000000000000000, #19 ) ;
#241 = COORDINATED_UNIVERSAL_TIME_OFFSET ( 2, 0, .AHEAD. ) ;
#242 = DIRECTION ( 'NONE',  ( 0.0000000000000000000, 0.0000000000000000000, 1.000000000000000000 ) ) ;
#243 = PRODUCT_DEFINITION_SHAPE ( 'NONE', 'NONE',  #119 ) ;
#244 = CARTESIAN_POINT ( 'NONE',  ( -12.77411952547488600, -12.85238361694695400, 2.769888701304525500 ) ) ;
#245 = ORIENTED_EDGE ( 'NONE', *, *, #234, .T. ) ;
#246 = CARTESIAN_POINT ( 'NONE',  ( 0.0000000000000000000, 0.0000000000000000000, 0.0000000000000000000 ) ) ;
#247 = DATE_AND_TIME ( #39, #164 ) ;
#248 = APPLICATION_PROTOCOL_DEFINITION ( 'international standard', 'config_control_design', 1994, #184 ) ;
#249 = VERTEX_POINT ( 'NONE', #59 ) ;
#250 = ORIENTED_EDGE ( 'NONE', *, *, #216, .F. ) ;
#251 = ORIENTED_EDGE ( 'NONE', *, *, #13, .F. ) ;
#252 = MANIFOLD_SOLID_BREP ( 'Imported1', #4 ) ;
#253 = CARTESIAN_POINT ( 'NONE',  ( 8.516477838726933300, -12.85238361694695500, 2.846129126734044100 ) ) ;
#254 = CARTESIAN_POINT ( 'NONE',  ( 6.071532165918824800E-014, 4.284591192303931700, 3.038587216985775300 ) ) ;
#255 = CARTESIAN_POINT ( 'NONE',  ( 12.77688274131109300, -4.284591192303873100, 2.924200313114992100 ) ) ;
#256 = DIRECTION ( 'NONE',  ( 1.000000000000000000, 0.0000000000000000000, 0.0000000000000000000 ) ) ;
#257 = CIRCLE ( 'NONE', #275, 12.69999999999999900 ) ;
#258 = APPROVAL_DATE_TIME ( #97, #56 ) ;
#259 = AXIS2_PLACEMENT_3D ( 'NONE', #168, #197, #30 ) ;
#260 = DIRECTION ( 'NONE',  ( 0.0000000000000000000, 0.0000000000000000000, 1.000000000000000000 ) ) ;
#261 = ORIENTED_EDGE ( 'NONE', *, *, #85, .T. ) ;
#262 = CARTESIAN_POINT ( 'NONE',  ( -8.518320068743934200, 4.284591192303932600, 3.000457230385638500 ) ) ;
#263 = CARTESIAN_POINT ( 'NONE',  ( 4.996003610813200500E-016, 2.442490654175340100E-015, 0.1130204411575940200 ) ) ;
#264 = EDGE_CURVE ( 'NONE', #10, #195, #229, .T. ) ;
#265 = ORIENTED_EDGE ( 'NONE', *, *, #162, .T. ) ;
#266 = PERSON_AND_ORGANIZATION_ROLE ( 'creator' ) ;
#267 = DIRECTION ( 'NONE',  ( 1.000000000000000000, 0.0000000000000000000, 0.0000000000000000000 ) ) ;
#268 = LOCAL_TIME ( 14, 22, 3.000000000000000000, #231 ) ;
#269 = CARTESIAN_POINT ( 'NONE',  ( 4.258324240262274100, -12.85238361694695500, 2.884250867083077500 ) ) ;
#270 = FACE_OUTER_BOUND ( 'NONE', #220, .T. ) ;
#271 = CARTESIAN_POINT ( 'NONE',  ( -4.259245373726883200, -4.284591192303874000, -0.03858721698577136800 ) ) ;
#272 = CARTESIAN_POINT ( 'NONE',  ( -4.259245373726883200, 4.284591192303932600, -0.03858721698577071600 ) ) ;
#273 = FACE_OUTER_BOUND ( 'NONE', #138, .T. ) ;
#274 = CALENDAR_DATE ( 2019, 7, 1 ) ;
#275 = AXIS2_PLACEMENT_3D ( 'NONE', #102, #95, #256 ) ;
#276 = DATE_AND_TIME ( #91, #182 ) ;
#277 = CARTESIAN_POINT ( 'NONE',  ( 4.258324240262267000, -12.85238361694695500, 0.1157491329168980500 ) ) ;
#278 = CARTESIAN_POINT ( 'NONE',  ( 12.77411952547488600, -12.85238361694695400, 0.2301112986954770800 ) ) ;
#279 = DIRECTION ( 'NONE',  ( -0.0000000000000000000, -0.0000000000000000000, -1.000000000000000000 ) ) ;
#280 = ORIENTED_EDGE ( 'NONE', *, *, #283, .F. ) ;
#281 = CARTESIAN_POINT ( 'NONE',  ( -12.69999999999999900, 3.997792089092478900E-015, 2.886979558842409900 ) ) ;
#282 = CARTESIAN_POINT ( 'NONE',  ( -8.518320068743934200, -4.284591192303874000, 3.000457230385638900 ) ) ;
#283 = EDGE_CURVE ( 'NONE', #195, #230, #93, .T. ) ;
#284 = ORIENTED_EDGE ( 'NONE', *, *, #132, .T. ) ;
#285 = DATE_AND_TIME ( #274, #240 ) ;
#286 =( LENGTH_UNIT ( ) NAMED_UNIT ( * ) SI_UNIT ( .MILLI., .METRE. ) );
#287 = ORGANIZATION ( 'UNSPECIFIED', 'UNSPECIFIED', '' ) ;
#288 = APPLICATION_PROTOCOL_DEFINITION ( 'international standard', 'config_control_design', 1994, #207 ) ;
#289 = MECHANICAL_CONTEXT ( 'NONE', #184, 'mechanical' ) ;
#290 = PRODUCT ( '111-1250E UVFS bi-cx 25.4 F750', '111-1250E UVFS bi-cx 25.4 F750', '', ( #289 ) ) ;
#291 = ORIENTED_EDGE ( 'NONE', *, *, #162, .F. ) ;
#292 = CARTESIAN_POINT ( 'NONE',  ( -6.071532165918824800E-014, -12.85238361694695400, 0.1157491329169240800 ) ) ;
#293 = CARTESIAN_POINT ( 'NONE',  ( 4.259245373726881400, 4.284591192303932600, 3.038587216985773900 ) ) ;
#294 = FACE_OUTER_BOUND ( 'NONE', #140, .T. ) ;
#295 = ORIENTED_EDGE ( 'NONE', *, *, #36, .F. ) ;
ENDSEC;
END-ISO-10303-21;
