ISO-10303-21;
HEADER;
FILE_DESCRIPTION (( 'STEP AP203' ),
    '1' );
FILE_NAME ('111-1240E UVFS bi-cx 25.4 F500.STEP',
    '2019-01-07T10:57:26',
    ( '' ),
    ( '' ),
    'SwSTEP 2.0',
    'SolidWorks 2017',
    '' );
FILE_SCHEMA (( 'CONFIG_CONTROL_DESIGN' ));
ENDSEC;

DATA;
#1 = FACE_OUTER_BOUND ( 'NONE', #129, .T. ) ;
#2 = CARTESIAN_POINT ( 'NONE',  ( 12.69999999999999900, 2.442490654175340100E-015, 0.1695949983846490000 ) ) ;
#3 = CC_DESIGN_PERSON_AND_ORGANIZATION_ASSIGNMENT ( #135, #153, ( #121 ) ) ;
#4 = CARTESIAN_POINT ( 'NONE',  ( -4.257812194541462400, -12.85236311162796200, 0.1736894507762820100 ) ) ;
#5 = CARTESIAN_POINT ( 'NONE',  ( -8.519388357912745800, 4.285164333872669900, -0.0006881343333956076400 ) ) ;
#6 = AXIS2_PLACEMENT_3D ( 'NONE', #272, #195, #196 ) ;
#7 = PERSON_AND_ORGANIZATION_ROLE ( 'creator' ) ;
#8 = APPROVAL_STATUS ( 'not_yet_approved' ) ;
#9 = CIRCLE ( 'NONE', #233, 12.69999999999999900 ) ;
#10 = ORIENTED_EDGE ( 'NONE', *, *, #168, .F. ) ;
#11 = ADVANCED_FACE ( 'NONE', ( #170 ), #169, .T. ) ;
#12 = LOCAL_TIME ( 12, 57, 26.00000000000000000, #212 ) ;
#13 = EDGE_LOOP ( 'NONE', ( #275, #156, #149, #260, #198, #102 ) ) ;
#14 = CARTESIAN_POINT ( 'NONE',  ( 1.162264728904460800E-013, 12.85236311162797000, 2.826310549223721500 ) ) ;
#15 = CARTESIAN_POINT ( 'NONE',  ( 12.77773738874008400, -4.285164333872661000, 2.886253562949296900 ) ) ;
#16 = CIRCLE ( 'NONE', #6, 12.69999999999999900 ) ;
#17 = AXIS2_PLACEMENT_3D ( 'NONE', #276, #24, #151 ) ;
#18 = CARTESIAN_POINT ( 'NONE',  ( 8.519388357912745800, 4.285164333872685900, 3.000688134333398900 ) ) ;
#19 = CARTESIAN_POINT ( 'NONE',  ( 12.77773738874008200, 4.285164333872685900, 2.886253562949298200 ) ) ;
#20 = PERSON_AND_ORGANIZATION ( #215, #278 ) ;
#21 = CARTESIAN_POINT ( 'NONE',  ( 4.257812194541282100, -12.85236311162796200, 0.1736894507763375700 ) ) ;
#22 = ORIENTED_EDGE ( 'NONE', *, *, #125, .T. ) ;
#23 = DIRECTION ( 'NONE',  ( -0.0000000000000000000, -0.0000000000000000000, -1.000000000000000000 ) ) ;
#24 = DIRECTION ( 'NONE',  ( -0.0000000000000000000, -0.0000000000000000000, -1.000000000000000000 ) ) ;
#25 = EDGE_CURVE ( 'NONE', #174, #228, #218, .T. ) ;
#26 = FACE_OUTER_BOUND ( 'NONE', #46, .T. ) ;
#27 = CARTESIAN_POINT ( 'NONE',  ( -4.259886352882785100, 4.285164333872669900, -0.05791058291559780100 ) ) ;
#28 = APPLICATION_CONTEXT ( 'configuration controlled 3d designs of mechanical parts and assemblies' ) ;
#29 = DATE_AND_TIME ( #80, #258 ) ;
#30 = VERTEX_POINT ( 'NONE', #55 ) ;
#31 = CARTESIAN_POINT ( 'NONE',  ( 4.257812194541462400, -12.85236311162794600, 2.826310549223720600 ) ) ;
#32 = APPROVAL ( #8, 'UNSPECIFIED' ) ;
#33 = CARTESIAN_POINT ( 'NONE',  ( 12.77151584938607300, 12.85236311162797000, 2.654737109853311200 ) ) ;
#34 = CARTESIAN_POINT ( 'NONE',  ( 4.996003610813200500E-016, 2.442490654175340100E-015, 2.830405001615349900 ) ) ;
#35 = COORDINATED_UNIVERSAL_TIME_OFFSET ( 2, 0, .AHEAD. ) ;
#36 = ORIENTED_EDGE ( 'NONE', *, *, #224, .F. ) ;
#37 = EDGE_CURVE ( 'NONE', #108, #228, #48, .T. ) ;
#38 = CARTESIAN_POINT ( 'NONE',  ( -12.77151584938576600, -12.85236311162794500, 2.654737109853285500 ) ) ;
#39 = CARTESIAN_POINT ( 'NONE',  ( 0.0000000000000000000, 4.285164333872685900, 3.057910582915544900 ) ) ;
#40 = CARTESIAN_POINT ( 'NONE',  ( 4.259886352882604800, 4.285164333872669900, -0.05791058291554226900 ) ) ;
#41 = ADVANCED_BREP_SHAPE_REPRESENTATION ( '111-1240E UVFS bi-cx 25.4 F500', ( #285, #139 ), #146 ) ;
#42 = CARTESIAN_POINT ( 'NONE',  ( 12.77773738873977600, -4.285164333872677000, 0.1137464370507308100 ) ) ;
#43 = DIRECTION ( 'NONE',  ( 1.000000000000000000, 0.0000000000000000000, 0.0000000000000000000 ) ) ;
#44 = DIRECTION ( 'NONE',  ( -0.0000000000000000000, -0.0000000000000000000, -1.000000000000000000 ) ) ;
#45 = LINE ( 'NONE', #267, #182 ) ;
#46 = EDGE_LOOP ( 'NONE', ( #232, #188, #178 ) ) ;
#47 = CARTESIAN_POINT ( 'NONE',  ( -8.515240228370846200, -12.85236311162796200, 0.2308840374839632700 ) ) ;
#48 = CIRCLE ( 'NONE', #268, 475.6000000000000200 ) ;
#49 = SECURITY_CLASSIFICATION_LEVEL ( 'unclassified' ) ;
#50 = VECTOR ( 'NONE', #290, 1000.000000000000000 ) ;
#51 = ORIENTED_EDGE ( 'NONE', *, *, #185, .F. ) ;
#52 = ADVANCED_FACE ( 'NONE', ( #72 ), #253, .T. ) ;
#53 = CARTESIAN_POINT ( 'NONE',  ( 4.257812194541462400, 12.85236311162797100, 2.826310549223720600 ) ) ;
#54 = ADVANCED_FACE ( 'NONE', ( #1 ), #155, .T. ) ;
#55 = CARTESIAN_POINT ( 'NONE',  ( 0.0000000000000000000, -12.69999999999963200, 0.1695949983846206900 ) ) ;
#56 = PERSON_AND_ORGANIZATION ( #215, #278 ) ;
#57 = CIRCLE ( 'NONE', #83, 12.69999999999999900 ) ;
#58 = DIRECTION ( 'NONE',  ( 0.0000000000000000000, 0.0000000000000000000, 1.000000000000000000 ) ) ;
#59 = CARTESIAN_POINT ( 'NONE',  ( 8.515240228370602800, 12.85236311162795500, 0.2308840374839933300 ) ) ;
#60 =( BOUNDED_SURFACE ( )  B_SPLINE_SURFACE ( 3, 3, ( 
 ( #251, #47, #4, #248 ),
 ( #294, #106, #68, #225 ),
 ( #226, #5, #27, #70 ),
 ( #88, #82, #85, #126 ) ),
 .UNSPECIFIED., .F., .F., .F. ) 
 B_SPLINE_SURFACE_WITH_KNOTS ( ( 4, 4 ),
 ( 4, 4 ),
 ( 0.0000000000000000000, 1.000000000000000000 ),
 ( 0.0000000000000000000, 1.000000000000000000 ),
 .UNSPECIFIED. ) 
 GEOMETRIC_REPRESENTATION_ITEM ( )  RATIONAL_B_SPLINE_SURFACE ( (
 ( 1.000000000000000000, 0.9999398500615793700, 0.9999398500615793700, 1.000000000000000000),
 ( 0.9997565328696715900, 0.9996963975757838800, 0.9996963975757838800, 0.9997565328696715900),
 ( 0.9997565328696715900, 0.9996963975757838800, 0.9996963975757838800, 0.9997565328696715900),
 ( 1.000000000000000000, 0.9999398500615793700, 0.9999398500615793700, 1.000000000000000000) ) ) 
 REPRESENTATION_ITEM ( '' )  SURFACE ( )  );
#61 = CARTESIAN_POINT ( 'NONE',  ( 0.0000000000000000000, 12.69999999999960300, 0.1695949983846206900 ) ) ;
#62 = CARTESIAN_POINT ( 'NONE',  ( -12.69999999999999900, 3.997792089092478900E-015, 0.1695949983846490000 ) ) ;
#63 = CARTESIAN_POINT ( 'NONE',  ( 0.0000000000000000000, -12.85236311162794500, 2.826310549223665100 ) ) ;
#64 =( NAMED_UNIT ( * ) SI_UNIT ( $, .STERADIAN. ) SOLID_ANGLE_UNIT ( ) );
#65 = DATE_AND_TIME ( #116, #12 ) ;
#66 = EDGE_LOOP ( 'NONE', ( #143, #236, #167 ) ) ;
#67 = DIRECTION ( 'NONE',  ( 1.000000000000000000, 0.0000000000000000000, 0.0000000000000000000 ) ) ;
#68 = CARTESIAN_POINT ( 'NONE',  ( -4.259886352882785100, -4.285164333872677000, -0.05791058291559693400 ) ) ;
#69 = PERSON_AND_ORGANIZATION ( #215, #278 ) ;
#70 = CARTESIAN_POINT ( 'NONE',  ( -1.162264728904460800E-013, 4.285164333872669900, -0.05791058291559882800 ) ) ;
#71 = PERSON_AND_ORGANIZATION_ROLE ( 'design_supplier' ) ;
#72 = FACE_OUTER_BOUND ( 'NONE', #240, .T. ) ;
#73 = EDGE_CURVE ( 'NONE', #30, #113, #161, .T. ) ;
#74 = APPROVAL_DATE_TIME ( #207, #32 ) ;
#75 = APPROVAL_PERSON_ORGANIZATION ( #274, #261, #109 ) ;
#76 = CARTESIAN_POINT ( 'NONE',  ( 8.515240228370602800, -12.85236311162796200, 0.2308840374839933300 ) ) ;
#77 = CARTESIAN_POINT ( 'NONE',  ( -12.69999999999999900, 3.997792089092478900E-015, 0.1695949983846490000 ) ) ;
#78 = CARTESIAN_POINT ( 'NONE',  ( -8.519388357912502500, -4.285164333872661000, 3.000688134333367300 ) ) ;
#79 = CARTESIAN_POINT ( 'NONE',  ( -8.515240228370601000, -12.85236311162794600, 2.769115962516009800 ) ) ;
#80 = CALENDAR_DATE ( 2019, 7, 1 ) ;
#81 = CARTESIAN_POINT ( 'NONE',  ( 0.0000000000000000000, -4.285164333872677000, -0.05791058291554139500 ) ) ;
#82 = CARTESIAN_POINT ( 'NONE',  ( -8.515240228370846200, 12.85236311162795500, 0.2308840374839632700 ) ) ;
#83 = AXIS2_PLACEMENT_3D ( 'NONE', #216, #23, #43 ) ;
#84 = CARTESIAN_POINT ( 'NONE',  ( 0.0000000000000000000, 0.0000000000000000000, 0.0000000000000000000 ) ) ;
#85 = CARTESIAN_POINT ( 'NONE',  ( -4.257812194541462400, 12.85236311162795500, 0.1736894507762820100 ) ) ;
#86 = APPROVAL_PERSON_ORGANIZATION ( #69, #234, #132 ) ;
#87 = ORIENTED_EDGE ( 'NONE', *, *, #37, .F. ) ;
#88 = CARTESIAN_POINT ( 'NONE',  ( -12.77151584938607300, 12.85236311162795400, 0.3452628901466914300 ) ) ;
#89 = CC_DESIGN_APPROVAL ( #32, ( #209 ) ) ;
#90 = UNCERTAINTY_MEASURE_WITH_UNIT (LENGTH_MEASURE( 1.000000000000000100E-005 ), #247, 'distance_accuracy_value', 'NONE');
#91 = CALENDAR_DATE ( 2019, 7, 1 ) ;
#92 = AXIS2_PLACEMENT_3D ( 'NONE', #171, #150, #67 ) ;
#93 = COORDINATED_UNIVERSAL_TIME_OFFSET ( 2, 0, .AHEAD. ) ;
#94 = EDGE_LOOP ( 'NONE', ( #87, #51, #117 ) ) ;
#95 = ORIENTED_EDGE ( 'NONE', *, *, #73, .T. ) ;
#96 = DIRECTION ( 'NONE',  ( 1.000000000000000000, 0.0000000000000000000, 0.0000000000000000000 ) ) ;
#97 = DIRECTION ( 'NONE',  ( -0.0000000000000000000, -0.0000000000000000000, -1.000000000000000000 ) ) ;
#98 = LOCAL_TIME ( 12, 57, 26.00000000000000000, #263 ) ;
#99 = ORIENTED_EDGE ( 'NONE', *, *, #25, .T. ) ;
#100 = CARTESIAN_POINT ( 'NONE',  ( 0.0000000000000000000, -12.69999999999963200, 2.830405001615380100 ) ) ;
#101 = CARTESIAN_POINT ( 'NONE',  ( -12.77151584938576800, 12.85236311162797000, 2.654737109853285500 ) ) ;
#102 = ORIENTED_EDGE ( 'NONE', *, *, #206, .T. ) ;
#103 = CARTESIAN_POINT ( 'NONE',  ( 0.0000000000000000000, -2.842170943040400100E-014, 475.6000000000000200 ) ) ;
#104 = CARTESIAN_POINT ( 'NONE',  ( -12.69999999999999900, 3.997792089092478900E-015, 2.830405001615349900 ) ) ;
#105 = DATE_AND_TIME ( #91, #112 ) ;
#106 = CARTESIAN_POINT ( 'NONE',  ( -8.519388357912745800, -4.285164333872677000, -0.0006881343333947403900 ) ) ;
#107 = DIRECTION ( 'NONE',  ( 0.0000000000000000000, 0.0000000000000000000, 1.000000000000000000 ) ) ;
#108 = VERTEX_POINT ( 'NONE', #100 ) ;
#109 = APPROVAL_ROLE ( '' ) ;
#110 = DIRECTION ( 'NONE',  ( 1.000000000000000000, 0.0000000000000000000, 0.0000000000000000000 ) ) ;
#111 = PRODUCT_RELATED_PRODUCT_CATEGORY ( 'detail', '', ( #221 ) ) ;
#112 = LOCAL_TIME ( 12, 57, 26.00000000000000000, #35 ) ;
#113 = VERTEX_POINT ( 'NONE', #61 ) ;
#114 = CARTESIAN_POINT ( 'NONE',  ( 8.515240228370846200, -12.85236311162794600, 2.769115962516039500 ) ) ;
#115 = EDGE_CURVE ( 'NONE', #30, #210, #57, .T. ) ;
#116 = CALENDAR_DATE ( 2019, 7, 1 ) ;
#117 = ORIENTED_EDGE ( 'NONE', *, *, #152, .F. ) ;
#118 = CARTESIAN_POINT ( 'NONE',  ( 1.162264728904460800E-013, -12.85236311162794500, 2.826310549223721500 ) ) ;
#119 = CARTESIAN_POINT ( 'NONE',  ( -4.259886352882604800, -4.285164333872661000, 3.057910582915543500 ) ) ;
#120 = CARTESIAN_POINT ( 'NONE',  ( -4.257812194541282100, -12.85236311162794600, 2.826310549223665100 ) ) ;
#121 = SECURITY_CLASSIFICATION ( '', '', #49 ) ;
#122 = CARTESIAN_POINT ( 'NONE',  ( 4.996003610813200500E-016, 2.442490654175340100E-015, 2.830405001615349900 ) ) ;
#123 = FACE_OUTER_BOUND ( 'NONE', #66, .T. ) ;
#124 = DIRECTION ( 'NONE',  ( -0.0000000000000000000, -0.0000000000000000000, -1.000000000000000000 ) ) ;
#125 = EDGE_CURVE ( 'NONE', #210, #174, #252, .T. ) ;
#126 = CARTESIAN_POINT ( 'NONE',  ( -1.162264728904460800E-013, 12.85236311162795400, 0.1736894507762810100 ) ) ;
#127 = DIRECTION ( 'NONE',  ( 1.000000000000000000, 0.0000000000000000000, 0.0000000000000000000 ) ) ;
#128 = COORDINATED_UNIVERSAL_TIME_OFFSET ( 2, 0, .AHEAD. ) ;
#129 = EDGE_LOOP ( 'NONE', ( #279, #95, #208 ) ) ;
#130 = CARTESIAN_POINT ( 'NONE',  ( 4.996003610813200500E-016, 2.442490654175340100E-015, 0.1695949983846490000 ) ) ;
#131 = DATE_TIME_ROLE ( 'classification_date' ) ;
#132 = APPROVAL_ROLE ( '' ) ;
#133 = SHAPE_DEFINITION_REPRESENTATION ( #250, #41 ) ;
#134 = ADVANCED_FACE ( 'NONE', ( #26 ), #293, .T. ) ;
#135 = PERSON_AND_ORGANIZATION ( #215, #278 ) ;
#136 = AXIS2_PLACEMENT_3D ( 'NONE', #34, #97, #288 ) ;
#137 = PERSON_AND_ORGANIZATION ( #215, #278 ) ;
#138 = CC_DESIGN_SECURITY_CLASSIFICATION ( #121, ( #249 ) ) ;
#139 = AXIS2_PLACEMENT_3D ( 'NONE', #84, #107, #110 ) ;
#140 = CARTESIAN_POINT ( 'NONE',  ( 0.0000000000000000000, -2.842170943040400100E-014, -472.6000000000000200 ) ) ;
#141 = CALENDAR_DATE ( 2019, 7, 1 ) ;
#142 = CARTESIAN_POINT ( 'NONE',  ( 0.0000000000000000000, -12.85236311162796100, 0.1736894507763375700 ) ) ;
#143 = ORIENTED_EDGE ( 'NONE', *, *, #73, .F. ) ;
#144 = CARTESIAN_POINT ( 'NONE',  ( 0.0000000000000000000, -4.285164333872661000, 3.057910582915543100 ) ) ;
#145 = CARTESIAN_POINT ( 'NONE',  ( 12.77151584938576800, 12.85236311162795400, 0.3452628901467170200 ) ) ;
#146 =( GEOMETRIC_REPRESENTATION_CONTEXT ( 3 ) GLOBAL_UNCERTAINTY_ASSIGNED_CONTEXT ( ( #90 ) ) GLOBAL_UNIT_ASSIGNED_CONTEXT ( ( #247, #194, #64 ) ) REPRESENTATION_CONTEXT ( 'NONE', 'WORKASPACE' ) );
#147 = CARTESIAN_POINT ( 'NONE',  ( 12.69999999999999900, 2.442490654175340100E-015, 2.830405001615349900 ) ) ;
#148 = DIRECTION ( 'NONE',  ( 1.000000000000000000, 0.0000000000000000000, 0.0000000000000000000 ) ) ;
#149 = ORIENTED_EDGE ( 'NONE', *, *, #245, .F. ) ;
#150 = DIRECTION ( 'NONE',  ( -0.0000000000000000000, -0.0000000000000000000, -1.000000000000000000 ) ) ;
#151 = DIRECTION ( 'NONE',  ( 1.000000000000000000, 0.0000000000000000000, 0.0000000000000000000 ) ) ;
#152 = EDGE_CURVE ( 'NONE', #228, #264, #270, .T. ) ;
#153 = PERSON_AND_ORGANIZATION_ROLE ( 'classification_officer' ) ;
#154 = ORIENTED_EDGE ( 'NONE', *, *, #152, .T. ) ;
#155 =( BOUNDED_SURFACE ( )  B_SPLINE_SURFACE ( 3, 3, ( 
 ( #142, #21, #76, #266 ),
 ( #81, #243, #238, #42 ),
 ( #165, #40, #166, #164 ),
 ( #291, #289, #59, #145 ) ),
 .UNSPECIFIED., .F., .F., .T. ) 
 B_SPLINE_SURFACE_WITH_KNOTS ( ( 4, 4 ),
 ( 4, 4 ),
 ( 0.0000000000000000000, 1.000000000000000000 ),
 ( 0.0000000000000000000, 1.000000000000000000 ),
 .UNSPECIFIED. ) 
 GEOMETRIC_REPRESENTATION_ITEM ( )  RATIONAL_B_SPLINE_SURFACE ( (
 ( 1.000000000000000000, 0.9999398500615793700, 0.9999398500615793700, 1.000000000000000000),
 ( 0.9997565328696715900, 0.9996963975757838800, 0.9996963975757838800, 0.9997565328696715900),
 ( 0.9997565328696715900, 0.9996963975757838800, 0.9996963975757838800, 0.9997565328696715900),
 ( 1.000000000000000000, 0.9999398500615793700, 0.9999398500615793700, 1.000000000000000000) ) ) 
 REPRESENTATION_ITEM ( '' )  SURFACE ( )  );
#156 = ORIENTED_EDGE ( 'NONE', *, *, #115, .F. ) ;
#157 = CC_DESIGN_PERSON_AND_ORGANIZATION_ASSIGNMENT ( #137, #7, ( #249 ) ) ;
#158 = CARTESIAN_POINT ( 'NONE',  ( 4.996003610813200500E-016, 2.442490654175340100E-015, 0.1695949983846490000 ) ) ;
#159 = CARTESIAN_POINT ( 'NONE',  ( 8.515240228370846200, 12.85236311162797100, 2.769115962516039500 ) ) ;
#160 = CALENDAR_DATE ( 2019, 7, 1 ) ;
#161 = CIRCLE ( 'NONE', #199, 475.6000000000000200 ) ;
#162 = CC_DESIGN_PERSON_AND_ORGANIZATION_ASSIGNMENT ( #56, #256, ( #209 ) ) ;
#163 = DIRECTION ( 'NONE',  ( -1.000000000000000000, 0.0000000000000000000, 0.0000000000000000000 ) ) ;
#164 = CARTESIAN_POINT ( 'NONE',  ( 12.77773738873977600, 4.285164333872669900, 0.1137464370507299500 ) ) ;
#165 = CARTESIAN_POINT ( 'NONE',  ( 0.0000000000000000000, 4.285164333872669900, -0.05791058291554226200 ) ) ;
#166 = CARTESIAN_POINT ( 'NONE',  ( 8.519388357912504300, 4.285164333872669900, -0.0006881343333655752400 ) ) ;
#167 = ORIENTED_EDGE ( 'NONE', *, *, #202, .T. ) ;
#168 = EDGE_CURVE ( 'NONE', #180, #264, #45, .T. ) ;
#169 =( BOUNDED_SURFACE ( )  B_SPLINE_SURFACE ( 3, 3, ( 
 ( #235, #114, #31, #118 ),
 ( #15, #181, #287, #283 ),
 ( #19, #18, #184, #237 ),
 ( #33, #159, #53, #14 ) ),
 .UNSPECIFIED., .F., .F., .T. ) 
 B_SPLINE_SURFACE_WITH_KNOTS ( ( 4, 4 ),
 ( 4, 4 ),
 ( 0.0000000000000000000, 1.000000000000000000 ),
 ( 0.0000000000000000000, 1.000000000000000000 ),
 .UNSPECIFIED. ) 
 GEOMETRIC_REPRESENTATION_ITEM ( )  RATIONAL_B_SPLINE_SURFACE ( (
 ( 1.000000000000000000, 0.9999398500615793700, 0.9999398500615793700, 1.000000000000000000),
 ( 0.9997565328696715900, 0.9996963975757838800, 0.9996963975757838800, 0.9997565328696715900),
 ( 0.9997565328696715900, 0.9996963975757838800, 0.9996963975757838800, 0.9997565328696715900),
 ( 1.000000000000000000, 0.9999398500615793700, 0.9999398500615793700, 1.000000000000000000) ) ) 
 REPRESENTATION_ITEM ( '' )  SURFACE ( )  );
#170 = FACE_OUTER_BOUND ( 'NONE', #94, .T. ) ;
#171 = CARTESIAN_POINT ( 'NONE',  ( 4.996003610813200500E-016, 2.442490654175340100E-015, 2.830405001615349900 ) ) ;
#172 = DIRECTION ( 'NONE',  ( -0.0000000000000000000, -0.0000000000000000000, -1.000000000000000000 ) ) ;
#173 = APPROVAL_DATE_TIME ( #65, #234 ) ;
#174 = VERTEX_POINT ( 'NONE', #104 ) ;
#175 = CC_DESIGN_DATE_AND_TIME_ASSIGNMENT ( #105, #131, ( #121 ) ) ;
#176 = AXIS2_PLACEMENT_3D ( 'NONE', #222, #200, #227 ) ;
#177 = PERSON_AND_ORGANIZATION ( #215, #278 ) ;
#178 = ORIENTED_EDGE ( 'NONE', *, *, #25, .F. ) ;
#179 = CIRCLE ( 'NONE', #92, 12.69999999999999900 ) ;
#180 = VERTEX_POINT ( 'NONE', #2 ) ;
#181 = CARTESIAN_POINT ( 'NONE',  ( 8.519388357912747600, -4.285164333872661000, 3.000688134333397500 ) ) ;
#182 = VECTOR ( 'NONE', #58, 1000.000000000000000 ) ;
#183 = DIRECTION ( 'NONE',  ( 0.0000000000000000000, 0.0000000000000000000, 1.000000000000000000 ) ) ;
#184 = CARTESIAN_POINT ( 'NONE',  ( 4.259886352882785100, 4.285164333872685900, 3.057910582915600800 ) ) ;
#185 = EDGE_CURVE ( 'NONE', #264, #108, #179, .T. ) ;
#186 = CARTESIAN_POINT ( 'NONE',  ( -4.257812194541282100, 12.85236311162797100, 2.826310549223665100 ) ) ;
#187 = CIRCLE ( 'NONE', #284, 12.69999999999999900 ) ;
#188 = ORIENTED_EDGE ( 'NONE', *, *, #37, .T. ) ;
#189 = CARTESIAN_POINT ( 'NONE',  ( -12.77773738873977500, 4.285164333872685900, 2.886253562949272900 ) ) ;
#190 = DIRECTION ( 'NONE',  ( 0.0000000000000000000, -1.000000000000000000, 0.0000000000000000000 ) ) ;
#191 = DIRECTION ( 'NONE',  ( 1.000000000000000000, 0.0000000000000000000, 0.0000000000000000000 ) ) ;
#192 = CARTESIAN_POINT ( 'NONE',  ( -8.519388357912502500, 4.285164333872685900, 3.000688134333368700 ) ) ;
#193 = FACE_OUTER_BOUND ( 'NONE', #13, .T. ) ;
#194 =( NAMED_UNIT ( * ) PLANE_ANGLE_UNIT ( ) SI_UNIT ( $, .RADIAN. ) );
#195 = DIRECTION ( 'NONE',  ( -0.0000000000000000000, -0.0000000000000000000, -1.000000000000000000 ) ) ;
#196 = DIRECTION ( 'NONE',  ( 1.000000000000000000, 0.0000000000000000000, 0.0000000000000000000 ) ) ;
#197 = PERSON_AND_ORGANIZATION ( #215, #278 ) ;
#198 = ORIENTED_EDGE ( 'NONE', *, *, #185, .T. ) ;
#199 = AXIS2_PLACEMENT_3D ( 'NONE', #103, #191, #190 ) ;
#200 = DIRECTION ( 'NONE',  ( 0.0000000000000000000, 0.0000000000000000000, 1.000000000000000000 ) ) ;
#201 = DATE_TIME_ROLE ( 'creation_date' ) ;
#202 = EDGE_CURVE ( 'NONE', #210, #113, #246, .T. ) ;
#203 = APPROVAL_STATUS ( 'not_yet_approved' ) ;
#204 = APPLICATION_CONTEXT ( 'configuration controlled 3d designs of mechanical parts and assemblies' ) ;
#205 = APPLICATION_PROTOCOL_DEFINITION ( 'international standard', 'config_control_design', 1994, #28 ) ;
#206 = EDGE_CURVE ( 'NONE', #108, #174, #9, .T. ) ;
#207 = DATE_AND_TIME ( #141, #239 ) ;
#208 = ORIENTED_EDGE ( 'NONE', *, *, #224, .T. ) ;
#209 = PRODUCT_DEFINITION ( 'UNKNOWN', '', #249, #282 ) ;
#210 = VERTEX_POINT ( 'NONE', #77 ) ;
#211 = AXIS2_PLACEMENT_3D ( 'NONE', #158, #183, #96 ) ;
#212 = COORDINATED_UNIVERSAL_TIME_OFFSET ( 2, 0, .AHEAD. ) ;
#213 = ORIENTED_EDGE ( 'NONE', *, *, #202, .F. ) ;
#214 = CARTESIAN_POINT ( 'NONE',  ( 4.996003610813200500E-016, 2.442490654175340100E-015, 2.830405001615349900 ) ) ;
#215 = PERSON ( 'UNSPECIFIED', 'UNSPECIFIED', 'UNSPECIFIED', ('UNSPECIFIED'), ('UNSPECIFIED'), ('UNSPECIFIED') ) ;
#216 = CARTESIAN_POINT ( 'NONE',  ( 4.996003610813200500E-016, 2.442490654175340100E-015, 0.1695949983846490000 ) ) ;
#217 = AXIS2_PLACEMENT_3D ( 'NONE', #214, #172, #148 ) ;
#218 = CIRCLE ( 'NONE', #136, 12.69999999999999900 ) ;
#219 = DIRECTION ( 'NONE',  ( 0.0000000000000000000, -1.000000000000000000, 7.003088885356328000E-016 ) ) ;
#220 = CC_DESIGN_PERSON_AND_ORGANIZATION_ASSIGNMENT ( #197, #71, ( #249 ) ) ;
#221 = PRODUCT ( '111-1240E UVFS bi-cx 25.4 F500', '111-1240E UVFS bi-cx 25.4 F500', '', ( #255 ) ) ;
#222 = CARTESIAN_POINT ( 'NONE',  ( 4.996003610813200500E-016, 2.442490654175340100E-015, 0.1695949983846490000 ) ) ;
#223 = CLOSED_SHELL ( 'NONE', ( #54, #134, #52, #281, #280, #11 ) ) ;
#224 = EDGE_CURVE ( 'NONE', #113, #180, #187, .T. ) ;
#225 = CARTESIAN_POINT ( 'NONE',  ( -1.162264728904460800E-013, -4.285164333872677000, -0.05791058291559796100 ) ) ;
#226 = CARTESIAN_POINT ( 'NONE',  ( -12.77773738874008200, 4.285164333872669900, 0.1137464370507043800 ) ) ;
#227 = DIRECTION ( 'NONE',  ( 1.000000000000000000, 0.0000000000000000000, 0.0000000000000000000 ) ) ;
#228 = VERTEX_POINT ( 'NONE', #271 ) ;
#229 = APPROVAL_ROLE ( '' ) ;
#230 = APPLICATION_PROTOCOL_DEFINITION ( 'international standard', 'config_control_design', 1994, #204 ) ;
#231 = CYLINDRICAL_SURFACE ( 'NONE', #176, 12.69999999999999900 ) ;
#232 = ORIENTED_EDGE ( 'NONE', *, *, #206, .F. ) ;
#233 = AXIS2_PLACEMENT_3D ( 'NONE', #122, #124, #127 ) ;
#234 = APPROVAL ( #257, 'UNSPECIFIED' ) ;
#235 = CARTESIAN_POINT ( 'NONE',  ( 12.77151584938607300, -12.85236311162794500, 2.654737109853311200 ) ) ;
#236 = ORIENTED_EDGE ( 'NONE', *, *, #115, .T. ) ;
#237 = CARTESIAN_POINT ( 'NONE',  ( 1.162264728904460800E-013, 4.285164333872685900, 3.057910582915601200 ) ) ;
#238 = CARTESIAN_POINT ( 'NONE',  ( 8.519388357912504300, -4.285164333872677000, -0.0006881343333647079900 ) ) ;
#239 = LOCAL_TIME ( 12, 57, 26.00000000000000000, #93 ) ;
#240 = EDGE_LOOP ( 'NONE', ( #213, #22, #99, #154, #10, #36 ) ) ;
#241 = CARTESIAN_POINT ( 'NONE',  ( 0.0000000000000000000, 12.85236311162797000, 2.826310549223665100 ) ) ;
#242 = CC_DESIGN_PERSON_AND_ORGANIZATION_ASSIGNMENT ( #177, #277, ( #221 ) ) ;
#243 = CARTESIAN_POINT ( 'NONE',  ( 4.259886352882604800, -4.285164333872677000, -0.05791058291554140200 ) ) ;
#244 = CARTESIAN_POINT ( 'NONE',  ( -12.77773738873977500, -4.285164333872661000, 2.886253562949271200 ) ) ;
#245 = EDGE_CURVE ( 'NONE', #180, #30, #16, .T. ) ;
#246 = CIRCLE ( 'NONE', #17, 12.69999999999999900 ) ;
#247 =( LENGTH_UNIT ( ) NAMED_UNIT ( * ) SI_UNIT ( .MILLI., .METRE. ) );
#248 = CARTESIAN_POINT ( 'NONE',  ( -1.162264728904460800E-013, -12.85236311162796100, 0.1736894507762810100 ) ) ;
#249 = PRODUCT_DEFINITION_FORMATION_WITH_SPECIFIED_SOURCE ( 'ANY', '', #221, .NOT_KNOWN. ) ;
#250 = PRODUCT_DEFINITION_SHAPE ( 'NONE', 'NONE',  #209 ) ;
#251 = CARTESIAN_POINT ( 'NONE',  ( -12.77151584938607300, -12.85236311162796100, 0.3452628901466914300 ) ) ;
#252 = LINE ( 'NONE', #62, #50 ) ;
#253 = CYLINDRICAL_SURFACE ( 'NONE', #211, 12.69999999999999900 ) ;
#254 = CC_DESIGN_DATE_AND_TIME_ASSIGNMENT ( #295, #201, ( #209 ) ) ;
#255 = MECHANICAL_CONTEXT ( 'NONE', #204, 'mechanical' ) ;
#256 = PERSON_AND_ORGANIZATION_ROLE ( 'creator' ) ;
#257 = APPROVAL_STATUS ( 'not_yet_approved' ) ;
#258 = LOCAL_TIME ( 12, 57, 26.00000000000000000, #128 ) ;
#259 = APPROVAL_PERSON_ORGANIZATION ( #20, #32, #229 ) ;
#260 = ORIENTED_EDGE ( 'NONE', *, *, #168, .T. ) ;
#261 = APPROVAL ( #203, 'UNSPECIFIED' ) ;
#262 = APPROVAL_DATE_TIME ( #29, #261 ) ;
#263 = COORDINATED_UNIVERSAL_TIME_OFFSET ( 2, 0, .AHEAD. ) ;
#264 = VERTEX_POINT ( 'NONE', #147 ) ;
#265 = CC_DESIGN_APPROVAL ( #261, ( #121 ) ) ;
#266 = CARTESIAN_POINT ( 'NONE',  ( 12.77151584938576800, -12.85236311162796100, 0.3452628901467170200 ) ) ;
#267 = CARTESIAN_POINT ( 'NONE',  ( 12.69999999999999900, 2.442490654175340100E-015, 0.1695949983846490000 ) ) ;
#268 = AXIS2_PLACEMENT_3D ( 'NONE', #140, #163, #219 ) ;
#269 = CARTESIAN_POINT ( 'NONE',  ( -4.259886352882604800, 4.285164333872685900, 3.057910582915545300 ) ) ;
#270 = CIRCLE ( 'NONE', #217, 12.69999999999999900 ) ;
#271 = CARTESIAN_POINT ( 'NONE',  ( 0.0000000000000000000, 12.69999999999960300, 2.830405001615380100 ) ) ;
#272 = CARTESIAN_POINT ( 'NONE',  ( 4.996003610813200500E-016, 2.442490654175340100E-015, 0.1695949983846490000 ) ) ;
#273 = DIRECTION ( 'NONE',  ( 1.000000000000000000, 0.0000000000000000000, 0.0000000000000000000 ) ) ;
#274 = PERSON_AND_ORGANIZATION ( #215, #278 ) ;
#275 = ORIENTED_EDGE ( 'NONE', *, *, #125, .F. ) ;
#276 = CARTESIAN_POINT ( 'NONE',  ( 4.996003610813200500E-016, 2.442490654175340100E-015, 0.1695949983846490000 ) ) ;
#277 = PERSON_AND_ORGANIZATION_ROLE ( 'design_owner' ) ;
#278 = ORGANIZATION ( 'UNSPECIFIED', 'UNSPECIFIED', '' ) ;
#279 = ORIENTED_EDGE ( 'NONE', *, *, #245, .T. ) ;
#280 = ADVANCED_FACE ( 'NONE', ( #193 ), #231, .T. ) ;
#281 = ADVANCED_FACE ( 'NONE', ( #123 ), #60, .T. ) ;
#282 = DESIGN_CONTEXT ( 'detailed design', #28, 'design' ) ;
#283 = CARTESIAN_POINT ( 'NONE',  ( 1.179611963664228800E-013, -4.285164333872661000, 3.057910582915599900 ) ) ;
#284 = AXIS2_PLACEMENT_3D ( 'NONE', #130, #44, #273 ) ;
#285 = MANIFOLD_SOLID_BREP ( 'Imported1', #223 ) ;
#286 = CC_DESIGN_APPROVAL ( #234, ( #249 ) ) ;
#287 = CARTESIAN_POINT ( 'NONE',  ( 4.259886352882786800, -4.285164333872661000, 3.057910582915599500 ) ) ;
#288 = DIRECTION ( 'NONE',  ( 1.000000000000000000, 0.0000000000000000000, 0.0000000000000000000 ) ) ;
#289 = CARTESIAN_POINT ( 'NONE',  ( 4.257812194541282100, 12.85236311162795500, 0.1736894507763375700 ) ) ;
#290 = DIRECTION ( 'NONE',  ( 0.0000000000000000000, 0.0000000000000000000, 1.000000000000000000 ) ) ;
#291 = CARTESIAN_POINT ( 'NONE',  ( 0.0000000000000000000, 12.85236311162795400, 0.1736894507763375700 ) ) ;
#292 = CARTESIAN_POINT ( 'NONE',  ( -8.515240228370602800, 12.85236311162797100, 2.769115962516009800 ) ) ;
#293 =( BOUNDED_SURFACE ( )  B_SPLINE_SURFACE ( 3, 3, ( 
 ( #63, #120, #79, #38 ),
 ( #144, #119, #78, #244 ),
 ( #39, #269, #192, #189 ),
 ( #241, #186, #292, #101 ) ),
 .UNSPECIFIED., .F., .F., .F. ) 
 B_SPLINE_SURFACE_WITH_KNOTS ( ( 4, 4 ),
 ( 4, 4 ),
 ( 0.0000000000000000000, 1.000000000000000000 ),
 ( 0.0000000000000000000, 1.000000000000000000 ),
 .UNSPECIFIED. ) 
 GEOMETRIC_REPRESENTATION_ITEM ( )  RATIONAL_B_SPLINE_SURFACE ( (
 ( 1.000000000000000000, 0.9999398500615793700, 0.9999398500615793700, 1.000000000000000000),
 ( 0.9997565328696715900, 0.9996963975757838800, 0.9996963975757838800, 0.9997565328696715900),
 ( 0.9997565328696715900, 0.9996963975757838800, 0.9996963975757838800, 0.9997565328696715900),
 ( 1.000000000000000000, 0.9999398500615793700, 0.9999398500615793700, 1.000000000000000000) ) ) 
 REPRESENTATION_ITEM ( '' )  SURFACE ( )  );
#294 = CARTESIAN_POINT ( 'NONE',  ( -12.77773738874008200, -4.285164333872677000, 0.1137464370507052500 ) ) ;
#295 = DATE_AND_TIME ( #160, #98 ) ;
ENDSEC;
END-ISO-10303-21;
