ISO-10303-21;
HEADER;
FILE_DESCRIPTION (( 'STEP AP203' ),
    '1' );
FILE_NAME ('111-1238E UVFS bi-cx 25.4 F400.STEP',
    '2019-01-07T10:30:13',
    ( '' ),
    ( '' ),
    'SwSTEP 2.0',
    'SolidWorks 2017',
    '' );
FILE_SCHEMA (( 'CONFIG_CONTROL_DESIGN' ));
ENDSEC;

DATA;
#1 = DIRECTION ( 'NONE',  ( 1.000000000000000000, 0.0000000000000000000, 0.0000000000000000000 ) ) ;
#2 = CARTESIAN_POINT ( 'NONE',  ( 4.260536132076142100, 4.285745329902160200, 3.072420602464080600 ) ) ;
#3 = ORIENTED_EDGE ( 'NONE', *, *, #136, .F. ) ;
#4 = AXIS2_PLACEMENT_3D ( 'NONE', #150, #69, #221 ) ;
#5 = PERSON_AND_ORGANIZATION_ROLE ( 'design_supplier' ) ;
#6 = DATE_AND_TIME ( #209, #222 ) ;
#7 = PERSON_AND_ORGANIZATION ( #125, #94 ) ;
#8 = DIRECTION ( 'NONE',  ( 1.000000000000000000, 0.0000000000000000000, 0.0000000000000000000 ) ) ;
#9 = AXIS2_PLACEMENT_3D ( 'NONE', #19, #104, #124 ) ;
#10 = APPROVAL ( #137, 'UNSPECIFIED' ) ;
#11 = EDGE_LOOP ( 'NONE', ( #151, #212, #205 ) ) ;
#12 = CC_DESIGN_PERSON_AND_ORGANIZATION_ASSIGNMENT ( #131, #114, ( #71 ) ) ;
#13 = PERSON_AND_ORGANIZATION ( #125, #94 ) ;
#14 = CARTESIAN_POINT ( 'NONE',  ( -12.69999999999999900, 3.997792089092478900E-015, 0.2120596336596040100 ) ) ;
#15 = CARTESIAN_POINT ( 'NONE',  ( 4.260536132076149200, -4.285745329902182400, -0.07242060246402715100 ) ) ;
#16 = DIRECTION ( 'NONE',  ( 1.000000000000000000, 0.0000000000000000000, 0.0000000000000000000 ) ) ;
#17 = ORIENTED_EDGE ( 'NONE', *, *, #159, .F. ) ;
#18 = AXIS2_PLACEMENT_3D ( 'NONE', #148, #130, #109 ) ;
#19 = CARTESIAN_POINT ( 'NONE',  ( 4.996003610813200500E-016, 2.442490654175340100E-015, 0.2120596336596040100 ) ) ;
#20 = CARTESIAN_POINT ( 'NONE',  ( 4.257293189907567700, -12.85234232843155200, 2.782820885784902400 ) ) ;
#21 = AXIS2_PLACEMENT_3D ( 'NONE', #235, #128, #242 ) ;
#22 = CARTESIAN_POINT ( 'NONE',  ( -5.684341886080800200E-014, 12.69999999999904500, 2.787940366340423200 ) ) ;
#23 = ORIENTED_EDGE ( 'NONE', *, *, #246, .F. ) ;
#24 =( BOUNDED_SURFACE ( )  B_SPLINE_SURFACE ( 3, 3, ( 
 ( #55, #184, #284, #289 ),
 ( #35, #15, #181, #118 ),
 ( #228, #287, #164, #206 ),
 ( #61, #193, #63, #166 ) ),
 .UNSPECIFIED., .F., .F., .F. ) 
 B_SPLINE_SURFACE_WITH_KNOTS ( ( 4, 4 ),
 ( 4, 4 ),
 ( 0.0000000000000000000, 1.000000000000000000 ),
 ( 0.0000000000000000000, 1.000000000000000000 ),
 .UNSPECIFIED. ) 
 GEOMETRIC_REPRESENTATION_ITEM ( )  RATIONAL_B_SPLINE_SURFACE ( (
 ( 1.000000000000000000, 0.9999059643882247700, 0.9999059643882247700, 1.000000000000000000),
 ( 0.9996193846578773600, 0.9995253848374986400, 0.9995253848374986400, 0.9996193846578773600),
 ( 0.9996193846578773600, 0.9995253848374986400, 0.9995253848374986400, 0.9996193846578773600),
 ( 1.000000000000000000, 0.9999059643882247700, 0.9999059643882247700, 1.000000000000000000) ) ) 
 REPRESENTATION_ITEM ( '' )  SURFACE ( )  );
#25 = APPROVAL ( #277, 'UNSPECIFIED' ) ;
#26 = VERTEX_POINT ( 'NONE', #141 ) ;
#27 = CARTESIAN_POINT ( 'NONE',  ( 3.295974604355933500E-014, -4.285745329902182400, 3.072420602464078800 ) ) ;
#28 = CARTESIAN_POINT ( 'NONE',  ( 4.996003610813200500E-016, 2.442490654175340100E-015, 0.2120596336596040100 ) ) ;
#29 = DATE_AND_TIME ( #178, #147 ) ;
#30 = DIRECTION ( 'NONE',  ( 0.0000000000000000000, 0.0000000000000000000, 1.000000000000000000 ) ) ;
#31 = ORIENTED_EDGE ( 'NONE', *, *, #202, .T. ) ;
#32 = DATE_AND_TIME ( #116, #77 ) ;
#33 = CIRCLE ( 'NONE', #288, 12.69999999999999900 ) ;
#34 = CC_DESIGN_PERSON_AND_ORGANIZATION_ASSIGNMENT ( #13, #133, ( #227 ) ) ;
#35 = CARTESIAN_POINT ( 'NONE',  ( 5.684341886080799000E-014, -4.285745329902182400, -0.07242060246402715100 ) ) ;
#36 = CARTESIAN_POINT ( 'NONE',  ( -12.77860374985165100, 4.285745329902160200, 0.1422319987366767500 ) ) ;
#37 = VERTEX_POINT ( 'NONE', #72 ) ;
#38 = CALENDAR_DATE ( 2019, 7, 1 ) ;
#39 = VECTOR ( 'NONE', #207, 1000.000000000000000 ) ;
#40 = CC_DESIGN_APPROVAL ( #25, ( #227 ) ) ;
#41 = CARTESIAN_POINT ( 'NONE',  ( -4.257293189907574800, -12.85234232843155200, 2.782820885784854000 ) ) ;
#42 = ORIENTED_EDGE ( 'NONE', *, *, #241, .T. ) ;
#43 = CARTESIAN_POINT ( 'NONE',  ( 4.996003610813200500E-016, 2.442490654175340100E-015, 2.787940366340400500 ) ) ;
#44 = CYLINDRICAL_SURFACE ( 'NONE', #126, 12.69999999999999900 ) ;
#45 = UNCERTAINTY_MEASURE_WITH_UNIT (LENGTH_MEASURE( 1.000000000000000100E-005 ), #198, 'distance_accuracy_value', 'NONE');
#46 = DIRECTION ( 'NONE',  ( 0.0000000000000000000, 0.0000000000000000000, 1.000000000000000000 ) ) ;
#47 = CARTESIAN_POINT ( 'NONE',  ( 4.996003610813200500E-016, 2.442490654175340100E-015, 0.2120596336596040100 ) ) ;
#48 = DIRECTION ( 'NONE',  ( -0.0000000000000000000, -0.0000000000000000000, -1.000000000000000000 ) ) ;
#49 = DIRECTION ( 'NONE',  ( 1.000000000000000000, 0.0000000000000000000, 0.0000000000000000000 ) ) ;
#50 = EDGE_CURVE ( 'NONE', #105, #294, #107, .T. ) ;
#51 = CIRCLE ( 'NONE', #176, 12.69999999999999900 ) ;
#52 = MECHANICAL_CONTEXT ( 'NONE', #247, 'mechanical' ) ;
#53 = APPROVAL_PERSON_ORGANIZATION ( #252, #25, #179 ) ;
#54 = CIRCLE ( 'NONE', #110, 12.69999999999999900 ) ;
#55 = CARTESIAN_POINT ( 'NONE',  ( 5.684341886080800200E-014, -12.85234232843155600, 0.2171791142151491300 ) ) ;
#56 = AXIS2_PLACEMENT_3D ( 'NONE', #240, #111, #270 ) ;
#57 = VERTEX_POINT ( 'NONE', #258 ) ;
#58 = APPROVAL_DATE_TIME ( #32, #155 ) ;
#59 = DIRECTION ( 'NONE',  ( 0.0000000000000000000, -1.000000000000000000, -2.918567362316395300E-016 ) ) ;
#60 = CARTESIAN_POINT ( 'NONE',  ( -12.76887721035726900, -12.85234232843155600, 0.4316683308204782900 ) ) ;
#61 = CARTESIAN_POINT ( 'NONE',  ( 5.684341886080800200E-014, 12.85234232843153300, 0.2171791142151491300 ) ) ;
#62 = CC_DESIGN_SECURITY_CLASSIFICATION ( #79, ( #227 ) ) ;
#63 = CARTESIAN_POINT ( 'NONE',  ( 8.513985874060665500, 12.85234232843153100, 0.2886822435907778800 ) ) ;
#64 = LINE ( 'NONE', #99, #139 ) ;
#65 = DIRECTION ( 'NONE',  ( -0.0000000000000000000, -0.0000000000000000000, -1.000000000000000000 ) ) ;
#66 = ORIENTED_EDGE ( 'NONE', *, *, #223, .F. ) ;
#67 =( NAMED_UNIT ( * ) PLANE_ANGLE_UNIT ( ) SI_UNIT ( $, .RADIAN. ) );
#68 = CC_DESIGN_PERSON_AND_ORGANIZATION_ASSIGNMENT ( #134, #5, ( #227 ) ) ;
#69 = DIRECTION ( 'NONE',  ( -0.0000000000000000000, -0.0000000000000000000, -1.000000000000000000 ) ) ;
#70 = CLOSED_SHELL ( 'NONE', ( #177, #219, #276, #93, #269, #237 ) ) ;
#71 = PRODUCT_DEFINITION ( 'UNKNOWN', '', #227, #290 ) ;
#72 = CARTESIAN_POINT ( 'NONE',  ( -5.684341886080800200E-014, -12.69999999999910000, 2.787940366340423200 ) ) ;
#73 = APPROVAL_PERSON_ORGANIZATION ( #97, #155, #274 ) ;
#74 = CARTESIAN_POINT ( 'NONE',  ( -12.77860374985165100, -4.285745329902182400, 0.1422319987366788600 ) ) ;
#75 = CARTESIAN_POINT ( 'NONE',  ( -3.122502256758252800E-014, 12.85234232843153300, 0.2171791142151001400 ) ) ;
#76 = EDGE_LOOP ( 'NONE', ( #295, #66, #278 ) ) ;
#77 = LOCAL_TIME ( 12, 30, 13.00000000000000000, #230 ) ;
#78 = CIRCLE ( 'NONE', #56, 12.69999999999999900 ) ;
#79 = SECURITY_CLASSIFICATION ( '', '', #243 ) ;
#80 = DIRECTION ( 'NONE',  ( 1.000000000000000000, 0.0000000000000000000, 0.0000000000000000000 ) ) ;
#81 = CARTESIAN_POINT ( 'NONE',  ( -5.684341886080799000E-014, 4.285745329902160200, 3.072420602464031300 ) ) ;
#82 = CC_DESIGN_DATE_AND_TIME_ASSIGNMENT ( #266, #200, ( #79 ) ) ;
#83 = DIRECTION ( 'NONE',  ( 1.000000000000000000, 0.0000000000000000000, 0.0000000000000000000 ) ) ;
#84 = CARTESIAN_POINT ( 'NONE',  ( 12.77860374985165100, -4.285745329902182400, 2.857768001263323300 ) ) ;
#85 = EDGE_LOOP ( 'NONE', ( #208, #214, #197 ) ) ;
#86 = CARTESIAN_POINT ( 'NONE',  ( -12.69999999999999900, 3.997792089092478900E-015, 2.787940366340400500 ) ) ;
#87 = FACE_OUTER_BOUND ( 'NONE', #11, .T. ) ;
#88 = PERSON_AND_ORGANIZATION ( #125, #94 ) ;
#89 = APPLICATION_PROTOCOL_DEFINITION ( 'international standard', 'config_control_design', 1994, #247 ) ;
#90 = DATE_TIME_ROLE ( 'creation_date' ) ;
#91 =( BOUNDED_SURFACE ( )  B_SPLINE_SURFACE ( 3, 3, ( 
 ( #60, #163, #95, #185 ),
 ( #74, #161, #120, #254 ),
 ( #36, #256, #117, #182 ),
 ( #186, #229, #282, #75 ) ),
 .UNSPECIFIED., .F., .F., .T. ) 
 B_SPLINE_SURFACE_WITH_KNOTS ( ( 4, 4 ),
 ( 4, 4 ),
 ( 0.0000000000000000000, 1.000000000000000000 ),
 ( 0.0000000000000000000, 1.000000000000000000 ),
 .UNSPECIFIED. ) 
 GEOMETRIC_REPRESENTATION_ITEM ( )  RATIONAL_B_SPLINE_SURFACE ( (
 ( 1.000000000000000000, 0.9999059643882247700, 0.9999059643882247700, 1.000000000000000000),
 ( 0.9996193846578773600, 0.9995253848374986400, 0.9995253848374986400, 0.9996193846578773600),
 ( 0.9996193846578773600, 0.9995253848374986400, 0.9995253848374986400, 0.9996193846578773600),
 ( 1.000000000000000000, 0.9999059643882247700, 0.9999059643882247700, 1.000000000000000000) ) ) 
 REPRESENTATION_ITEM ( '' )  SURFACE ( )  );
#92 = LOCAL_TIME ( 12, 30, 13.00000000000000000, #204 ) ;
#93 = ADVANCED_FACE ( 'NONE', ( #267 ), #91, .T. ) ;
#94 = ORGANIZATION ( 'UNSPECIFIED', 'UNSPECIFIED', '' ) ;
#95 = CARTESIAN_POINT ( 'NONE',  ( -4.257293189907566800, -12.85234232843155200, 0.2171791142151010800 ) ) ;
#96 = ORIENTED_EDGE ( 'NONE', *, *, #246, .T. ) ;
#97 = PERSON_AND_ORGANIZATION ( #125, #94 ) ;
#98 = CARTESIAN_POINT ( 'NONE',  ( 12.69999999999999900, 2.442490654175340100E-015, 2.787940366340400500 ) ) ;
#99 = CARTESIAN_POINT ( 'NONE',  ( 12.69999999999999900, 2.442490654175340100E-015, 0.2120596336596040100 ) ) ;
#100 = CARTESIAN_POINT ( 'NONE',  ( 4.996003610813200500E-016, 2.442490654175340100E-015, 2.787940366340400500 ) ) ;
#101 = SHAPE_DEFINITION_REPRESENTATION ( #168, #286 ) ;
#102 = AXIS2_PLACEMENT_3D ( 'NONE', #43, #65, #215 ) ;
#103 = CARTESIAN_POINT ( 'NONE',  ( -5.684341886080799000E-014, -4.285745329902182400, 3.072420602464029000 ) ) ;
#104 = DIRECTION ( 'NONE',  ( -0.0000000000000000000, -0.0000000000000000000, -1.000000000000000000 ) ) ;
#105 = VERTEX_POINT ( 'NONE', #14 ) ;
#106 = CARTESIAN_POINT ( 'NONE',  ( -12.77860374985162700, -4.285745329902182400, 2.857768001263295800 ) ) ;
#107 = LINE ( 'NONE', #253, #39 ) ;
#108 = DIRECTION ( 'NONE',  ( 1.000000000000000000, 0.0000000000000000000, 0.0000000000000000000 ) ) ;
#109 = DIRECTION ( 'NONE',  ( 1.000000000000000000, 0.0000000000000000000, 0.0000000000000000000 ) ) ;
#110 = AXIS2_PLACEMENT_3D ( 'NONE', #122, #167, #83 ) ;
#111 = DIRECTION ( 'NONE',  ( -0.0000000000000000000, -0.0000000000000000000, -1.000000000000000000 ) ) ;
#112 = MANIFOLD_SOLID_BREP ( 'Imported1', #70 ) ;
#113 = AXIS2_PLACEMENT_3D ( 'NONE', #199, #30, #8 ) ;
#114 = PERSON_AND_ORGANIZATION_ROLE ( 'creator' ) ;
#115 = APPLICATION_CONTEXT ( 'configuration controlled 3d designs of mechanical parts and assemblies' ) ;
#116 = CALENDAR_DATE ( 2019, 7, 1 ) ;
#117 = CARTESIAN_POINT ( 'NONE',  ( -4.260536132076142100, 4.285745329902160200, -0.07242060246407722200 ) ) ;
#118 = CARTESIAN_POINT ( 'NONE',  ( 12.77860374985162500, -4.285745329902182400, 0.1422319987367066700 ) ) ;
#119 = ORIENTED_EDGE ( 'NONE', *, *, #218, .F. ) ;
#120 = CARTESIAN_POINT ( 'NONE',  ( -4.260536132076142100, -4.285745329902182400, -0.07242060246407516800 ) ) ;
#121 = VERTEX_POINT ( 'NONE', #98 ) ;
#122 = CARTESIAN_POINT ( 'NONE',  ( 4.996003610813200500E-016, 2.442490654175340100E-015, 0.2120596336596040100 ) ) ;
#123 = CARTESIAN_POINT ( 'NONE',  ( -4.257293189907574800, 12.85234232843153100, 2.782820885784854000 ) ) ;
#124 = DIRECTION ( 'NONE',  ( 1.000000000000000000, 0.0000000000000000000, 0.0000000000000000000 ) ) ;
#125 = PERSON ( 'UNSPECIFIED', 'UNSPECIFIED', 'UNSPECIFIED', ('UNSPECIFIED'), ('UNSPECIFIED'), ('UNSPECIFIED') ) ;
#126 = AXIS2_PLACEMENT_3D ( 'NONE', #47, #46, #1 ) ;
#127 = CARTESIAN_POINT ( 'NONE',  ( -12.76887721035724300, 12.85234232843153300, 2.568331669179496800 ) ) ;
#128 = DIRECTION ( 'NONE',  ( -1.000000000000000000, 0.0000000000000000000, 0.0000000000000000000 ) ) ;
#129 = ORIENTED_EDGE ( 'NONE', *, *, #268, .F. ) ;
#130 = DIRECTION ( 'NONE',  ( 0.0000000000000000000, 0.0000000000000000000, 1.000000000000000000 ) ) ;
#131 = PERSON_AND_ORGANIZATION ( #125, #94 ) ;
#132 = CIRCLE ( 'NONE', #102, 12.69999999999999900 ) ;
#133 = PERSON_AND_ORGANIZATION_ROLE ( 'creator' ) ;
#134 = PERSON_AND_ORGANIZATION ( #125, #94 ) ;
#135 = APPLICATION_PROTOCOL_DEFINITION ( 'international standard', 'config_control_design', 1994, #115 ) ;
#136 = EDGE_CURVE ( 'NONE', #26, #255, #239, .T. ) ;
#137 = APPROVAL_STATUS ( 'not_yet_approved' ) ;
#138 = ORIENTED_EDGE ( 'NONE', *, *, #223, .T. ) ;
#139 = VECTOR ( 'NONE', #160, 1000.000000000000000 ) ;
#140 = CC_DESIGN_APPROVAL ( #155, ( #79 ) ) ;
#141 = CARTESIAN_POINT ( 'NONE',  ( 5.684341886080800200E-014, -12.69999999999910000, 0.2120596336595799700 ) ) ;
#142 = CC_DESIGN_DATE_AND_TIME_ASSIGNMENT ( #29, #90, ( #71 ) ) ;
#143 =( BOUNDED_SURFACE ( )  B_SPLINE_SURFACE ( 3, 3, ( 
 ( #189, #233, #20, #211 ),
 ( #84, #152, #153, #27 ),
 ( #217, #238, #2, #234 ),
 ( #220, #154, #172, #265 ) ),
 .UNSPECIFIED., .F., .F., .F. ) 
 B_SPLINE_SURFACE_WITH_KNOTS ( ( 4, 4 ),
 ( 4, 4 ),
 ( 0.0000000000000000000, 1.000000000000000000 ),
 ( 0.0000000000000000000, 1.000000000000000000 ),
 .UNSPECIFIED. ) 
 GEOMETRIC_REPRESENTATION_ITEM ( )  RATIONAL_B_SPLINE_SURFACE ( (
 ( 1.000000000000000000, 0.9999059643882247700, 0.9999059643882247700, 1.000000000000000000),
 ( 0.9996193846578773600, 0.9995253848374986400, 0.9995253848374986400, 0.9996193846578773600),
 ( 0.9996193846578773600, 0.9995253848374986400, 0.9995253848374986400, 0.9996193846578773600),
 ( 1.000000000000000000, 0.9999059643882247700, 0.9999059643882247700, 1.000000000000000000) ) ) 
 REPRESENTATION_ITEM ( '' )  SURFACE ( )  );
#144 = CARTESIAN_POINT ( 'NONE',  ( 5.684341886080800200E-014, -5.684341886080800200E-014, 380.3999999999999800 ) ) ;
#145 = FACE_OUTER_BOUND ( 'NONE', #85, .T. ) ;
#146 = CARTESIAN_POINT ( 'NONE',  ( -5.684341886080800200E-014, -12.85234232843155600, 2.782820885784853500 ) ) ;
#147 = LOCAL_TIME ( 12, 30, 13.00000000000000000, #225 ) ;
#148 = CARTESIAN_POINT ( 'NONE',  ( 4.996003610813200500E-016, 2.442490654175340100E-015, 0.2120596336596040100 ) ) ;
#149 = ORIENTED_EDGE ( 'NONE', *, *, #50, .T. ) ;
#150 = CARTESIAN_POINT ( 'NONE',  ( 4.996003610813200500E-016, 2.442490654175340100E-015, 2.787940366340400500 ) ) ;
#151 = ORIENTED_EDGE ( 'NONE', *, *, #218, .T. ) ;
#152 = CARTESIAN_POINT ( 'NONE',  ( 8.520471300969745700, -4.285745329902182400, 3.000863006434833400 ) ) ;
#153 = CARTESIAN_POINT ( 'NONE',  ( 4.260536132076142100, -4.285745329902182400, 3.072420602464078300 ) ) ;
#154 = CARTESIAN_POINT ( 'NONE',  ( 8.513985874060676200, 12.85234232843153100, 2.711317756409253700 ) ) ;
#155 = APPROVAL ( #201, 'UNSPECIFIED' ) ;
#156 = EDGE_LOOP ( 'NONE', ( #3, #96, #31 ) ) ;
#157 = PERSON_AND_ORGANIZATION_ROLE ( 'classification_officer' ) ;
#158 = FACE_OUTER_BOUND ( 'NONE', #162, .T. ) ;
#159 = EDGE_CURVE ( 'NONE', #57, #121, #64, .T. ) ;
#160 = DIRECTION ( 'NONE',  ( 0.0000000000000000000, 0.0000000000000000000, 1.000000000000000000 ) ) ;
#161 = CARTESIAN_POINT ( 'NONE',  ( -8.520471300969745700, -4.285745329902182400, -0.0008630064348309208700 ) ) ;
#162 = EDGE_LOOP ( 'NONE', ( #224, #23, #119, #248, #138, #42 ) ) ;
#163 = CARTESIAN_POINT ( 'NONE',  ( -8.513985874060676200, -12.85234232843155200, 0.2886822435907479000 ) ) ;
#164 = CARTESIAN_POINT ( 'NONE',  ( 8.520471300969736800, 4.285745329902160200, -0.0008630064348031112000 ) ) ;
#165 = DIRECTION ( 'NONE',  ( -0.0000000000000000000, -0.0000000000000000000, -1.000000000000000000 ) ) ;
#166 = CARTESIAN_POINT ( 'NONE',  ( 12.76887721035724300, 12.85234232843153300, 0.4316683308205061000 ) ) ;
#167 = DIRECTION ( 'NONE',  ( -0.0000000000000000000, -0.0000000000000000000, -1.000000000000000000 ) ) ;
#168 = PRODUCT_DEFINITION_SHAPE ( 'NONE', 'NONE',  #71 ) ;
#169 = COORDINATED_UNIVERSAL_TIME_OFFSET ( 2, 0, .AHEAD. ) ;
#170 =( NAMED_UNIT ( * ) SI_UNIT ( $, .STERADIAN. ) SOLID_ANGLE_UNIT ( ) );
#171 = CARTESIAN_POINT ( 'NONE',  ( 5.684341886080800200E-014, 12.69999999999904500, 0.2120596336595799700 ) ) ;
#172 = CARTESIAN_POINT ( 'NONE',  ( 4.257293189907567700, 12.85234232843153100, 2.782820885784902400 ) ) ;
#173 = APPROVAL_DATE_TIME ( #249, #10 ) ;
#174 = CIRCLE ( 'NONE', #4, 12.69999999999999900 ) ;
#175 = APPROVAL_ROLE ( '' ) ;
#176 = AXIS2_PLACEMENT_3D ( 'NONE', #100, #165, #80 ) ;
#177 = ADVANCED_FACE ( 'NONE', ( #87 ), #24, .T. ) ;
#178 = CALENDAR_DATE ( 2019, 7, 1 ) ;
#179 = APPROVAL_ROLE ( '' ) ;
#180 = CC_DESIGN_APPROVAL ( #10, ( #71 ) ) ;
#181 = CARTESIAN_POINT ( 'NONE',  ( 8.520471300969733300, -4.285745329902182400, -0.0008630064348010241100 ) ) ;
#182 = CARTESIAN_POINT ( 'NONE',  ( -3.295974604355933500E-014, 4.285745329902160200, -0.07242060246407822100 ) ) ;
#183 = AXIS2_PLACEMENT_3D ( 'NONE', #272, #271, #49 ) ;
#184 = CARTESIAN_POINT ( 'NONE',  ( 4.257293189907574800, -12.85234232843155200, 0.2171791142151491300 ) ) ;
#185 = CARTESIAN_POINT ( 'NONE',  ( -3.122502256758252800E-014, -12.85234232843155600, 0.2171791142151001400 ) ) ;
#186 = CARTESIAN_POINT ( 'NONE',  ( -12.76887721035726900, 12.85234232843153300, 0.4316683308204782900 ) ) ;
#187 = CIRCLE ( 'NONE', #183, 12.69999999999999900 ) ;
#188 = CARTESIAN_POINT ( 'NONE',  ( -8.520471300969736800, 4.285745329902160200, 3.000863006434806300 ) ) ;
#189 = CARTESIAN_POINT ( 'NONE',  ( 12.76887721035726900, -12.85234232843155600, 2.568331669179524400 ) ) ;
#190 = CARTESIAN_POINT ( 'NONE',  ( -12.76887721035724300, -12.85234232843155600, 2.568331669179496800 ) ) ;
#191 = PRODUCT_RELATED_PRODUCT_CATEGORY ( 'detail', '', ( #292 ) ) ;
#192 = COORDINATED_UNIVERSAL_TIME_OFFSET ( 2, 0, .AHEAD. ) ;
#193 = CARTESIAN_POINT ( 'NONE',  ( 4.257293189907574800, 12.85234232843153100, 0.2171791142151491300 ) ) ;
#194 =( BOUNDED_SURFACE ( )  B_SPLINE_SURFACE ( 3, 3, ( 
 ( #146, #41, #293, #190 ),
 ( #103, #210, #213, #106 ),
 ( #81, #263, #188, #259 ),
 ( #232, #123, #291, #127 ) ),
 .UNSPECIFIED., .F., .F., .F. ) 
 B_SPLINE_SURFACE_WITH_KNOTS ( ( 4, 4 ),
 ( 4, 4 ),
 ( 0.0000000000000000000, 1.000000000000000000 ),
 ( 0.0000000000000000000, 1.000000000000000000 ),
 .UNSPECIFIED. ) 
 GEOMETRIC_REPRESENTATION_ITEM ( )  RATIONAL_B_SPLINE_SURFACE ( (
 ( 1.000000000000000000, 0.9999059643882247700, 0.9999059643882247700, 1.000000000000000000),
 ( 0.9996193846578773600, 0.9995253848374986400, 0.9995253848374986400, 0.9996193846578773600),
 ( 0.9996193846578773600, 0.9995253848374986400, 0.9995253848374986400, 0.9996193846578773600),
 ( 1.000000000000000000, 0.9999059643882247700, 0.9999059643882247700, 1.000000000000000000) ) ) 
 REPRESENTATION_ITEM ( '' )  SURFACE ( )  );
#195 = ORIENTED_EDGE ( 'NONE', *, *, #283, .T. ) ;
#196 = APPROVAL_DATE_TIME ( #6, #25 ) ;
#197 = ORIENTED_EDGE ( 'NONE', *, *, #262, .F. ) ;
#198 =( LENGTH_UNIT ( ) NAMED_UNIT ( * ) SI_UNIT ( .MILLI., .METRE. ) );
#199 = CARTESIAN_POINT ( 'NONE',  ( 0.0000000000000000000, 0.0000000000000000000, 0.0000000000000000000 ) ) ;
#200 = DATE_TIME_ROLE ( 'classification_date' ) ;
#201 = APPROVAL_STATUS ( 'not_yet_approved' ) ;
#202 = EDGE_CURVE ( 'NONE', #105, #255, #54, .T. ) ;
#203 = ORIENTED_EDGE ( 'NONE', *, *, #262, .T. ) ;
#204 = COORDINATED_UNIVERSAL_TIME_OFFSET ( 2, 0, .AHEAD. ) ;
#205 = ORIENTED_EDGE ( 'NONE', *, *, #268, .T. ) ;
#206 = CARTESIAN_POINT ( 'NONE',  ( 12.77860374985162700, 4.285745329902160200, 0.1422319987367046100 ) ) ;
#207 = DIRECTION ( 'NONE',  ( 0.0000000000000000000, 0.0000000000000000000, 1.000000000000000000 ) ) ;
#208 = ORIENTED_EDGE ( 'NONE', *, *, #241, .F. ) ;
#209 = CALENDAR_DATE ( 2019, 7, 1 ) ;
#210 = CARTESIAN_POINT ( 'NONE',  ( -4.260536132076149200, -4.285745329902182400, 3.072420602464029900 ) ) ;
#211 = CARTESIAN_POINT ( 'NONE',  ( 3.295974604355933500E-014, -12.85234232843155600, 2.782820885784902800 ) ) ;
#212 = ORIENTED_EDGE ( 'NONE', *, *, #136, .T. ) ;
#213 = CARTESIAN_POINT ( 'NONE',  ( -8.520471300969736800, -4.285745329902182400, 3.000863006434804100 ) ) ;
#214 = ORIENTED_EDGE ( 'NONE', *, *, #244, .T. ) ;
#215 = DIRECTION ( 'NONE',  ( 1.000000000000000000, 8.881784197001252300E-016, 0.0000000000000000000 ) ) ;
#216 = FACE_OUTER_BOUND ( 'NONE', #264, .T. ) ;
#217 = CARTESIAN_POINT ( 'NONE',  ( 12.77860374985165100, 4.285745329902160200, 2.857768001263325500 ) ) ;
#218 = EDGE_CURVE ( 'NONE', #57, #26, #285, .T. ) ;
#219 = ADVANCED_FACE ( 'NONE', ( #145 ), #194, .T. ) ;
#220 = CARTESIAN_POINT ( 'NONE',  ( 12.76887721035726900, 12.85234232843153300, 2.568331669179524400 ) ) ;
#221 = DIRECTION ( 'NONE',  ( 1.000000000000000000, 0.0000000000000000000, 0.0000000000000000000 ) ) ;
#222 = LOCAL_TIME ( 12, 30, 13.00000000000000000, #192 ) ;
#223 = EDGE_CURVE ( 'NONE', #121, #37, #51, .T. ) ;
#224 = ORIENTED_EDGE ( 'NONE', *, *, #50, .F. ) ;
#225 = COORDINATED_UNIVERSAL_TIME_OFFSET ( 2, 0, .AHEAD. ) ;
#226 = APPROVAL_PERSON_ORGANIZATION ( #7, #10, #175 ) ;
#227 = PRODUCT_DEFINITION_FORMATION_WITH_SPECIFIED_SOURCE ( 'ANY', '', #292, .NOT_KNOWN. ) ;
#228 = CARTESIAN_POINT ( 'NONE',  ( 5.684341886080799000E-014, 4.285745329902160200, -0.07242060246402920500 ) ) ;
#229 = CARTESIAN_POINT ( 'NONE',  ( -8.513985874060676200, 12.85234232843153100, 0.2886822435907479000 ) ) ;
#230 = COORDINATED_UNIVERSAL_TIME_OFFSET ( 2, 0, .AHEAD. ) ;
#231 = FACE_OUTER_BOUND ( 'NONE', #76, .T. ) ;
#232 = CARTESIAN_POINT ( 'NONE',  ( -5.684341886080800200E-014, 12.85234232843153300, 2.782820885784853500 ) ) ;
#233 = CARTESIAN_POINT ( 'NONE',  ( 8.513985874060676200, -12.85234232843155200, 2.711317756409253700 ) ) ;
#234 = CARTESIAN_POINT ( 'NONE',  ( 3.295974604355933500E-014, 4.285745329902160200, 3.072420602464081000 ) ) ;
#235 = CARTESIAN_POINT ( 'NONE',  ( -5.684341886080800200E-014, -5.684341886080800200E-014, -377.3999999999999800 ) ) ;
#236 = ORIENTED_EDGE ( 'NONE', *, *, #202, .F. ) ;
#237 = ADVANCED_FACE ( 'NONE', ( #231 ), #143, .T. ) ;
#238 = CARTESIAN_POINT ( 'NONE',  ( 8.520471300969745700, 4.285745329902160200, 3.000863006434835600 ) ) ;
#239 = CIRCLE ( 'NONE', #260, 380.3999999999999200 ) ;
#240 = CARTESIAN_POINT ( 'NONE',  ( 4.996003610813200500E-016, 2.442490654175340100E-015, 2.787940366340400500 ) ) ;
#241 = EDGE_CURVE ( 'NONE', #37, #294, #174, .T. ) ;
#242 = DIRECTION ( 'NONE',  ( 0.0000000000000000000, -1.000000000000000000, 2.918567362316395300E-016 ) ) ;
#243 = SECURITY_CLASSIFICATION_LEVEL ( 'unclassified' ) ;
#244 = EDGE_CURVE ( 'NONE', #37, #250, #257, .T. ) ;
#245 = PERSON_AND_ORGANIZATION_ROLE ( 'design_owner' ) ;
#246 = EDGE_CURVE ( 'NONE', #26, #105, #33, .T. ) ;
#247 = APPLICATION_CONTEXT ( 'configuration controlled 3d designs of mechanical parts and assemblies' ) ;
#248 = ORIENTED_EDGE ( 'NONE', *, *, #159, .T. ) ;
#249 = DATE_AND_TIME ( #279, #261 ) ;
#250 = VERTEX_POINT ( 'NONE', #22 ) ;
#251 =( GEOMETRIC_REPRESENTATION_CONTEXT ( 3 ) GLOBAL_UNCERTAINTY_ASSIGNED_CONTEXT ( ( #45 ) ) GLOBAL_UNIT_ASSIGNED_CONTEXT ( ( #198, #67, #170 ) ) REPRESENTATION_CONTEXT ( 'NONE', 'WORKASPACE' ) );
#252 = PERSON_AND_ORGANIZATION ( #125, #94 ) ;
#253 = CARTESIAN_POINT ( 'NONE',  ( -12.69999999999999900, 3.997792089092478900E-015, 0.2120596336596040100 ) ) ;
#254 = CARTESIAN_POINT ( 'NONE',  ( -3.295974604355933500E-014, -4.285745329902182400, -0.07242060246407615300 ) ) ;
#255 = VERTEX_POINT ( 'NONE', #171 ) ;
#256 = CARTESIAN_POINT ( 'NONE',  ( -8.520471300969745700, 4.285745329902160200, -0.0008630064348330353900 ) ) ;
#257 = CIRCLE ( 'NONE', #21, 380.3999999999999200 ) ;
#258 = CARTESIAN_POINT ( 'NONE',  ( 12.69999999999999900, 2.442490654175340100E-015, 0.2120596336596040100 ) ) ;
#259 = CARTESIAN_POINT ( 'NONE',  ( -12.77860374985162700, 4.285745329902160200, 2.857768001263298000 ) ) ;
#260 = AXIS2_PLACEMENT_3D ( 'NONE', #144, #16, #59 ) ;
#261 = LOCAL_TIME ( 12, 30, 13.00000000000000000, #169 ) ;
#262 = EDGE_CURVE ( 'NONE', #294, #250, #78, .T. ) ;
#263 = CARTESIAN_POINT ( 'NONE',  ( -4.260536132076149200, 4.285745329902160200, 3.072420602464032100 ) ) ;
#264 = EDGE_LOOP ( 'NONE', ( #236, #149, #203, #195, #17, #129 ) ) ;
#265 = CARTESIAN_POINT ( 'NONE',  ( 3.295974604355933500E-014, 12.85234232843153300, 2.782820885784902800 ) ) ;
#266 = DATE_AND_TIME ( #38, #92 ) ;
#267 = FACE_OUTER_BOUND ( 'NONE', #156, .T. ) ;
#268 = EDGE_CURVE ( 'NONE', #255, #57, #187, .T. ) ;
#269 = ADVANCED_FACE ( 'NONE', ( #158 ), #44, .T. ) ;
#270 = DIRECTION ( 'NONE',  ( 1.000000000000000000, 0.0000000000000000000, 0.0000000000000000000 ) ) ;
#271 = DIRECTION ( 'NONE',  ( -0.0000000000000000000, -0.0000000000000000000, -1.000000000000000000 ) ) ;
#272 = CARTESIAN_POINT ( 'NONE',  ( 4.996003610813200500E-016, 2.442490654175340100E-015, 0.2120596336596040100 ) ) ;
#273 = PERSON_AND_ORGANIZATION ( #125, #94 ) ;
#274 = APPROVAL_ROLE ( '' ) ;
#275 = CC_DESIGN_PERSON_AND_ORGANIZATION_ASSIGNMENT ( #273, #245, ( #292 ) ) ;
#276 = ADVANCED_FACE ( 'NONE', ( #216 ), #280, .T. ) ;
#277 = APPROVAL_STATUS ( 'not_yet_approved' ) ;
#278 = ORIENTED_EDGE ( 'NONE', *, *, #283, .F. ) ;
#279 = CALENDAR_DATE ( 2019, 7, 1 ) ;
#280 = CYLINDRICAL_SURFACE ( 'NONE', #18, 12.69999999999999900 ) ;
#281 = CC_DESIGN_PERSON_AND_ORGANIZATION_ASSIGNMENT ( #88, #157, ( #79 ) ) ;
#282 = CARTESIAN_POINT ( 'NONE',  ( -4.257293189907566800, 12.85234232843153100, 0.2171791142151010800 ) ) ;
#283 = EDGE_CURVE ( 'NONE', #250, #121, #132, .T. ) ;
#284 = CARTESIAN_POINT ( 'NONE',  ( 8.513985874060665500, -12.85234232843155200, 0.2886822435907778200 ) ) ;
#285 = CIRCLE ( 'NONE', #9, 12.69999999999999900 ) ;
#286 = ADVANCED_BREP_SHAPE_REPRESENTATION ( '111-1238E UVFS bi-cx 25.4 F400', ( #112, #113 ), #251 ) ;
#287 = CARTESIAN_POINT ( 'NONE',  ( 4.260536132076149200, 4.285745329902160200, -0.07242060246402920500 ) ) ;
#288 = AXIS2_PLACEMENT_3D ( 'NONE', #28, #48, #108 ) ;
#289 = CARTESIAN_POINT ( 'NONE',  ( 12.76887721035724300, -12.85234232843155600, 0.4316683308205060400 ) ) ;
#290 = DESIGN_CONTEXT ( 'detailed design', #115, 'design' ) ;
#291 = CARTESIAN_POINT ( 'NONE',  ( -8.513985874060665500, 12.85234232843153100, 2.711317756409224300 ) ) ;
#292 = PRODUCT ( '111-1238E UVFS bi-cx 25.4 F400', '111-1238E UVFS bi-cx 25.4 F400', '', ( #52 ) ) ;
#293 = CARTESIAN_POINT ( 'NONE',  ( -8.513985874060665500, -12.85234232843155200, 2.711317756409224300 ) ) ;
#294 = VERTEX_POINT ( 'NONE', #86 ) ;
#295 = ORIENTED_EDGE ( 'NONE', *, *, #244, .F. ) ;
ENDSEC;
END-ISO-10303-21;
