ISO-10303-21;
HEADER;
FILE_DESCRIPTION (( 'STEP AP203' ),
    '1' );
FILE_NAME ('111-1234E UVFS bi-cx 25.4 F300.STEP',
    '2019-01-07T10:05:11',
    ( '' ),
    ( '' ),
    'SwSTEP 2.0',
    'SolidWorks 2017',
    '' );
FILE_SCHEMA (( 'CONFIG_CONTROL_DESIGN' ));
ENDSEC;

DATA;
#1 = PERSON_AND_ORGANIZATION ( #25, #206 ) ;
#2 = ORIENTED_EDGE ( 'NONE', *, *, #67, .F. ) ;
#3 = CARTESIAN_POINT ( 'NONE',  ( 8.710065879059884500E-014, -12.69999999999990300, 2.717093204321456400 ) ) ;
#4 = CARTESIAN_POINT ( 'NONE',  ( -12.78047852290256100, -4.287002580345225400, 0.1897641450446520300 ) ) ;
#5 = VERTEX_POINT ( 'NONE', #3 ) ;
#6 = CARTESIAN_POINT ( 'NONE',  ( -12.69999999999999900, 3.997792089092478900E-015, 0.2829067956785420400 ) ) ;
#7 = CARTESIAN_POINT ( 'NONE',  ( 4.256170286985356400, 12.85229736528275000, 2.710263859402480200 ) ) ;
#8 = APPLICATION_PROTOCOL_DEFINITION ( 'international standard', 'config_control_design', 1994, #212 ) ;
#9 = DIRECTION ( 'NONE',  ( 1.000000000000000000, 0.0000000000000000000, 0.0000000000000000000 ) ) ;
#10 = CARTESIAN_POINT ( 'NONE',  ( -8.709925228044475800E-014, 12.85229736528274800, 0.2897361405975185100 ) ) ;
#11 = CARTESIAN_POINT ( 'NONE',  ( 12.76316978361916600, 12.85229736528274800, 2.424243432475103900 ) ) ;
#12 = CARTESIAN_POINT ( 'NONE',  ( 4.996003610813200500E-016, 2.442490654175340100E-015, 0.2829067956785420400 ) ) ;
#13 = DATE_AND_TIME ( #278, #73 ) ;
#14 = CARTESIAN_POINT ( 'NONE',  ( -12.76316978361911800, 12.85229736528274800, 2.424243432475111400 ) ) ;
#15 = AXIS2_PLACEMENT_3D ( 'NONE', #118, #180, #157 ) ;
#16 = EDGE_LOOP ( 'NONE', ( #47, #102, #223 ) ) ;
#17 = APPROVAL ( #57, 'UNSPECIFIED' ) ;
#18 = CARTESIAN_POINT ( 'NONE',  ( -8.717882767654151700E-014, -4.287002580345225400, -0.09664416773579943800 ) ) ;
#19 = CARTESIAN_POINT ( 'NONE',  ( -8.709925228044475800E-014, -12.85229736528277500, 0.2897361405975185100 ) ) ;
#20 = ADVANCED_FACE ( 'NONE', ( #174 ), #147, .T. ) ;
#21 = VERTEX_POINT ( 'NONE', #135 ) ;
#22 = CALENDAR_DATE ( 2019, 7, 1 ) ;
#23 = VERTEX_POINT ( 'NONE', #53 ) ;
#24 = PERSON_AND_ORGANIZATION ( #25, #206 ) ;
#25 = PERSON ( 'UNSPECIFIED', 'UNSPECIFIED', 'UNSPECIFIED', ('UNSPECIFIED'), ('UNSPECIFIED'), ('UNSPECIFIED') ) ;
#26 = CIRCLE ( 'NONE', #54, 12.69999999999999900 ) ;
#27 =( NAMED_UNIT ( * ) SI_UNIT ( $, .STERADIAN. ) SOLID_ANGLE_UNIT ( ) );
#28 = CARTESIAN_POINT ( 'NONE',  ( 12.69999999999999900, 2.442490654175340100E-015, 2.717093204321460400 ) ) ;
#29 = CARTESIAN_POINT ( 'NONE',  ( -12.76316978361916600, -12.85229736528277500, 0.5757565675248987900 ) ) ;
#30 = CARTESIAN_POINT ( 'NONE',  ( 8.511272251241225100, 12.85229736528275000, 2.614907760481181200 ) ) ;
#31 = APPROVAL_ROLE ( '' ) ;
#32 = DIRECTION ( 'NONE',  ( -0.0000000000000000000, -0.0000000000000000000, -1.000000000000000000 ) ) ;
#33 = COORDINATED_UNIVERSAL_TIME_OFFSET ( 2, 0, .AHEAD. ) ;
#34 = DIRECTION ( 'NONE',  ( -0.0000000000000000000, -0.0000000000000000000, -1.000000000000000000 ) ) ;
#35 = PRODUCT_RELATED_PRODUCT_CATEGORY ( 'detail', '', ( #178 ) ) ;
#36 = DIRECTION ( 'NONE',  ( 1.000000000000000000, 0.0000000000000000000, 0.0000000000000000000 ) ) ;
#37 = CARTESIAN_POINT ( 'NONE',  ( -8.522814790818996400, -4.287002580345226300, 3.001158751890634400 ) ) ;
#38 = DIRECTION ( 'NONE',  ( -0.0000000000000000000, -0.0000000000000000000, -1.000000000000000000 ) ) ;
#39 = DIRECTION ( 'NONE',  ( 0.0000000000000000000, -1.000000000000000000, 7.785575207750045900E-016 ) ) ;
#40 = EDGE_LOOP ( 'NONE', ( #177, #250, #164, #170, #274, #109 ) ) ;
#41 = LOCAL_TIME ( 12, 5, 11.00000000000000000, #293 ) ;
#42 = ADVANCED_FACE ( 'NONE', ( #203 ), #219, .T. ) ;
#43 = VERTEX_POINT ( 'NONE', #277 ) ;
#44 =( BOUNDED_SURFACE ( )  B_SPLINE_SURFACE ( 3, 3, ( 
 ( #120, #267, #222, #148 ),
 ( #105, #106, #37, #194 ),
 ( #224, #104, #168, #288 ),
 ( #129, #285, #246, #14 ) ),
 .UNSPECIFIED., .F., .F., .F. ) 
 B_SPLINE_SURFACE_WITH_KNOTS ( ( 4, 4 ),
 ( 4, 4 ),
 ( 0.0000000000000000000, 1.000000000000000000 ),
 ( 0.0000000000000000000, 1.000000000000000000 ),
 .UNSPECIFIED. ) 
 GEOMETRIC_REPRESENTATION_ITEM ( )  RATIONAL_B_SPLINE_SURFACE ( (
 ( 1.000000000000000000, 0.9998326629094088600, 0.9998326629094088600, 1.000000000000000000),
 ( 0.9993227299191268500, 0.9991555061609406200, 0.9991555061609406200, 0.9993227299191268500),
 ( 0.9993227299191268500, 0.9991555061609406200, 0.9991555061609406200, 0.9993227299191268500),
 ( 1.000000000000000000, 0.9998326629094088600, 0.9998326629094088600, 1.000000000000000000) ) ) 
 REPRESENTATION_ITEM ( '' )  SURFACE ( )  );
#45 =( GEOMETRIC_REPRESENTATION_CONTEXT ( 3 ) GLOBAL_UNCERTAINTY_ASSIGNED_CONTEXT ( ( #134 ) ) GLOBAL_UNIT_ASSIGNED_CONTEXT ( ( #258, #55, #27 ) ) REPRESENTATION_CONTEXT ( 'NONE', 'WORKASPACE' ) );
#46 = LOCAL_TIME ( 12, 5, 11.00000000000000000, #58 ) ;
#47 = ORIENTED_EDGE ( 'NONE', *, *, #196, .F. ) ;
#48 = CARTESIAN_POINT ( 'NONE',  ( -8.710065879059885800E-014, -12.69999999999990300, 0.2829067956785461500 ) ) ;
#49 = CARTESIAN_POINT ( 'NONE',  ( -1.595945597898662300E-013, -4.287002580345224500, -0.09664416773579667700 ) ) ;
#50 = DATE_TIME_ROLE ( 'classification_date' ) ;
#51 = CARTESIAN_POINT ( 'NONE',  ( -12.78047852290256100, 4.287002580345199700, 0.1897641450446510800 ) ) ;
#52 = VERTEX_POINT ( 'NONE', #28 ) ;
#53 = CARTESIAN_POINT ( 'NONE',  ( 8.710065879059884500E-014, 12.69999999999987800, 2.717093204321456400 ) ) ;
#54 = AXIS2_PLACEMENT_3D ( 'NONE', #82, #144, #259 ) ;
#55 =( NAMED_UNIT ( * ) PLANE_ANGLE_UNIT ( ) SI_UNIT ( $, .RADIAN. ) );
#56 = DIRECTION ( 'NONE',  ( 0.0000000000000000000, -1.000000000000000000, -7.785575207750045900E-016 ) ) ;
#57 = APPROVAL_STATUS ( 'not_yet_approved' ) ;
#58 = COORDINATED_UNIVERSAL_TIME_OFFSET ( 2, 0, .AHEAD. ) ;
#59 = PERSON_AND_ORGANIZATION_ROLE ( 'design_owner' ) ;
#60 = DATE_AND_TIME ( #289, #81 ) ;
#61 = CYLINDRICAL_SURFACE ( 'NONE', #169, 12.69999999999999900 ) ;
#62 = DIRECTION ( 'NONE',  ( -1.000000000000000000, 1.678721366436490000E-031, 2.059509617350849900E-016 ) ) ;
#63 = ORIENTED_EDGE ( 'NONE', *, *, #196, .T. ) ;
#64 = CARTESIAN_POINT ( 'NONE',  ( 8.511272251241107900, -12.85229736528277700, 0.3850922395188116600 ) ) ;
#65 = PRODUCT_DEFINITION ( 'UNKNOWN', '', #217, #71 ) ;
#66 = APPROVAL_PERSON_ORGANIZATION ( #1, #231, #234 ) ;
#67 = EDGE_CURVE ( 'NONE', #252, #23, #235, .T. ) ;
#68 = EDGE_LOOP ( 'NONE', ( #269, #245, #284 ) ) ;
#69 = VERTEX_POINT ( 'NONE', #48 ) ;
#70 = CC_DESIGN_PERSON_AND_ORGANIZATION_ASSIGNMENT ( #115, #116, ( #190 ) ) ;
#71 = DESIGN_CONTEXT ( 'detailed design', #237, 'design' ) ;
#72 = CARTESIAN_POINT ( 'NONE',  ( 12.78047852290256100, -4.287002580345225400, 2.810235854955351000 ) ) ;
#73 = LOCAL_TIME ( 12, 5, 11.00000000000000000, #240 ) ;
#74 = CLOSED_SHELL ( 'NONE', ( #225, #199, #42, #20, #171, #86 ) ) ;
#75 = CARTESIAN_POINT ( 'NONE',  ( -4.256170286985356400, -12.85229736528277500, 0.2897361405975232300 ) ) ;
#76 = CARTESIAN_POINT ( 'NONE',  ( 4.996003610813200500E-016, 2.442490654175340100E-015, 0.2829067956785420400 ) ) ;
#77 = CARTESIAN_POINT ( 'NONE',  ( 4.256170286985356400, -12.85229736528277500, 2.710263859402480200 ) ) ;
#78 = APPROVAL ( #255, 'UNSPECIFIED' ) ;
#79 = CARTESIAN_POINT ( 'NONE',  ( 12.76316978361911800, 12.85229736528274800, 0.5757565675248916800 ) ) ;
#80 = CARTESIAN_POINT ( 'NONE',  ( 12.78047852290256100, 4.287002580345199700, 2.810235854955351900 ) ) ;
#81 = LOCAL_TIME ( 12, 5, 11.00000000000000000, #133 ) ;
#82 = CARTESIAN_POINT ( 'NONE',  ( 4.996003610813200500E-016, 2.442490654175340100E-015, 2.717093204321460400 ) ) ;
#83 = CARTESIAN_POINT ( 'NONE',  ( 8.522814790818992800, -4.287002580345226300, -0.001158751890631453500 ) ) ;
#84 = DIRECTION ( 'NONE',  ( 1.000000000000000000, 1.776356839400250500E-015, 0.0000000000000000000 ) ) ;
#85 = CC_DESIGN_SECURITY_CLASSIFICATION ( #190, ( #217 ) ) ;
#86 = ADVANCED_FACE ( 'NONE', ( #295 ), #266, .T. ) ;
#87 = CIRCLE ( 'NONE', #220, 12.69999999999999900 ) ;
#88 = CC_DESIGN_APPROVAL ( #78, ( #65 ) ) ;
#89 = VECTOR ( 'NONE', #218, 1000.000000000000000 ) ;
#90 = CARTESIAN_POINT ( 'NONE',  ( -8.511272251241225100, 12.85229736528275000, 0.3850922395188219300 ) ) ;
#91 = CIRCLE ( 'NONE', #264, 12.69999999999999900 ) ;
#92 = CARTESIAN_POINT ( 'NONE',  ( -4.261942281175835800, 4.287002580345202300, -0.09664416773579569100 ) ) ;
#93 = CARTESIAN_POINT ( 'NONE',  ( 8.522814790818992800, 4.287002580345201400, -0.001158751890632320900 ) ) ;
#94 = PERSON_AND_ORGANIZATION ( #25, #206 ) ;
#95 = VECTOR ( 'NONE', #265, 1000.000000000000000 ) ;
#96 = PERSON_AND_ORGANIZATION_ROLE ( 'creator' ) ;
#97 = CARTESIAN_POINT ( 'NONE',  ( 1.595945597898662500E-013, -12.85229736528277500, 2.710263859402481500 ) ) ;
#98 = AXIS2_PLACEMENT_3D ( 'NONE', #12, #32, #283 ) ;
#99 = MECHANICAL_CONTEXT ( 'NONE', #212, 'mechanical' ) ;
#100 = CARTESIAN_POINT ( 'NONE',  ( 4.996003610813200500E-016, 2.442490654175340100E-015, 2.717093204321460400 ) ) ;
#101 = APPROVAL_PERSON_ORGANIZATION ( #226, #17, #215 ) ;
#102 = ORIENTED_EDGE ( 'NONE', *, *, #108, .F. ) ;
#103 = CARTESIAN_POINT ( 'NONE',  ( 2.842170943040400100E-014, -2.842170943040400100E-014, -282.1999999999999900 ) ) ;
#104 = CARTESIAN_POINT ( 'NONE',  ( -4.261942281175654700, 4.287002580345201400, 3.096644167735804800 ) ) ;
#105 = CARTESIAN_POINT ( 'NONE',  ( 8.717882767654151700E-014, -4.287002580345225400, 3.096644167735802100 ) ) ;
#106 = CARTESIAN_POINT ( 'NONE',  ( -4.261942281175654700, -4.287002580345226300, 3.096644167735803900 ) ) ;
#107 = APPROVAL_PERSON_ORGANIZATION ( #24, #78, #31 ) ;
#108 = EDGE_CURVE ( 'NONE', #52, #5, #91, .T. ) ;
#109 = ORIENTED_EDGE ( 'NONE', *, *, #149, .T. ) ;
#110 = LINE ( 'NONE', #198, #95 ) ;
#111 = ORIENTED_EDGE ( 'NONE', *, *, #67, .T. ) ;
#112 = EDGE_CURVE ( 'NONE', #69, #21, #209, .T. ) ;
#113 = CARTESIAN_POINT ( 'NONE',  ( -4.256170286985356400, 12.85229736528275000, 0.2897361405975232300 ) ) ;
#114 = CARTESIAN_POINT ( 'NONE',  ( 4.261942281175835800, -4.287002580345227200, 3.096644167735797200 ) ) ;
#115 = PERSON_AND_ORGANIZATION ( #25, #206 ) ;
#116 = PERSON_AND_ORGANIZATION_ROLE ( 'classification_officer' ) ;
#117 = CC_DESIGN_DATE_AND_TIME_ASSIGNMENT ( #60, #50, ( #190 ) ) ;
#118 = CARTESIAN_POINT ( 'NONE',  ( 4.996003610813200500E-016, 2.442490654175340100E-015, 0.2829067956785420400 ) ) ;
#119 = APPROVAL_STATUS ( 'not_yet_approved' ) ;
#120 = CARTESIAN_POINT ( 'NONE',  ( 8.709925228044475800E-014, -12.85229736528277500, 2.710263859402484200 ) ) ;
#121 = DIRECTION ( 'NONE',  ( 0.0000000000000000000, 0.0000000000000000000, 1.000000000000000000 ) ) ;
#122 = DIRECTION ( 'NONE',  ( -0.0000000000000000000, -0.0000000000000000000, -1.000000000000000000 ) ) ;
#123 = CARTESIAN_POINT ( 'NONE',  ( 4.261942281175835800, 4.287002580345202300, 3.096644167735798100 ) ) ;
#124 = DIRECTION ( 'NONE',  ( -0.0000000000000000000, -0.0000000000000000000, -1.000000000000000000 ) ) ;
#125 = CARTESIAN_POINT ( 'NONE',  ( -12.69999999999999900, 3.997792089092478900E-015, 0.2829067956785420400 ) ) ;
#126 = APPROVAL_DATE_TIME ( #251, #17 ) ;
#127 = FACE_OUTER_BOUND ( 'NONE', #154, .T. ) ;
#128 = ORIENTED_EDGE ( 'NONE', *, *, #130, .F. ) ;
#129 = CARTESIAN_POINT ( 'NONE',  ( 8.709925228044475800E-014, 12.85229736528274800, 2.710263859402484200 ) ) ;
#130 = EDGE_CURVE ( 'NONE', #21, #43, #145, .T. ) ;
#131 = ORIENTED_EDGE ( 'NONE', *, *, #175, .T. ) ;
#132 = EDGE_CURVE ( 'NONE', #193, #21, #87, .T. ) ;
#133 = COORDINATED_UNIVERSAL_TIME_OFFSET ( 2, 0, .AHEAD. ) ;
#134 = UNCERTAINTY_MEASURE_WITH_UNIT (LENGTH_MEASURE( 1.000000000000000100E-005 ), #258, 'distance_accuracy_value', 'NONE');
#135 = CARTESIAN_POINT ( 'NONE',  ( -8.710065879059885800E-014, 12.69999999999987800, 0.2829067956785461500 ) ) ;
#136 = LINE ( 'NONE', #6, #89 ) ;
#137 = DIRECTION ( 'NONE',  ( 1.000000000000000000, 0.0000000000000000000, 0.0000000000000000000 ) ) ;
#138 = DIRECTION ( 'NONE',  ( -0.0000000000000000000, -0.0000000000000000000, -1.000000000000000000 ) ) ;
#139 = AXIS2_PLACEMENT_3D ( 'NONE', #192, #122, #9 ) ;
#140 = CARTESIAN_POINT ( 'NONE',  ( 8.522814790819110100, 4.287002580345201400, 3.001158751890625100 ) ) ;
#141 = DIRECTION ( 'NONE',  ( 0.0000000000000000000, 0.0000000000000000000, 1.000000000000000000 ) ) ;
#142 = PERSON_AND_ORGANIZATION_ROLE ( 'creator' ) ;
#143 = APPROVAL_DATE_TIME ( #271, #78 ) ;
#144 = DIRECTION ( 'NONE',  ( -0.0000000000000000000, -0.0000000000000000000, -1.000000000000000000 ) ) ;
#145 = CIRCLE ( 'NONE', #98, 12.69999999999999900 ) ;
#146 = CARTESIAN_POINT ( 'NONE',  ( 4.256170286985176100, -12.85229736528277700, 0.2897361405975177300 ) ) ;
#147 =( BOUNDED_SURFACE ( )  B_SPLINE_SURFACE ( 3, 3, ( 
 ( #29, #185, #75, #238 ),
 ( #4, #272, #232, #49 ),
 ( #51, #276, #92, #156 ),
 ( #233, #90, #113, #275 ) ),
 .UNSPECIFIED., .F., .F., .F. ) 
 B_SPLINE_SURFACE_WITH_KNOTS ( ( 4, 4 ),
 ( 4, 4 ),
 ( 0.0000000000000000000, 1.000000000000000000 ),
 ( 0.0000000000000000000, 1.000000000000000000 ),
 .UNSPECIFIED. ) 
 GEOMETRIC_REPRESENTATION_ITEM ( )  RATIONAL_B_SPLINE_SURFACE ( (
 ( 1.000000000000000000, 0.9998326629094090900, 0.9998326629094090900, 1.000000000000000000),
 ( 0.9993227299191268500, 0.9991555061609408400, 0.9991555061609408400, 0.9993227299191268500),
 ( 0.9993227299191268500, 0.9991555061609408400, 0.9991555061609408400, 0.9993227299191268500),
 ( 1.000000000000000000, 0.9998326629094090900, 0.9998326629094090900, 1.000000000000000000) ) ) 
 REPRESENTATION_ITEM ( '' )  SURFACE ( )  );
#148 = CARTESIAN_POINT ( 'NONE',  ( -12.76316978361911800, -12.85229736528277500, 2.424243432475111400 ) ) ;
#149 = EDGE_CURVE ( 'NONE', #5, #252, #26, .T. ) ;
#150 = CC_DESIGN_PERSON_AND_ORGANIZATION_ASSIGNMENT ( #268, #59, ( #178 ) ) ;
#151 = LOCAL_TIME ( 12, 5, 11.00000000000000000, #33 ) ;
#152 = PERSON_AND_ORGANIZATION ( #25, #206 ) ;
#153 = CIRCLE ( 'NONE', #188, 12.69999999999999900 ) ;
#154 = EDGE_LOOP ( 'NONE', ( #131, #182, #208 ) ) ;
#155 = AXIS2_PLACEMENT_3D ( 'NONE', #103, #62, #39 ) ;
#156 = CARTESIAN_POINT ( 'NONE',  ( -1.595945597898662300E-013, 4.287002580345200500, -0.09664416773579764800 ) ) ;
#157 = DIRECTION ( 'NONE',  ( 1.000000000000000000, 0.0000000000000000000, 0.0000000000000000000 ) ) ;
#158 = SHAPE_DEFINITION_REPRESENTATION ( #243, #176 ) ;
#159 = EDGE_CURVE ( 'NONE', #193, #252, #136, .T. ) ;
#160 = DATE_TIME_ROLE ( 'creation_date' ) ;
#161 = DIRECTION ( 'NONE',  ( 1.000000000000000000, 0.0000000000000000000, 0.0000000000000000000 ) ) ;
#162 = CARTESIAN_POINT ( 'NONE',  ( 4.261942281175654700, 4.287002580345201400, -0.09664416773580118700 ) ) ;
#163 = CARTESIAN_POINT ( 'NONE',  ( -2.842170943040400100E-014, -2.842170943040400100E-014, 285.1999999999999900 ) ) ;
#164 = ORIENTED_EDGE ( 'NONE', *, *, #175, .F. ) ;
#165 = CARTESIAN_POINT ( 'NONE',  ( 4.996003610813200500E-016, 2.442490654175340100E-015, 0.2829067956785420400 ) ) ;
#166 = AXIS2_PLACEMENT_3D ( 'NONE', #163, #187, #56 ) ;
#167 = CARTESIAN_POINT ( 'NONE',  ( 4.261942281175654700, -4.287002580345226300, -0.09664416773580032600 ) ) ;
#168 = CARTESIAN_POINT ( 'NONE',  ( -8.522814790818996400, 4.287002580345201400, 3.001158751890634900 ) ) ;
#169 = AXIS2_PLACEMENT_3D ( 'NONE', #165, #141, #36 ) ;
#170 = ORIENTED_EDGE ( 'NONE', *, *, #211, .T. ) ;
#171 = ADVANCED_FACE ( 'NONE', ( #181 ), #61, .T. ) ;
#172 = AXIS2_PLACEMENT_3D ( 'NONE', #241, #121, #137 ) ;
#173 = CALENDAR_DATE ( 2019, 7, 1 ) ;
#174 = FACE_OUTER_BOUND ( 'NONE', #68, .T. ) ;
#175 = EDGE_CURVE ( 'NONE', #43, #69, #221, .T. ) ;
#176 = ADVANCED_BREP_SHAPE_REPRESENTATION ( '111-1234E UVFS bi-cx 25.4 F300', ( #287, #172 ), #45 ) ;
#177 = ORIENTED_EDGE ( 'NONE', *, *, #159, .F. ) ;
#178 = PRODUCT ( '111-1234E UVFS bi-cx 25.4 F300', '111-1234E UVFS bi-cx 25.4 F300', '', ( #99 ) ) ;
#179 = CARTESIAN_POINT ( 'NONE',  ( 4.996003610813200500E-016, 2.442490654175340100E-015, 2.717093204321460400 ) ) ;
#180 = DIRECTION ( 'NONE',  ( 0.0000000000000000000, 0.0000000000000000000, 1.000000000000000000 ) ) ;
#181 = FACE_OUTER_BOUND ( 'NONE', #40, .T. ) ;
#182 = ORIENTED_EDGE ( 'NONE', *, *, #112, .T. ) ;
#183 = CARTESIAN_POINT ( 'NONE',  ( 12.78047852290250900, 4.287002580345199700, 0.1897641450446439500 ) ) ;
#184 = APPLICATION_PROTOCOL_DEFINITION ( 'international standard', 'config_control_design', 1994, #237 ) ;
#185 = CARTESIAN_POINT ( 'NONE',  ( -8.511272251241225100, -12.85229736528277500, 0.3850922395188219300 ) ) ;
#186 = DIRECTION ( 'NONE',  ( 1.000000000000000000, 0.0000000000000000000, 0.0000000000000000000 ) ) ;
#187 = DIRECTION ( 'NONE',  ( 1.000000000000000000, 1.678721366436490000E-031, -2.059509617350849900E-016 ) ) ;
#188 = AXIS2_PLACEMENT_3D ( 'NONE', #263, #38, #84 ) ;
#189 = PERSON_AND_ORGANIZATION_ROLE ( 'design_supplier' ) ;
#190 = SECURITY_CLASSIFICATION ( '', '', #280 ) ;
#191 = CIRCLE ( 'NONE', #205, 12.69999999999999900 ) ;
#192 = CARTESIAN_POINT ( 'NONE',  ( 4.996003610813200500E-016, 2.442490654175340100E-015, 0.2829067956785420400 ) ) ;
#193 = VERTEX_POINT ( 'NONE', #125 ) ;
#194 = CARTESIAN_POINT ( 'NONE',  ( -12.78047852290251100, -4.287002580345225400, 2.810235854955358500 ) ) ;
#195 = CARTESIAN_POINT ( 'NONE',  ( -12.69999999999999900, 3.997792089092478900E-015, 2.717093204321460400 ) ) ;
#196 = EDGE_CURVE ( 'NONE', #5, #23, #201, .T. ) ;
#197 = CC_DESIGN_APPROVAL ( #17, ( #190 ) ) ;
#198 = CARTESIAN_POINT ( 'NONE',  ( 12.69999999999999900, 2.442490654175340100E-015, 0.2829067956785420400 ) ) ;
#199 = ADVANCED_FACE ( 'NONE', ( #294 ), #44, .T. ) ;
#200 = APPROVAL_DATE_TIME ( #13, #231 ) ;
#201 = CIRCLE ( 'NONE', #155, 285.1999999999999900 ) ;
#202 = EDGE_CURVE ( 'NONE', #23, #52, #153, .T. ) ;
#203 = FACE_OUTER_BOUND ( 'NONE', #230, .T. ) ;
#204 = EDGE_LOOP ( 'NONE', ( #227, #63, #2 ) ) ;
#205 = AXIS2_PLACEMENT_3D ( 'NONE', #76, #124, #186 ) ;
#206 = ORGANIZATION ( 'UNSPECIFIED', 'UNSPECIFIED', '' ) ;
#207 = DIRECTION ( 'NONE',  ( 1.000000000000000000, -8.881784197001252300E-016, 0.0000000000000000000 ) ) ;
#208 = ORIENTED_EDGE ( 'NONE', *, *, #130, .T. ) ;
#209 = CIRCLE ( 'NONE', #166, 285.1999999999999900 ) ;
#210 = CARTESIAN_POINT ( 'NONE',  ( -8.717882767654151700E-014, 4.287002580345199700, -0.09664416773580029900 ) ) ;
#211 = EDGE_CURVE ( 'NONE', #43, #52, #110, .T. ) ;
#212 = APPLICATION_CONTEXT ( 'configuration controlled 3d designs of mechanical parts and assemblies' ) ;
#213 = CARTESIAN_POINT ( 'NONE',  ( 8.511272251241225100, -12.85229736528277500, 2.614907760481181200 ) ) ;
#214 = ORIENTED_EDGE ( 'NONE', *, *, #159, .T. ) ;
#215 = APPROVAL_ROLE ( '' ) ;
#216 = CARTESIAN_POINT ( 'NONE',  ( 1.595945597898662300E-013, -4.287002580345224500, 3.096644167735799400 ) ) ;
#217 = PRODUCT_DEFINITION_FORMATION_WITH_SPECIFIED_SOURCE ( 'ANY', '', #178, .NOT_KNOWN. ) ;
#218 = DIRECTION ( 'NONE',  ( 0.0000000000000000000, 0.0000000000000000000, 1.000000000000000000 ) ) ;
#219 = CYLINDRICAL_SURFACE ( 'NONE', #15, 12.69999999999999900 ) ;
#220 = AXIS2_PLACEMENT_3D ( 'NONE', #281, #138, #262 ) ;
#221 = CIRCLE ( 'NONE', #139, 12.69999999999999900 ) ;
#222 = CARTESIAN_POINT ( 'NONE',  ( -8.511272251241109600, -12.85229736528277700, 2.614907760481191000 ) ) ;
#223 = ORIENTED_EDGE ( 'NONE', *, *, #202, .F. ) ;
#224 = CARTESIAN_POINT ( 'NONE',  ( 8.717882767654151700E-014, 4.287002580345199700, 3.096644167735803000 ) ) ;
#225 = ADVANCED_FACE ( 'NONE', ( #127 ), #236, .T. ) ;
#226 = PERSON_AND_ORGANIZATION ( #25, #206 ) ;
#227 = ORIENTED_EDGE ( 'NONE', *, *, #149, .F. ) ;
#228 = PERSON_AND_ORGANIZATION ( #25, #206 ) ;
#229 = EDGE_CURVE ( 'NONE', #69, #193, #191, .T. ) ;
#230 = EDGE_LOOP ( 'NONE', ( #254, #214, #111, #260, #291, #128 ) ) ;
#231 = APPROVAL ( #119, 'UNSPECIFIED' ) ;
#232 = CARTESIAN_POINT ( 'NONE',  ( -4.261942281175835800, -4.287002580345227200, -0.09664416773579470600 ) ) ;
#233 = CARTESIAN_POINT ( 'NONE',  ( -12.76316978361916600, 12.85229736528274800, 0.5757565675248987900 ) ) ;
#234 = APPROVAL_ROLE ( '' ) ;
#235 = CIRCLE ( 'NONE', #247, 12.69999999999999900 ) ;
#236 =( BOUNDED_SURFACE ( )  B_SPLINE_SURFACE ( 3, 3, ( 
 ( #19, #146, #64, #248 ),
 ( #18, #167, #83, #244 ),
 ( #210, #162, #93, #183 ),
 ( #10, #239, #257, #79 ) ),
 .UNSPECIFIED., .F., .F., .F. ) 
 B_SPLINE_SURFACE_WITH_KNOTS ( ( 4, 4 ),
 ( 4, 4 ),
 ( 0.0000000000000000000, 1.000000000000000000 ),
 ( 0.0000000000000000000, 1.000000000000000000 ),
 .UNSPECIFIED. ) 
 GEOMETRIC_REPRESENTATION_ITEM ( )  RATIONAL_B_SPLINE_SURFACE ( (
 ( 1.000000000000000000, 0.9998326629094088600, 0.9998326629094088600, 1.000000000000000000),
 ( 0.9993227299191268500, 0.9991555061609406200, 0.9991555061609406200, 0.9993227299191268500),
 ( 0.9993227299191268500, 0.9991555061609406200, 0.9991555061609406200, 0.9993227299191268500),
 ( 1.000000000000000000, 0.9998326629094088600, 0.9998326629094088600, 1.000000000000000000) ) ) 
 REPRESENTATION_ITEM ( '' )  SURFACE ( )  );
#237 = APPLICATION_CONTEXT ( 'configuration controlled 3d designs of mechanical parts and assemblies' ) ;
#238 = CARTESIAN_POINT ( 'NONE',  ( -1.595945597898662500E-013, -12.85229736528277500, 0.2897361405975212900 ) ) ;
#239 = CARTESIAN_POINT ( 'NONE',  ( 4.256170286985176100, 12.85229736528275200, 0.2897361405975177300 ) ) ;
#240 = COORDINATED_UNIVERSAL_TIME_OFFSET ( 2, 0, .AHEAD. ) ;
#241 = CARTESIAN_POINT ( 'NONE',  ( 0.0000000000000000000, 0.0000000000000000000, 0.0000000000000000000 ) ) ;
#242 = CARTESIAN_POINT ( 'NONE',  ( 1.595945597898662500E-013, 12.85229736528274800, 2.710263859402481500 ) ) ;
#243 = PRODUCT_DEFINITION_SHAPE ( 'NONE', 'NONE',  #65 ) ;
#244 = CARTESIAN_POINT ( 'NONE',  ( 12.78047852290250900, -4.287002580345225400, 0.1897641450446448100 ) ) ;
#245 = ORIENTED_EDGE ( 'NONE', *, *, #229, .T. ) ;
#246 = CARTESIAN_POINT ( 'NONE',  ( -8.511272251241109600, 12.85229736528275200, 2.614907760481191000 ) ) ;
#247 = AXIS2_PLACEMENT_3D ( 'NONE', #179, #256, #207 ) ;
#248 = CARTESIAN_POINT ( 'NONE',  ( 12.76316978361911600, -12.85229736528277500, 0.5757565675248916800 ) ) ;
#249 = CALENDAR_DATE ( 2019, 7, 1 ) ;
#250 = ORIENTED_EDGE ( 'NONE', *, *, #229, .F. ) ;
#251 = DATE_AND_TIME ( #22, #41 ) ;
#252 = VERTEX_POINT ( 'NONE', #195 ) ;
#253 = CARTESIAN_POINT ( 'NONE',  ( 8.522814790819110100, -4.287002580345228100, 3.001158751890624200 ) ) ;
#254 = ORIENTED_EDGE ( 'NONE', *, *, #132, .F. ) ;
#255 = APPROVAL_STATUS ( 'not_yet_approved' ) ;
#256 = DIRECTION ( 'NONE',  ( -0.0000000000000000000, -0.0000000000000000000, -1.000000000000000000 ) ) ;
#257 = CARTESIAN_POINT ( 'NONE',  ( 8.511272251241109600, 12.85229736528275200, 0.3850922395188116600 ) ) ;
#258 =( LENGTH_UNIT ( ) NAMED_UNIT ( * ) SI_UNIT ( .MILLI., .METRE. ) );
#259 = DIRECTION ( 'NONE',  ( 1.000000000000000000, 0.0000000000000000000, 0.0000000000000000000 ) ) ;
#260 = ORIENTED_EDGE ( 'NONE', *, *, #202, .T. ) ;
#261 = CC_DESIGN_APPROVAL ( #231, ( #217 ) ) ;
#262 = DIRECTION ( 'NONE',  ( 1.000000000000000000, 0.0000000000000000000, 0.0000000000000000000 ) ) ;
#263 = CARTESIAN_POINT ( 'NONE',  ( 4.996003610813200500E-016, 2.442490654175340100E-015, 2.717093204321460400 ) ) ;
#264 = AXIS2_PLACEMENT_3D ( 'NONE', #100, #34, #161 ) ;
#265 = DIRECTION ( 'NONE',  ( 0.0000000000000000000, 0.0000000000000000000, 1.000000000000000000 ) ) ;
#266 =( BOUNDED_SURFACE ( )  B_SPLINE_SURFACE ( 3, 3, ( 
 ( #279, #213, #77, #97 ),
 ( #72, #253, #114, #216 ),
 ( #80, #140, #123, #282 ),
 ( #11, #30, #7, #242 ) ),
 .UNSPECIFIED., .F., .F., .F. ) 
 B_SPLINE_SURFACE_WITH_KNOTS ( ( 4, 4 ),
 ( 4, 4 ),
 ( 0.0000000000000000000, 1.000000000000000000 ),
 ( 0.0000000000000000000, 1.000000000000000000 ),
 .UNSPECIFIED. ) 
 GEOMETRIC_REPRESENTATION_ITEM ( )  RATIONAL_B_SPLINE_SURFACE ( (
 ( 1.000000000000000000, 0.9998326629094090900, 0.9998326629094090900, 1.000000000000000000),
 ( 0.9993227299191268500, 0.9991555061609408400, 0.9991555061609408400, 0.9993227299191268500),
 ( 0.9993227299191268500, 0.9991555061609408400, 0.9991555061609408400, 0.9993227299191268500),
 ( 1.000000000000000000, 0.9998326629094090900, 0.9998326629094090900, 1.000000000000000000) ) ) 
 REPRESENTATION_ITEM ( '' )  SURFACE ( )  );
#267 = CARTESIAN_POINT ( 'NONE',  ( -4.256170286985176100, -12.85229736528277700, 2.710263859402484600 ) ) ;
#268 = PERSON_AND_ORGANIZATION ( #25, #206 ) ;
#269 = ORIENTED_EDGE ( 'NONE', *, *, #112, .F. ) ;
#270 = CC_DESIGN_PERSON_AND_ORGANIZATION_ASSIGNMENT ( #152, #96, ( #65 ) ) ;
#271 = DATE_AND_TIME ( #249, #151 ) ;
#272 = CARTESIAN_POINT ( 'NONE',  ( -8.522814790819110100, -4.287002580345228100, -0.001158751890621180700 ) ) ;
#273 = CC_DESIGN_PERSON_AND_ORGANIZATION_ASSIGNMENT ( #228, #142, ( #217 ) ) ;
#274 = ORIENTED_EDGE ( 'NONE', *, *, #108, .T. ) ;
#275 = CARTESIAN_POINT ( 'NONE',  ( -1.595945597898662500E-013, 12.85229736528274800, 0.2897361405975212900 ) ) ;
#276 = CARTESIAN_POINT ( 'NONE',  ( -8.522814790819110100, 4.287002580345201400, -0.001158751890622102300 ) ) ;
#277 = CARTESIAN_POINT ( 'NONE',  ( 12.69999999999999900, 2.442490654175340100E-015, 0.2829067956785420400 ) ) ;
#278 = CALENDAR_DATE ( 2019, 7, 1 ) ;
#279 = CARTESIAN_POINT ( 'NONE',  ( 12.76316978361916600, -12.85229736528277500, 2.424243432475103900 ) ) ;
#280 = SECURITY_CLASSIFICATION_LEVEL ( 'unclassified' ) ;
#281 = CARTESIAN_POINT ( 'NONE',  ( 4.996003610813200500E-016, 2.442490654175340100E-015, 0.2829067956785420400 ) ) ;
#282 = CARTESIAN_POINT ( 'NONE',  ( 1.595945597898662300E-013, 4.287002580345200500, 3.096644167735800300 ) ) ;
#283 = DIRECTION ( 'NONE',  ( 1.000000000000000000, -8.881784197001252300E-016, 0.0000000000000000000 ) ) ;
#284 = ORIENTED_EDGE ( 'NONE', *, *, #132, .T. ) ;
#285 = CARTESIAN_POINT ( 'NONE',  ( -4.256170286985176100, 12.85229736528275200, 2.710263859402484600 ) ) ;
#286 = DATE_AND_TIME ( #173, #46 ) ;
#287 = MANIFOLD_SOLID_BREP ( 'Imported1', #74 ) ;
#288 = CARTESIAN_POINT ( 'NONE',  ( -12.78047852290251100, 4.287002580345199700, 2.810235854955359400 ) ) ;
#289 = CALENDAR_DATE ( 2019, 7, 1 ) ;
#290 = CC_DESIGN_DATE_AND_TIME_ASSIGNMENT ( #286, #160, ( #65 ) ) ;
#291 = ORIENTED_EDGE ( 'NONE', *, *, #211, .F. ) ;
#292 = CC_DESIGN_PERSON_AND_ORGANIZATION_ASSIGNMENT ( #94, #189, ( #217 ) ) ;
#293 = COORDINATED_UNIVERSAL_TIME_OFFSET ( 2, 0, .AHEAD. ) ;
#294 = FACE_OUTER_BOUND ( 'NONE', #204, .T. ) ;
#295 = FACE_OUTER_BOUND ( 'NONE', #16, .T. ) ;
ENDSEC;
END-ISO-10303-21;
