ISO-10303-21;
HEADER;
FILE_DESCRIPTION (( 'STEP AP203' ),
    '1' );
FILE_NAME ('111-1230E UVFS bi-cx 25.4 F250.STEP',
    '2019-01-07T08:33:18',
    ( '' ),
    ( '' ),
    'SwSTEP 2.0',
    'SolidWorks 2017',
    '' );
FILE_SCHEMA (( 'CONFIG_CONTROL_DESIGN' ));
ENDSEC;

DATA;
#1 = PERSON_AND_ORGANIZATION_ROLE ( 'creator' ) ;
#2 = CARTESIAN_POINT ( 'NONE',  ( 12.78236771482705300, 4.288269495814816400, 2.772152624121348100 ) ) ;
#3 = EDGE_LOOP ( 'NONE', ( #149, #234, #258, #174, #160, #110 ) ) ;
#4 = APPROVAL_PERSON_ORGANIZATION ( #235, #232, #142 ) ;
#5 = CARTESIAN_POINT ( 'NONE',  ( -4.255039029575446100, -12.85225207140934200, 0.3478564550091419700 ) ) ;
#6 = CC_DESIGN_APPROVAL ( #252, ( #40 ) ) ;
#7 = FACE_OUTER_BOUND ( 'NONE', #288, .T. ) ;
#8 = PERSON_AND_ORGANIZATION_ROLE ( 'creator' ) ;
#9 = EDGE_CURVE ( 'NONE', #270, #141, #187, .T. ) ;
#10 = DESIGN_CONTEXT ( 'detailed design', #93, 'design' ) ;
#11 = CC_DESIGN_PERSON_AND_ORGANIZATION_ASSIGNMENT ( #119, #223, ( #227 ) ) ;
#12 = ORIENTED_EDGE ( 'NONE', *, *, #114, .T. ) ;
#13 = DATE_AND_TIME ( #188, #36 ) ;
#14 = LINE ( 'NONE', #29, #224 ) ;
#15 = ADVANCED_FACE ( 'NONE', ( #155 ), #16, .T. ) ;
#16 =( BOUNDED_SURFACE ( )  B_SPLINE_SURFACE ( 3, 3, ( 
 ( #129, #146, #184, #186 ),
 ( #61, #112, #292, #286 ),
 ( #164, #291, #233, #39 ),
 ( #21, #206, #85, #108 ) ),
 .UNSPECIFIED., .F., .F., .F. ) 
 B_SPLINE_SURFACE_WITH_KNOTS ( ( 4, 4 ),
 ( 4, 4 ),
 ( 0.0000000000000000000, 1.000000000000000000 ),
 ( 0.0000000000000000000, 1.000000000000000000 ),
 .UNSPECIFIED. ) 
 GEOMETRIC_REPRESENTATION_ITEM ( )  RATIONAL_B_SPLINE_SURFACE ( (
 ( 1.000000000000000000, 0.9997588334171417800, 0.9997588334171417800, 1.000000000000000000),
 ( 0.9990239717872919600, 0.9987830405898225900, 0.9987830405898225900, 0.9990239717872919600),
 ( 0.9990239717872919600, 0.9987830405898225900, 0.9987830405898225900, 0.9990239717872919600),
 ( 1.000000000000000000, 0.9997588334171417800, 0.9997588334171417800, 1.000000000000000000) ) ) 
 REPRESENTATION_ITEM ( '' )  SURFACE ( )  );
#17 = CARTESIAN_POINT ( 'NONE',  ( 4.996003610813200500E-016, 2.442490654175340100E-015, 2.660342240333120100 ) ) ;
#18 = EDGE_CURVE ( 'NONE', #244, #26, #283, .T. ) ;
#19 = ORIENTED_EDGE ( 'NONE', *, *, #278, .T. ) ;
#20 = CALENDAR_DATE ( 2019, 7, 1 ) ;
#21 = CARTESIAN_POINT ( 'NONE',  ( 8.707292994983050800E-014, 12.85225207140947000, 0.3478564550091212100 ) ) ;
#22 = CIRCLE ( 'NONE', #166, 237.5999999999999900 ) ;
#23 = AXIS2_PLACEMENT_3D ( 'NONE', #219, #97, #217 ) ;
#24 = CARTESIAN_POINT ( 'NONE',  ( -12.69999999999999900, 3.997792089092478900E-015, 0.3396577596668790000 ) ) ;
#25 = DIRECTION ( 'NONE',  ( 1.000000000000000000, -6.046788751246680100E-032, 2.472104978402620200E-016 ) ) ;
#26 = VERTEX_POINT ( 'NONE', #207 ) ;
#27 = CARTESIAN_POINT ( 'NONE',  ( 2.842170943040400100E-014, 1.278976924368180100E-013, 237.5999999999999900 ) ) ;
#28 = CARTESIAN_POINT ( 'NONE',  ( 0.0000000000000000000, 0.0000000000000000000, 0.0000000000000000000 ) ) ;
#29 = CARTESIAN_POINT ( 'NONE',  ( -12.69999999999999900, 3.997792089092478900E-015, 0.3396577596668790000 ) ) ;
#30 = AXIS2_PLACEMENT_3D ( 'NONE', #75, #251, #199 ) ;
#31 = ORIENTED_EDGE ( 'NONE', *, *, #285, .T. ) ;
#32 = MECHANICAL_CONTEXT ( 'NONE', #279, 'mechanical' ) ;
#33 = DIRECTION ( 'NONE',  ( 0.0000000000000000000, 0.0000000000000000000, 1.000000000000000000 ) ) ;
#34 = VERTEX_POINT ( 'NONE', #43 ) ;
#35 = AXIS2_PLACEMENT_3D ( 'NONE', #255, #96, #52 ) ;
#36 = LOCAL_TIME ( 10, 33, 18.00000000000000000, #163 ) ;
#37 = EDGE_CURVE ( 'NONE', #104, #192, #22, .T. ) ;
#38 = ORIENTED_EDGE ( 'NONE', *, *, #37, .T. ) ;
#39 = CARTESIAN_POINT ( 'NONE',  ( 12.78236771482695000, 4.288269495814807500, 0.2278473758786623000 ) ) ;
#40 = PRODUCT_DEFINITION ( 'UNKNOWN', '', #103, #10 ) ;
#41 = ORIENTED_EDGE ( 'NONE', *, *, #120, .F. ) ;
#42 = CARTESIAN_POINT ( 'NONE',  ( 4.996003610813200500E-016, 2.442490654175340100E-015, 2.660342240333120100 ) ) ;
#43 = CARTESIAN_POINT ( 'NONE',  ( 12.69999999999999900, 2.442490654175340100E-015, 0.3396577596668790000 ) ) ;
#44 = CARTESIAN_POINT ( 'NONE',  ( -2.949029909160571400E-014, 4.288269495814817300, 3.116065434808620100 ) ) ;
#45 = CARTESIAN_POINT ( 'NONE',  ( 4.255039029575447000, 12.85225207140947700, 2.652143544990888600 ) ) ;
#46 = CARTESIAN_POINT ( 'NONE',  ( -8.525176361955434600, -4.288269495814672500, 3.001400177817956200 ) ) ;
#47 = CARTESIAN_POINT ( 'NONE',  ( -12.69999999999999900, 3.997792089092478900E-015, 2.660342240333120100 ) ) ;
#48 = APPLICATION_PROTOCOL_DEFINITION ( 'international standard', 'config_control_design', 1994, #93 ) ;
#49 = CLOSED_SHELL ( 'NONE', ( #15, #106, #125, #230, #259, #84 ) ) ;
#50 = COORDINATED_UNIVERSAL_TIME_OFFSET ( 2, 0, .AHEAD. ) ;
#51 = DIRECTION ( 'NONE',  ( 1.000000000000000000, 0.0000000000000000000, 0.0000000000000000000 ) ) ;
#52 = DIRECTION ( 'NONE',  ( 1.000000000000000000, 0.0000000000000000000, 0.0000000000000000000 ) ) ;
#53 =( BOUNDED_SURFACE ( )  B_SPLINE_SURFACE ( 3, 3, ( 
 ( #193, #138, #5, #122 ),
 ( #153, #100, #249, #91 ),
 ( #243, #154, #221, #195 ),
 ( #196, #277, #158, #72 ) ),
 .UNSPECIFIED., .F., .F., .T. ) 
 B_SPLINE_SURFACE_WITH_KNOTS ( ( 4, 4 ),
 ( 4, 4 ),
 ( 0.0000000000000000000, 1.000000000000000000 ),
 ( 0.0000000000000000000, 1.000000000000000000 ),
 .UNSPECIFIED. ) 
 GEOMETRIC_REPRESENTATION_ITEM ( )  RATIONAL_B_SPLINE_SURFACE ( (
 ( 1.000000000000000000, 0.9997588334171417800, 0.9997588334171417800, 1.000000000000000000),
 ( 0.9990239717872919600, 0.9987830405898225900, 0.9987830405898225900, 0.9990239717872919600),
 ( 0.9990239717872919600, 0.9987830405898225900, 0.9987830405898225900, 0.9990239717872919600),
 ( 1.000000000000000000, 0.9997588334171417800, 0.9997588334171417800, 1.000000000000000000) ) ) 
 REPRESENTATION_ITEM ( '' )  SURFACE ( )  );
#54 = DATE_TIME_ROLE ( 'creation_date' ) ;
#55 = CIRCLE ( 'NONE', #203, 12.69999999999999900 ) ;
#56 = PERSON_AND_ORGANIZATION ( #198, #183 ) ;
#57 = AXIS2_PLACEMENT_3D ( 'NONE', #250, #274, #94 ) ;
#58 = LOCAL_TIME ( 10, 33, 18.00000000000000000, #165 ) ;
#59 = CIRCLE ( 'NONE', #261, 237.5999999999999900 ) ;
#60 = APPROVAL_DATE_TIME ( #181, #252 ) ;
#61 = CARTESIAN_POINT ( 'NONE',  ( 8.718761631117132600E-014, -4.288269495814681400, -0.1160654348085877600 ) ) ;
#62 = DIRECTION ( 'NONE',  ( 1.000000000000000000, 0.0000000000000000000, 0.0000000000000000000 ) ) ;
#63 = COORDINATED_UNIVERSAL_TIME_OFFSET ( 2, 0, .AHEAD. ) ;
#64 = CARTESIAN_POINT ( 'NONE',  ( 8.707495675338770400E-014, -12.69999999999996200, 0.3396577596668786100 ) ) ;
#65 = CARTESIAN_POINT ( 'NONE',  ( -8.525176361955436400, 4.288269495814817300, 3.001400177817980200 ) ) ;
#66 = CIRCLE ( 'NONE', #57, 12.69999999999999900 ) ;
#67 = CARTESIAN_POINT ( 'NONE',  ( -8.707495675338770400E-014, -12.69999999999996200, 2.660342240333122300 ) ) ;
#68 = DIRECTION ( 'NONE',  ( 0.0000000000000000000, 0.0000000000000000000, 1.000000000000000000 ) ) ;
#69 = CARTESIAN_POINT ( 'NONE',  ( 12.75742190321032000, 12.85225207140947900, 2.308901907624505400 ) ) ;
#70 = CARTESIAN_POINT ( 'NONE',  ( -8.718761631117132600E-014, 4.288269495814816400, 3.116065434808613000 ) ) ;
#71 = ORIENTED_EDGE ( 'NONE', *, *, #231, .F. ) ;
#72 = CARTESIAN_POINT ( 'NONE',  ( 3.122502256758252800E-014, 12.85225207140947000, 0.3478564550091141600 ) ) ;
#73 = PERSON_AND_ORGANIZATION ( #198, #183 ) ;
#74 = PERSON_AND_ORGANIZATION_ROLE ( 'design_owner' ) ;
#75 = CARTESIAN_POINT ( 'NONE',  ( 4.996003610813200500E-016, 2.442490654175340100E-015, 2.660342240333120100 ) ) ;
#76 = COORDINATED_UNIVERSAL_TIME_OFFSET ( 2, 0, .AHEAD. ) ;
#77 = VERTEX_POINT ( 'NONE', #24 ) ;
#78 = AXIS2_PLACEMENT_3D ( 'NONE', #189, #68, #115 ) ;
#79 = LOCAL_TIME ( 10, 33, 18.00000000000000000, #50 ) ;
#80 = UNCERTAINTY_MEASURE_WITH_UNIT (LENGTH_MEASURE( 1.000000000000000100E-005 ), #273, 'distance_accuracy_value', 'NONE');
#81 = DATE_TIME_ROLE ( 'classification_date' ) ;
#82 = ORIENTED_EDGE ( 'NONE', *, *, #211, .T. ) ;
#83 = CALENDAR_DATE ( 2019, 7, 1 ) ;
#84 = ADVANCED_FACE ( 'NONE', ( #257 ), #262, .T. ) ;
#85 = CARTESIAN_POINT ( 'NONE',  ( 8.508538799316857700, 12.85225207140946900, 0.4622979335915843900 ) ) ;
#86 = EDGE_LOOP ( 'NONE', ( #71, #208, #41, #31, #144, #82 ) ) ;
#87 = DIRECTION ( 'NONE',  ( -0.0000000000000000000, -0.0000000000000000000, -1.000000000000000000 ) ) ;
#88 = ORIENTED_EDGE ( 'NONE', *, *, #278, .F. ) ;
#89 = CARTESIAN_POINT ( 'NONE',  ( -4.255039029575490500, -12.85225207140933400, 2.652143544990853000 ) ) ;
#90 = CARTESIAN_POINT ( 'NONE',  ( -12.78236771482694900, -4.288269495814672500, 2.772152624121316100 ) ) ;
#91 = CARTESIAN_POINT ( 'NONE',  ( 2.949029909160571400E-014, -4.288269495814681400, -0.1160654348085947700 ) ) ;
#92 = AXIS2_PLACEMENT_3D ( 'NONE', #17, #236, #263 ) ;
#93 = APPLICATION_CONTEXT ( 'configuration controlled 3d designs of mechanical parts and assemblies' ) ;
#94 = DIRECTION ( 'NONE',  ( 1.000000000000000000, -8.881784197001252300E-016, 0.0000000000000000000 ) ) ;
#95 = PRODUCT_DEFINITION_SHAPE ( 'NONE', 'NONE',  #40 ) ;
#96 = DIRECTION ( 'NONE',  ( 0.0000000000000000000, 0.0000000000000000000, 1.000000000000000000 ) ) ;
#97 = DIRECTION ( 'NONE',  ( -0.0000000000000000000, -0.0000000000000000000, -1.000000000000000000 ) ) ;
#98 = ORIENTED_EDGE ( 'NONE', *, *, #37, .F. ) ;
#99 = DATE_AND_TIME ( #284, #58 ) ;
#100 = CARTESIAN_POINT ( 'NONE',  ( -8.525176361955468400, -4.288269495814681400, -0.001400177817968960600 ) ) ;
#101 = ORIENTED_EDGE ( 'NONE', *, *, #9, .F. ) ;
#102 = APPROVAL_ROLE ( '' ) ;
#103 = PRODUCT_DEFINITION_FORMATION_WITH_SPECIFIED_SOURCE ( 'ANY', '', #254, .NOT_KNOWN. ) ;
#104 = VERTEX_POINT ( 'NONE', #64 ) ;
#105 = DATE_AND_TIME ( #20, #79 ) ;
#106 = ADVANCED_FACE ( 'NONE', ( #204 ), #267, .T. ) ;
#107 = CC_DESIGN_APPROVAL ( #232, ( #227 ) ) ;
#108 = CARTESIAN_POINT ( 'NONE',  ( 12.75742190321021700, 12.85225207140947000, 0.6910980923755052400 ) ) ;
#109 = AXIS2_PLACEMENT_3D ( 'NONE', #177, #136, #51 ) ;
#110 = ORIENTED_EDGE ( 'NONE', *, *, #191, .F. ) ;
#111 = CYLINDRICAL_SURFACE ( 'NONE', #35, 12.69999999999999900 ) ;
#112 = CARTESIAN_POINT ( 'NONE',  ( 4.263359315826032300, -4.288269495814681400, -0.1160654348085867300 ) ) ;
#113 = DIRECTION ( 'NONE',  ( -0.0000000000000000000, -0.0000000000000000000, -1.000000000000000000 ) ) ;
#114 = EDGE_CURVE ( 'NONE', #77, #192, #293, .T. ) ;
#115 = DIRECTION ( 'NONE',  ( 1.000000000000000000, 0.0000000000000000000, 0.0000000000000000000 ) ) ;
#116 = DIRECTION ( 'NONE',  ( -0.0000000000000000000, -0.0000000000000000000, -1.000000000000000000 ) ) ;
#117 = CARTESIAN_POINT ( 'NONE',  ( 12.69999999999999900, 2.442490654175340100E-015, 2.660342240333120100 ) ) ;
#118 = EDGE_LOOP ( 'NONE', ( #88, #101, #275 ) ) ;
#119 = PERSON_AND_ORGANIZATION ( #198, #183 ) ;
#120 = EDGE_CURVE ( 'NONE', #34, #104, #55, .T. ) ;
#121 = CARTESIAN_POINT ( 'NONE',  ( 8.707495675338770400E-014, 12.70000000000009300, 0.3396577596668786100 ) ) ;
#122 = CARTESIAN_POINT ( 'NONE',  ( 3.122502256758252800E-014, -12.85225207140934400, 0.3478564550091420300 ) ) ;
#123 =( NAMED_UNIT ( * ) PLANE_ANGLE_UNIT ( ) SI_UNIT ( $, .RADIAN. ) );
#124 = CALENDAR_DATE ( 2019, 7, 1 ) ;
#125 = ADVANCED_FACE ( 'NONE', ( #130 ), #179, .T. ) ;
#126 = CIRCLE ( 'NONE', #30, 12.69999999999999900 ) ;
#127 = CC_DESIGN_PERSON_AND_ORGANIZATION_ASSIGNMENT ( #225, #281, ( #103 ) ) ;
#128 = ORIENTED_EDGE ( 'NONE', *, *, #211, .F. ) ;
#129 = CARTESIAN_POINT ( 'NONE',  ( 8.707292994983050800E-014, -12.85225207140934400, 0.3478564550091489700 ) ) ;
#130 = FACE_OUTER_BOUND ( 'NONE', #3, .T. ) ;
#131 = APPROVAL_PERSON_ORGANIZATION ( #73, #252, #180 ) ;
#132 = CARTESIAN_POINT ( 'NONE',  ( -8.508538799316857700, -12.85225207140933400, 2.537702066408390200 ) ) ;
#133 = CARTESIAN_POINT ( 'NONE',  ( 8.525176361955468400, 4.288269495814817300, 3.001400177817995300 ) ) ;
#134 = CARTESIAN_POINT ( 'NONE',  ( -8.718761631117132600E-014, -4.288269495814672500, 3.116065434808589400 ) ) ;
#135 = EDGE_CURVE ( 'NONE', #26, #270, #66, .T. ) ;
#136 = DIRECTION ( 'NONE',  ( -0.0000000000000000000, -0.0000000000000000000, -1.000000000000000000 ) ) ;
#137 = APPROVAL_STATUS ( 'not_yet_approved' ) ;
#138 = CARTESIAN_POINT ( 'NONE',  ( -8.508538799316889700, -12.85225207140934200, 0.4622979335915974300 ) ) ;
#139 = CARTESIAN_POINT ( 'NONE',  ( -2.842170943040400100E-014, 1.278976924368180100E-013, -234.5999999999999900 ) ) ;
#140 = APPROVAL_STATUS ( 'not_yet_approved' ) ;
#141 = VERTEX_POINT ( 'NONE', #67 ) ;
#142 = APPROVAL_ROLE ( '' ) ;
#143 = AXIS2_PLACEMENT_3D ( 'NONE', #42, #87, #62 ) ;
#144 = ORIENTED_EDGE ( 'NONE', *, *, #9, .T. ) ;
#145 = CC_DESIGN_APPROVAL ( #248, ( #103 ) ) ;
#146 = CARTESIAN_POINT ( 'NONE',  ( 4.255039029575490500, -12.85225207140934200, 0.3478564550091499700 ) ) ;
#147 = DIRECTION ( 'NONE',  ( 0.0000000000000000000, -1.000000000000000000, -2.336327913773477400E-016 ) ) ;
#148 = CARTESIAN_POINT ( 'NONE',  ( -12.78236771482695000, 4.288269495814816400, 2.772152624121339700 ) ) ;
#149 = ORIENTED_EDGE ( 'NONE', *, *, #114, .F. ) ;
#150 = AXIS2_PLACEMENT_3D ( 'NONE', #242, #116, #152 ) ;
#151 = CARTESIAN_POINT ( 'NONE',  ( 8.508538799316889700, -12.85225207140933400, 2.537702066408405800 ) ) ;
#152 = DIRECTION ( 'NONE',  ( 1.000000000000000000, -8.881784197001252300E-016, 0.0000000000000000000 ) ) ;
#153 = CARTESIAN_POINT ( 'NONE',  ( -12.78236771482705300, -4.288269495814681400, 0.2278473758786773200 ) ) ;
#154 = CARTESIAN_POINT ( 'NONE',  ( -8.525176361955468400, 4.288269495814808400, -0.001400177817992000200 ) ) ;
#155 = FACE_OUTER_BOUND ( 'NONE', #282, .T. ) ;
#156 = DIRECTION ( 'NONE',  ( -1.000000000000000000, -2.418715500498669900E-031, -2.472104978402620200E-016 ) ) ;
#157 = SHAPE_DEFINITION_REPRESENTATION ( #95, #241 ) ;
#158 = CARTESIAN_POINT ( 'NONE',  ( -4.255039029575447000, 12.85225207140946900, 0.3478564550091142200 ) ) ;
#159 = DIRECTION ( 'NONE',  ( 0.0000000000000000000, -1.000000000000000000, 9.345311655093909600E-016 ) ) ;
#160 = ORIENTED_EDGE ( 'NONE', *, *, #285, .F. ) ;
#161 = CC_DESIGN_PERSON_AND_ORGANIZATION_ASSIGNMENT ( #56, #8, ( #103 ) ) ;
#162 = CIRCLE ( 'NONE', #109, 12.69999999999999900 ) ;
#163 = COORDINATED_UNIVERSAL_TIME_OFFSET ( 2, 0, .AHEAD. ) ;
#164 = CARTESIAN_POINT ( 'NONE',  ( 8.718761631117132600E-014, 4.288269495814807500, -0.1160654348086108100 ) ) ;
#165 = COORDINATED_UNIVERSAL_TIME_OFFSET ( 2, 0, .AHEAD. ) ;
#166 = AXIS2_PLACEMENT_3D ( 'NONE', #27, #25, #147 ) ;
#167 = FACE_OUTER_BOUND ( 'NONE', #86, .T. ) ;
#168 = CARTESIAN_POINT ( 'NONE',  ( 4.255039029575446100, -12.85225207140933400, 2.652143544990861000 ) ) ;
#169 = LOCAL_TIME ( 10, 33, 18.00000000000000000, #76 ) ;
#170 = CARTESIAN_POINT ( 'NONE',  ( -8.508538799316857700, 12.85225207140947700, 2.537702066408418200 ) ) ;
#171 = CARTESIAN_POINT ( 'NONE',  ( 4.263359315825988800, 4.288269495814818200, 3.116065434808620500 ) ) ;
#172 = CARTESIAN_POINT ( 'NONE',  ( 12.78236771482705300, -4.288269495814672500, 2.772152624121324100 ) ) ;
#173 = APPROVAL_STATUS ( 'not_yet_approved' ) ;
#174 = ORIENTED_EDGE ( 'NONE', *, *, #135, .T. ) ;
#175 = EDGE_CURVE ( 'NONE', #104, #77, #162, .T. ) ;
#176 = APPLICATION_PROTOCOL_DEFINITION ( 'international standard', 'config_control_design', 1994, #279 ) ;
#177 = CARTESIAN_POINT ( 'NONE',  ( 4.996003610813200500E-016, 2.442490654175340100E-015, 0.3396577596668790000 ) ) ;
#178 = DIRECTION ( 'NONE',  ( 0.0000000000000000000, 0.0000000000000000000, 1.000000000000000000 ) ) ;
#179 = CYLINDRICAL_SURFACE ( 'NONE', #78, 12.69999999999999900 ) ;
#180 = APPROVAL_ROLE ( '' ) ;
#181 = DATE_AND_TIME ( #83, #169 ) ;
#182 = EDGE_LOOP ( 'NONE', ( #128, #19, #220 ) ) ;
#183 = ORGANIZATION ( 'UNSPECIFIED', 'UNSPECIFIED', '' ) ;
#184 = CARTESIAN_POINT ( 'NONE',  ( 8.508538799316857700, -12.85225207140934200, 0.4622979335916122000 ) ) ;
#185 = PERSON_AND_ORGANIZATION ( #198, #183 ) ;
#186 = CARTESIAN_POINT ( 'NONE',  ( 12.75742190321021500, -12.85225207140934400, 0.6910980923755329900 ) ) ;
#187 = CIRCLE ( 'NONE', #143, 12.69999999999999900 ) ;
#188 = CALENDAR_DATE ( 2019, 7, 1 ) ;
#189 = CARTESIAN_POINT ( 'NONE',  ( 4.996003610813200500E-016, 2.442490654175340100E-015, 0.3396577596668790000 ) ) ;
#190 = CARTESIAN_POINT ( 'NONE',  ( -4.255039029575490500, 12.85225207140947700, 2.652143544990880600 ) ) ;
#191 = EDGE_CURVE ( 'NONE', #192, #34, #228, .T. ) ;
#192 = VERTEX_POINT ( 'NONE', #121 ) ;
#193 = CARTESIAN_POINT ( 'NONE',  ( -12.75742190321031800, -12.85225207140934400, 0.6910980923755250000 ) ) ;
#194 = DIRECTION ( 'NONE',  ( 1.000000000000000000, 0.0000000000000000000, 0.0000000000000000000 ) ) ;
#195 = CARTESIAN_POINT ( 'NONE',  ( 3.122502256758252100E-014, 4.288269495814807500, -0.1160654348086177900 ) ) ;
#196 = CARTESIAN_POINT ( 'NONE',  ( -12.75742190321032000, 12.85225207140947000, 0.6910980923754972400 ) ) ;
#197 =( GEOMETRIC_REPRESENTATION_CONTEXT ( 3 ) GLOBAL_UNCERTAINTY_ASSIGNED_CONTEXT ( ( #80 ) ) GLOBAL_UNIT_ASSIGNED_CONTEXT ( ( #273, #123, #271 ) ) REPRESENTATION_CONTEXT ( 'NONE', 'WORKASPACE' ) );
#198 = PERSON ( 'UNSPECIFIED', 'UNSPECIFIED', 'UNSPECIFIED', ('UNSPECIFIED'), ('UNSPECIFIED'), ('UNSPECIFIED') ) ;
#199 = DIRECTION ( 'NONE',  ( 1.000000000000000000, 0.0000000000000000000, 0.0000000000000000000 ) ) ;
#200 = DIRECTION ( 'NONE',  ( 1.000000000000000000, 0.0000000000000000000, 0.0000000000000000000 ) ) ;
#201 = SECURITY_CLASSIFICATION_LEVEL ( 'unclassified' ) ;
#202 = CC_DESIGN_DATE_AND_TIME_ASSIGNMENT ( #105, #54, ( #40 ) ) ;
#203 = AXIS2_PLACEMENT_3D ( 'NONE', #238, #113, #194 ) ;
#204 = FACE_OUTER_BOUND ( 'NONE', #182, .T. ) ;
#205 = APPROVAL_PERSON_ORGANIZATION ( #276, #248, #102 ) ;
#206 = CARTESIAN_POINT ( 'NONE',  ( 4.255039029575490500, 12.85225207140946900, 0.3478564550091222100 ) ) ;
#207 = CARTESIAN_POINT ( 'NONE',  ( -8.707495675338770400E-014, 12.70000000000009300, 2.660342240333122300 ) ) ;
#208 = ORIENTED_EDGE ( 'NONE', *, *, #175, .F. ) ;
#209 = APPROVAL_DATE_TIME ( #99, #232 ) ;
#210 = CARTESIAN_POINT ( 'NONE',  ( 12.75742190321031800, -12.85225207140933500, 2.308901907624477400 ) ) ;
#211 = EDGE_CURVE ( 'NONE', #141, #244, #126, .T. ) ;
#212 = CARTESIAN_POINT ( 'NONE',  ( -12.75742190321021700, 12.85225207140947900, 2.308901907624497000 ) ) ;
#213 = CARTESIAN_POINT ( 'NONE',  ( 8.508538799316889700, 12.85225207140947700, 2.537702066408433300 ) ) ;
#214 = VECTOR ( 'NONE', #33, 1000.000000000000000 ) ;
#215 = CARTESIAN_POINT ( 'NONE',  ( -4.263359315826033200, 4.288269495814817300, 3.116065434808613000 ) ) ;
#216 = CARTESIAN_POINT ( 'NONE',  ( -3.122502256758252800E-014, 12.85225207140947900, 2.652143544990888600 ) ) ;
#217 = DIRECTION ( 'NONE',  ( 1.000000000000000000, 1.776356839400250500E-015, 0.0000000000000000000 ) ) ;
#218 = CARTESIAN_POINT ( 'NONE',  ( -4.263359315826032300, -4.288269495814672500, 3.116065434808589900 ) ) ;
#219 = CARTESIAN_POINT ( 'NONE',  ( 4.996003610813200500E-016, 2.442490654175340100E-015, 0.3396577596668790000 ) ) ;
#220 = ORIENTED_EDGE ( 'NONE', *, *, #18, .F. ) ;
#221 = CARTESIAN_POINT ( 'NONE',  ( -4.263359315825987000, 4.288269495814808400, -0.1160654348086178600 ) ) ;
#222 = DIRECTION ( 'NONE',  ( 0.0000000000000000000, 0.0000000000000000000, 1.000000000000000000 ) ) ;
#223 = PERSON_AND_ORGANIZATION_ROLE ( 'classification_officer' ) ;
#224 = VECTOR ( 'NONE', #178, 1000.000000000000000 ) ;
#225 = PERSON_AND_ORGANIZATION ( #198, #183 ) ;
#226 = ORIENTED_EDGE ( 'NONE', *, *, #191, .T. ) ;
#227 = SECURITY_CLASSIFICATION ( '', '', #201 ) ;
#228 = CIRCLE ( 'NONE', #23, 12.69999999999999900 ) ;
#229 = PERSON_AND_ORGANIZATION ( #198, #183 ) ;
#230 = ADVANCED_FACE ( 'NONE', ( #7 ), #53, .T. ) ;
#231 = EDGE_CURVE ( 'NONE', #77, #244, #14, .T. ) ;
#232 = APPROVAL ( #140, 'UNSPECIFIED' ) ;
#233 = CARTESIAN_POINT ( 'NONE',  ( 8.525176361955436400, 4.288269495814808400, -0.001400177817977173700 ) ) ;
#234 = ORIENTED_EDGE ( 'NONE', *, *, #231, .T. ) ;
#235 = PERSON_AND_ORGANIZATION ( #198, #183 ) ;
#236 = DIRECTION ( 'NONE',  ( -0.0000000000000000000, -0.0000000000000000000, -1.000000000000000000 ) ) ;
#237 = LINE ( 'NONE', #247, #214 ) ;
#238 = CARTESIAN_POINT ( 'NONE',  ( 4.996003610813200500E-016, 2.442490654175340100E-015, 0.3396577596668790000 ) ) ;
#239 = CARTESIAN_POINT ( 'NONE',  ( -8.707292994983050800E-014, -12.85225207140933500, 2.652143544990853900 ) ) ;
#240 = CC_DESIGN_DATE_AND_TIME_ASSIGNMENT ( #13, #81, ( #227 ) ) ;
#241 = ADVANCED_BREP_SHAPE_REPRESENTATION ( '111-1230E UVFS bi-cx 25.4 F250', ( #287, #265 ), #197 ) ;
#242 = CARTESIAN_POINT ( 'NONE',  ( 4.996003610813200500E-016, 2.442490654175340100E-015, 0.3396577596668790000 ) ) ;
#243 = CARTESIAN_POINT ( 'NONE',  ( -12.78236771482705300, 4.288269495814807500, 0.2278473758786542800 ) ) ;
#244 = VERTEX_POINT ( 'NONE', #47 ) ;
#245 = APPROVAL_DATE_TIME ( #290, #248 ) ;
#246 = CARTESIAN_POINT ( 'NONE',  ( -3.122502256758252800E-014, -12.85225207140933500, 2.652143544990860600 ) ) ;
#247 = CARTESIAN_POINT ( 'NONE',  ( 12.69999999999999900, 2.442490654175340100E-015, 0.3396577596668790000 ) ) ;
#248 = APPROVAL ( #173, 'UNSPECIFIED' ) ;
#249 = CARTESIAN_POINT ( 'NONE',  ( -4.263359315825988800, -4.288269495814681400, -0.1160654348085947800 ) ) ;
#250 = CARTESIAN_POINT ( 'NONE',  ( 4.996003610813200500E-016, 2.442490654175340100E-015, 2.660342240333120100 ) ) ;
#251 = DIRECTION ( 'NONE',  ( -0.0000000000000000000, -0.0000000000000000000, -1.000000000000000000 ) ) ;
#252 = APPROVAL ( #137, 'UNSPECIFIED' ) ;
#253 = ORIENTED_EDGE ( 'NONE', *, *, #175, .T. ) ;
#254 = PRODUCT ( '111-1230E UVFS bi-cx 25.4 F250', '111-1230E UVFS bi-cx 25.4 F250', '', ( #32 ) ) ;
#255 = CARTESIAN_POINT ( 'NONE',  ( 4.996003610813200500E-016, 2.442490654175340100E-015, 0.3396577596668790000 ) ) ;
#256 = CC_DESIGN_PERSON_AND_ORGANIZATION_ASSIGNMENT ( #229, #1, ( #40 ) ) ;
#257 = FACE_OUTER_BOUND ( 'NONE', #118, .T. ) ;
#258 = ORIENTED_EDGE ( 'NONE', *, *, #18, .T. ) ;
#259 = ADVANCED_FACE ( 'NONE', ( #167 ), #111, .T. ) ;
#260 = CC_DESIGN_SECURITY_CLASSIFICATION ( #227, ( #103 ) ) ;
#261 = AXIS2_PLACEMENT_3D ( 'NONE', #139, #156, #159 ) ;
#262 =( BOUNDED_SURFACE ( )  B_SPLINE_SURFACE ( 3, 3, ( 
 ( #210, #151, #168, #246 ),
 ( #172, #269, #268, #272 ),
 ( #2, #133, #171, #44 ),
 ( #69, #213, #45, #216 ) ),
 .UNSPECIFIED., .F., .F., .T. ) 
 B_SPLINE_SURFACE_WITH_KNOTS ( ( 4, 4 ),
 ( 4, 4 ),
 ( 0.0000000000000000000, 1.000000000000000000 ),
 ( 0.0000000000000000000, 1.000000000000000000 ),
 .UNSPECIFIED. ) 
 GEOMETRIC_REPRESENTATION_ITEM ( )  RATIONAL_B_SPLINE_SURFACE ( (
 ( 1.000000000000000000, 0.9997588334171417800, 0.9997588334171417800, 1.000000000000000000),
 ( 0.9990239717872919600, 0.9987830405898225900, 0.9987830405898225900, 0.9990239717872919600),
 ( 0.9990239717872919600, 0.9987830405898225900, 0.9987830405898225900, 0.9990239717872919600),
 ( 1.000000000000000000, 0.9997588334171417800, 0.9997588334171417800, 1.000000000000000000) ) ) 
 REPRESENTATION_ITEM ( '' )  SURFACE ( )  );
#263 = DIRECTION ( 'NONE',  ( 1.000000000000000000, 0.0000000000000000000, 0.0000000000000000000 ) ) ;
#264 = ORIENTED_EDGE ( 'NONE', *, *, #120, .T. ) ;
#265 = AXIS2_PLACEMENT_3D ( 'NONE', #28, #222, #200 ) ;
#266 = CARTESIAN_POINT ( 'NONE',  ( -12.75742190321021500, -12.85225207140933500, 2.308901907624469500 ) ) ;
#267 =( BOUNDED_SURFACE ( )  B_SPLINE_SURFACE ( 3, 3, ( 
 ( #239, #89, #132, #266 ),
 ( #134, #218, #46, #90 ),
 ( #70, #215, #65, #148 ),
 ( #295, #190, #170, #212 ) ),
 .UNSPECIFIED., .F., .F., .T. ) 
 B_SPLINE_SURFACE_WITH_KNOTS ( ( 4, 4 ),
 ( 4, 4 ),
 ( 0.0000000000000000000, 1.000000000000000000 ),
 ( 0.0000000000000000000, 1.000000000000000000 ),
 .UNSPECIFIED. ) 
 GEOMETRIC_REPRESENTATION_ITEM ( )  RATIONAL_B_SPLINE_SURFACE ( (
 ( 1.000000000000000000, 0.9997588334171417800, 0.9997588334171417800, 1.000000000000000000),
 ( 0.9990239717872919600, 0.9987830405898225900, 0.9987830405898225900, 0.9990239717872919600),
 ( 0.9990239717872919600, 0.9987830405898225900, 0.9987830405898225900, 0.9990239717872919600),
 ( 1.000000000000000000, 0.9997588334171417800, 0.9997588334171417800, 1.000000000000000000) ) ) 
 REPRESENTATION_ITEM ( '' )  SURFACE ( )  );
#268 = CARTESIAN_POINT ( 'NONE',  ( 4.263359315825988800, -4.288269495814671700, 3.116065434808596500 ) ) ;
#269 = CARTESIAN_POINT ( 'NONE',  ( 8.525176361955468400, -4.288269495814672500, 3.001400177817971300 ) ) ;
#270 = VERTEX_POINT ( 'NONE', #117 ) ;
#271 =( NAMED_UNIT ( * ) SI_UNIT ( $, .STERADIAN. ) SOLID_ANGLE_UNIT ( ) );
#272 = CARTESIAN_POINT ( 'NONE',  ( -2.949029909160571400E-014, -4.288269495814671700, 3.116065434808596100 ) ) ;
#273 =( LENGTH_UNIT ( ) NAMED_UNIT ( * ) SI_UNIT ( .MILLI., .METRE. ) );
#274 = DIRECTION ( 'NONE',  ( -0.0000000000000000000, -0.0000000000000000000, -1.000000000000000000 ) ) ;
#275 = ORIENTED_EDGE ( 'NONE', *, *, #135, .F. ) ;
#276 = PERSON_AND_ORGANIZATION ( #198, #183 ) ;
#277 = CARTESIAN_POINT ( 'NONE',  ( -8.508538799316889700, 12.85225207140946900, 0.4622979335915696200 ) ) ;
#278 = EDGE_CURVE ( 'NONE', #141, #26, #59, .T. ) ;
#279 = APPLICATION_CONTEXT ( 'configuration controlled 3d designs of mechanical parts and assemblies' ) ;
#280 = PRODUCT_RELATED_PRODUCT_CATEGORY ( 'detail', '', ( #254 ) ) ;
#281 = PERSON_AND_ORGANIZATION_ROLE ( 'design_supplier' ) ;
#282 = EDGE_LOOP ( 'NONE', ( #264, #38, #226 ) ) ;
#283 = CIRCLE ( 'NONE', #92, 12.69999999999999900 ) ;
#284 = CALENDAR_DATE ( 2019, 7, 1 ) ;
#285 = EDGE_CURVE ( 'NONE', #34, #270, #237, .T. ) ;
#286 = CARTESIAN_POINT ( 'NONE',  ( 12.78236771482694900, -4.288269495814681400, 0.2278473758786853100 ) ) ;
#287 = MANIFOLD_SOLID_BREP ( 'Imported1', #49 ) ;
#288 = EDGE_LOOP ( 'NONE', ( #98, #253, #12 ) ) ;
#289 = CC_DESIGN_PERSON_AND_ORGANIZATION_ASSIGNMENT ( #185, #74, ( #254 ) ) ;
#290 = DATE_AND_TIME ( #124, #294 ) ;
#291 = CARTESIAN_POINT ( 'NONE',  ( 4.263359315826033200, 4.288269495814808400, -0.1160654348086097700 ) ) ;
#292 = CARTESIAN_POINT ( 'NONE',  ( 8.525176361955434600, -4.288269495814681400, -0.001400177817954134200 ) ) ;
#293 = CIRCLE ( 'NONE', #150, 12.69999999999999900 ) ;
#294 = LOCAL_TIME ( 10, 33, 18.00000000000000000, #63 ) ;
#295 = CARTESIAN_POINT ( 'NONE',  ( -8.707292994983050800E-014, 12.85225207140947900, 2.652143544990881500 ) ) ;
ENDSEC;
END-ISO-10303-21;
