ISO-10303-21;
HEADER;
FILE_DESCRIPTION (( 'STEP AP203' ),
    '1' );
FILE_NAME ('111-1226E UVFS bi-cx 25.4 F200.STEP',
    '2019-01-07T08:10:58',
    ( '' ),
    ( '' ),
    'SwSTEP 2.0',
    'SolidWorks 2017',
    '' );
FILE_SCHEMA (( 'CONFIG_CONTROL_DESIGN' ));
ENDSEC;

DATA;
#1 = PERSON_AND_ORGANIZATION ( #247, #271 ) ;
#2 = ORIENTED_EDGE ( 'NONE', *, *, #50, .F. ) ;
#3 = CIRCLE ( 'NONE', #119, 12.69999999999999900 ) ;
#4 = APPROVAL_PERSON_ORGANIZATION ( #94, #125, #268 ) ;
#5 = AXIS2_PLACEMENT_3D ( 'NONE', #32, #202, #138 ) ;
#6 = ORIENTED_EDGE ( 'NONE', *, *, #294, .T. ) ;
#7 = CARTESIAN_POINT ( 'NONE',  ( -12.74679183000843400, -12.85216827353926800, 2.135316987887383400 ) ) ;
#8 = ORIENTED_EDGE ( 'NONE', *, *, #29, .F. ) ;
#9 = DATE_AND_TIME ( #75, #89 ) ;
#10 = CARTESIAN_POINT ( 'NONE',  ( 8.503482005505887300, -12.85216827353927200, 2.421446521061495300 ) ) ;
#11 = DIRECTION ( 'NONE',  ( 0.0000000000000000000, 0.0000000000000000000, 1.000000000000000000 ) ) ;
#12 = EDGE_CURVE ( 'NONE', #291, #209, #283, .T. ) ;
#13 = CARTESIAN_POINT ( 'NONE',  ( -4.265982398369937200, -4.290614512092481900, -0.1453580561075750200 ) ) ;
#14 = DIRECTION ( 'NONE',  ( 1.000000000000000000, 0.0000000000000000000, 0.0000000000000000000 ) ) ;
#15 = CARTESIAN_POINT ( 'NONE',  ( -8.529547722074658700, 4.290614512092425100, -0.001773399181779534900 ) ) ;
#16 = CARTESIAN_POINT ( 'NONE',  ( 4.265982398369893700, -4.290614512092479200, -0.1453580561075668300 ) ) ;
#17 = CARTESIAN_POINT ( 'NONE',  ( 4.252945846877784300, -12.85216827353900400, 0.4354076069393042500 ) ) ;
#18 = CARTESIAN_POINT ( 'NONE',  ( -12.69999999999999900, 3.997792089092478900E-015, 2.574853212768049900 ) ) ;
#19 = DATE_AND_TIME ( #158, #69 ) ;
#20 = MECHANICAL_CONTEXT ( 'NONE', #182, 'mechanical' ) ;
#21 = DATE_TIME_ROLE ( 'creation_date' ) ;
#22 = APPROVAL_ROLE ( '' ) ;
#23 = FACE_OUTER_BOUND ( 'NONE', #232, .T. ) ;
#24 = MANIFOLD_SOLID_BREP ( 'Imported1', #41 ) ;
#25 = DATE_AND_TIME ( #153, #126 ) ;
#26 = CARTESIAN_POINT ( 'NONE',  ( -8.529547722074585900, -4.290614512092562700, 3.001773399181805000 ) ) ;
#27 = PRODUCT ( '111-1226E UVFS bi-cx 25.4 F200', '111-1226E UVFS bi-cx 25.4 F200', '', ( #20 ) ) ;
#28 = AXIS2_PLACEMENT_3D ( 'NONE', #161, #205, #91 ) ;
#29 = EDGE_CURVE ( 'NONE', #175, #133, #3, .T. ) ;
#30 = CARTESIAN_POINT ( 'NONE',  ( -4.265982398369889200, -4.290614512092563600, 3.145358056107593600 ) ) ;
#31 = VECTOR ( 'NONE', #11, 1000.000000000000000 ) ;
#32 = CARTESIAN_POINT ( 'NONE',  ( -4.263256414560599900E-014, -5.684341886080800200E-014, 189.9000000000000100 ) ) ;
#33 = CARTESIAN_POINT ( 'NONE',  ( 4.252945846877829600, 12.85216827353923100, 2.564592393060706400 ) ) ;
#34 = APPROVAL_PERSON_ORGANIZATION ( #245, #218, #22 ) ;
#35 = CARTESIAN_POINT ( 'NONE',  ( -4.252945846877822500, -12.85216827353900700, 0.4354076069392963100 ) ) ;
#36 = AXIS2_PLACEMENT_3D ( 'NONE', #278, #257, #132 ) ;
#37 = PERSON_AND_ORGANIZATION_ROLE ( 'design_owner' ) ;
#38 = ADVANCED_FACE ( 'NONE', ( #165 ), #260, .T. ) ;
#39 = CARTESIAN_POINT ( 'NONE',  ( 8.503482005505835800, -12.85216827353900400, 0.5785534789385061700 ) ) ;
#40 = ORIENTED_EDGE ( 'NONE', *, *, #62, .F. ) ;
#41 = CLOSED_SHELL ( 'NONE', ( #267, #38, #47, #73, #137, #57 ) ) ;
#42 = CARTESIAN_POINT ( 'NONE',  ( 4.996003610813200500E-016, 2.442490654175340100E-015, 0.4251467872319449900 ) ) ;
#43 = CARTESIAN_POINT ( 'NONE',  ( 12.69999999999999900, 2.442490654175340100E-015, 0.4251467872319449900 ) ) ;
#44 = EDGE_CURVE ( 'NONE', #120, #175, #274, .T. ) ;
#45 = CARTESIAN_POINT ( 'NONE',  ( 3.593321145722993000E-015, 12.69999999999986400, 0.4251467872319393300 ) ) ;
#46 = ORIENTED_EDGE ( 'NONE', *, *, #294, .F. ) ;
#47 = ADVANCED_FACE ( 'NONE', ( #23 ), #230, .T. ) ;
#48 = CC_DESIGN_PERSON_AND_ORGANIZATION_ASSIGNMENT ( #259, #170, ( #197 ) ) ;
#49 = ORIENTED_EDGE ( 'NONE', *, *, #98, .T. ) ;
#50 = EDGE_CURVE ( 'NONE', #133, #118, #145, .T. ) ;
#51 = COORDINATED_UNIVERSAL_TIME_OFFSET ( 2, 0, .AHEAD. ) ;
#52 = DIRECTION ( 'NONE',  ( 1.000000000000000000, 0.0000000000000000000, 0.0000000000000000000 ) ) ;
#53 = CARTESIAN_POINT ( 'NONE',  ( 12.74679183000852100, -12.85216827353927500, 2.135316987887381200 ) ) ;
#54 = CARTESIAN_POINT ( 'NONE',  ( -8.529547722074585900, 4.290614512092529000, 3.001773399181808100 ) ) ;
#55 = DIRECTION ( 'NONE',  ( 1.000000000000000000, 0.0000000000000000000, 0.0000000000000000000 ) ) ;
#56 = EDGE_CURVE ( 'NONE', #118, #233, #183, .T. ) ;
#57 = ADVANCED_FACE ( 'NONE', ( #214 ), #116, .T. ) ;
#58 = CARTESIAN_POINT ( 'NONE',  ( -3.642919299551295500E-014, -4.290614512092480100, -0.1453580561075749600 ) ) ;
#59 = ORIENTED_EDGE ( 'NONE', *, *, #12, .F. ) ;
#60 = PERSON_AND_ORGANIZATION ( #247, #271 ) ;
#61 = CARTESIAN_POINT ( 'NONE',  ( 12.74679183000852800, 12.85216827353922900, 2.135316987887381200 ) ) ;
#62 = EDGE_CURVE ( 'NONE', #291, #118, #93, .T. ) ;
#63 = DIRECTION ( 'NONE',  ( -0.0000000000000000000, -0.0000000000000000000, -1.000000000000000000 ) ) ;
#64 = CARTESIAN_POINT ( 'NONE',  ( 1.141061391405806300E-014, -12.85216827353900500, 0.4354076069393031400 ) ) ;
#65 = UNCERTAINTY_MEASURE_WITH_UNIT (LENGTH_MEASURE( 1.000000000000000100E-005 ), #92, 'distance_accuracy_value', 'NONE');
#66 = ORIENTED_EDGE ( 'NONE', *, *, #79, .F. ) ;
#67 = AXIS2_PLACEMENT_3D ( 'NONE', #188, #134, #290 ) ;
#68 = APPLICATION_CONTEXT ( 'configuration controlled 3d designs of mechanical parts and assemblies' ) ;
#69 = LOCAL_TIME ( 10, 10, 58.00000000000000000, #215 ) ;
#70 = CARTESIAN_POINT ( 'NONE',  ( 4.252945846877776300, 12.85216827353895400, 0.4354076069393042500 ) ) ;
#71 = CARTESIAN_POINT ( 'NONE',  ( 8.529547722074596500, 4.290614512092429500, -0.001773399181780564900 ) ) ;
#72 = SHAPE_DEFINITION_REPRESENTATION ( #276, #147 ) ;
#73 = ADVANCED_FACE ( 'NONE', ( #258 ), #222, .T. ) ;
#74 = APPROVAL_ROLE ( '' ) ;
#75 = CALENDAR_DATE ( 2019, 7, 1 ) ;
#76 = CC_DESIGN_PERSON_AND_ORGANIZATION_ASSIGNMENT ( #135, #136, ( #242 ) ) ;
#77 = EDGE_LOOP ( 'NONE', ( #219, #49, #151 ) ) ;
#78 = EDGE_CURVE ( 'NONE', #233, #175, #113, .T. ) ;
#79 = EDGE_CURVE ( 'NONE', #233, #133, #141, .T. ) ;
#80 = CARTESIAN_POINT ( 'NONE',  ( -12.74679183000842600, 12.85216827353923600, 2.135316987887383400 ) ) ;
#81 = DIRECTION ( 'NONE',  ( 1.000000000000000000, -8.881784197001252300E-016, 0.0000000000000000000 ) ) ;
#82 = CC_DESIGN_PERSON_AND_ORGANIZATION_ASSIGNMENT ( #1, #37, ( #27 ) ) ;
#83 = DESIGN_CONTEXT ( 'detailed design', #68, 'design' ) ;
#84 = CARTESIAN_POINT ( 'NONE',  ( -3.816391647148975600E-014, 4.290614512092428600, -0.1453580561075775200 ) ) ;
#85 = EDGE_LOOP ( 'NONE', ( #66, #100, #2 ) ) ;
#86 = CARTESIAN_POINT ( 'NONE',  ( 12.78586456077775700, 4.290614512092522800, 2.714766793379227700 ) ) ;
#87 = APPROVAL_DATE_TIME ( #25, #218 ) ;
#88 = CARTESIAN_POINT ( 'NONE',  ( 8.529547722074658700, 4.290614512092523600, 3.001773399181807200 ) ) ;
#89 = LOCAL_TIME ( 10, 10, 58.00000000000000000, #51 ) ;
#90 = APPLICATION_PROTOCOL_DEFINITION ( 'international standard', 'config_control_design', 1994, #68 ) ;
#91 = DIRECTION ( 'NONE',  ( 1.000000000000000000, 0.0000000000000000000, 0.0000000000000000000 ) ) ;
#92 =( LENGTH_UNIT ( ) NAMED_UNIT ( * ) SI_UNIT ( .MILLI., .METRE. ) );
#93 = LINE ( 'NONE', #105, #262 ) ;
#94 = PERSON_AND_ORGANIZATION ( #247, #271 ) ;
#95 = CARTESIAN_POINT ( 'NONE',  ( 4.265982398369891000, 4.290614512092428600, -0.1453580561075695500 ) ) ;
#96 = CC_DESIGN_APPROVAL ( #218, ( #180 ) ) ;
#97 = PERSON_AND_ORGANIZATION_ROLE ( 'design_supplier' ) ;
#98 = EDGE_CURVE ( 'NONE', #209, #273, #102, .T. ) ;
#99 = APPROVAL_DATE_TIME ( #19, #213 ) ;
#100 = ORIENTED_EDGE ( 'NONE', *, *, #56, .F. ) ;
#101 = CARTESIAN_POINT ( 'NONE',  ( -3.544037644757570700E-015, 12.85216827353923300, 2.564592393060699700 ) ) ;
#102 = CIRCLE ( 'NONE', #5, 189.9000000000000100 ) ;
#103 = CALENDAR_DATE ( 2019, 7, 1 ) ;
#104 = CARTESIAN_POINT ( 'NONE',  ( -8.503482005505887300, -12.85216827353900700, 0.5785534789385071700 ) ) ;
#105 = CARTESIAN_POINT ( 'NONE',  ( 12.69999999999999900, 2.442490654175340100E-015, 0.4251467872319449900 ) ) ;
#106 = ORIENTED_EDGE ( 'NONE', *, *, #78, .F. ) ;
#107 = CARTESIAN_POINT ( 'NONE',  ( -4.163336342344337000E-014, 12.85216827353895200, 0.4354076069392964200 ) ) ;
#108 = EDGE_CURVE ( 'NONE', #273, #291, #204, .T. ) ;
#109 = CARTESIAN_POINT ( 'NONE',  ( 3.816391647148975600E-014, 4.290614512092527200, 3.145358056107605100 ) ) ;
#110 =( NAMED_UNIT ( * ) SI_UNIT ( $, .STERADIAN. ) SOLID_ANGLE_UNIT ( ) );
#111 = CC_DESIGN_PERSON_AND_ORGANIZATION_ASSIGNMENT ( #121, #97, ( #180 ) ) ;
#112 = APPROVAL_STATUS ( 'not_yet_approved' ) ;
#113 = CIRCLE ( 'NONE', #174, 12.69999999999999900 ) ;
#114 = CARTESIAN_POINT ( 'NONE',  ( 6.317824395383331700E-015, 4.290614512092427700, -0.1453580561075706900 ) ) ;
#115 = CARTESIAN_POINT ( 'NONE',  ( -1.136675800818676500E-014, -12.70000000000019300, 2.574853212768045500 ) ) ;
#116 =( BOUNDED_SURFACE ( )  B_SPLINE_SURFACE ( 3, 3, ( 
 ( #53, #10, #227, #128 ),
 ( #179, #129, #264, #181 ),
 ( #86, #88, #240, #109 ),
 ( #61, #261, #33, #284 ) ),
 .UNSPECIFIED., .F., .F., .T. ) 
 B_SPLINE_SURFACE_WITH_KNOTS ( ( 4, 4 ),
 ( 4, 4 ),
 ( 0.0000000000000000000, 1.000000000000000000 ),
 ( 0.0000000000000000000, 1.000000000000000000 ),
 .UNSPECIFIED. ) 
 GEOMETRIC_REPRESENTATION_ITEM ( )  RATIONAL_B_SPLINE_SURFACE ( (
 ( 1.000000000000000000, 0.9996222715052134300, 0.9996222715052134300, 1.000000000000000000),
 ( 0.9984714495104816100, 0.9980942983927706400, 0.9980942983927706400, 0.9984714495104816100),
 ( 0.9984714495104816100, 0.9980942983927706400, 0.9980942983927706400, 0.9984714495104816100),
 ( 1.000000000000000000, 0.9996222715052134300, 0.9996222715052134300, 1.000000000000000000) ) ) 
 REPRESENTATION_ITEM ( '' )  SURFACE ( )  );
#117 = PERSON_AND_ORGANIZATION_ROLE ( 'creator' ) ;
#118 = VERTEX_POINT ( 'NONE', #200 ) ;
#119 = AXIS2_PLACEMENT_3D ( 'NONE', #143, #280, #81 ) ;
#120 = VERTEX_POINT ( 'NONE', #139 ) ;
#121 = PERSON_AND_ORGANIZATION ( #247, #271 ) ;
#122 = CARTESIAN_POINT ( 'NONE',  ( -4.252945846877770100, 12.85216827353923500, 2.564592393060698900 ) ) ;
#123 = EDGE_CURVE ( 'NONE', #209, #120, #226, .T. ) ;
#124 = FACE_OUTER_BOUND ( 'NONE', #77, .T. ) ;
#125 = APPROVAL ( #112, 'UNSPECIFIED' ) ;
#126 = LOCAL_TIME ( 10, 10, 58.00000000000000000, #192 ) ;
#127 = CARTESIAN_POINT ( 'NONE',  ( -4.252945846877778100, -12.85216827353926800, 2.564592393060698900 ) ) ;
#128 = CARTESIAN_POINT ( 'NONE',  ( 3.469446951953614200E-014, -12.85216827353927200, 2.564592393060706000 ) ) ;
#129 = CARTESIAN_POINT ( 'NONE',  ( 8.529547722074658700, -4.290614512092567200, 3.001773399181804500 ) ) ;
#130 = ORIENTED_EDGE ( 'NONE', *, *, #50, .T. ) ;
#131 = DATE_AND_TIME ( #103, #168 ) ;
#132 = DIRECTION ( 'NONE',  ( 1.000000000000000000, 1.776356839400250500E-015, 0.0000000000000000000 ) ) ;
#133 = VERTEX_POINT ( 'NONE', #184 ) ;
#134 = DIRECTION ( 'NONE',  ( 0.0000000000000000000, 0.0000000000000000000, 1.000000000000000000 ) ) ;
#135 = PERSON_AND_ORGANIZATION ( #247, #271 ) ;
#136 = PERSON_AND_ORGANIZATION_ROLE ( 'creator' ) ;
#137 = ADVANCED_FACE ( 'NONE', ( #156 ), #235, .T. ) ;
#138 = DIRECTION ( 'NONE',  ( 3.060408213568409400E-016, -1.000000000000000000, 0.0000000000000000000 ) ) ;
#139 = CARTESIAN_POINT ( 'NONE',  ( -12.69999999999999900, 3.997792089092478900E-015, 0.4251467872319449900 ) ) ;
#140 = ORIENTED_EDGE ( 'NONE', *, *, #44, .T. ) ;
#141 = CIRCLE ( 'NONE', #229, 189.9000000000000100 ) ;
#142 = AXIS2_PLACEMENT_3D ( 'NONE', #266, #207, #270 ) ;
#143 = CARTESIAN_POINT ( 'NONE',  ( 4.996003610813200500E-016, 2.442490654175340100E-015, 2.574853212768049900 ) ) ;
#144 = AXIS2_PLACEMENT_3D ( 'NONE', #42, #186, #164 ) ;
#145 = CIRCLE ( 'NONE', #36, 12.69999999999999900 ) ;
#146 = CARTESIAN_POINT ( 'NONE',  ( -12.69999999999999900, 3.997792089092478900E-015, 0.4251467872319449900 ) ) ;
#147 = ADVANCED_BREP_SHAPE_REPRESENTATION ( '111-1226E UVFS bi-cx 25.4 F200', ( #24, #67 ), #206 ) ;
#148 = CARTESIAN_POINT ( 'NONE',  ( -8.944030774196075200E-015, -4.290614512092564500, 3.145358056107595800 ) ) ;
#149 = CARTESIAN_POINT ( 'NONE',  ( 4.996003610813200500E-016, 2.442490654175340100E-015, 0.4251467872319449900 ) ) ;
#150 = EDGE_LOOP ( 'NONE', ( #176, #239, #59, #295, #244, #286 ) ) ;
#151 = ORIENTED_EDGE ( 'NONE', *, *, #108, .T. ) ;
#152 = DIRECTION ( 'NONE',  ( -3.060408213568408900E-016, -1.000000000000000000, -2.923178053252123300E-016 ) ) ;
#153 = CALENDAR_DATE ( 2019, 7, 1 ) ;
#154 = CARTESIAN_POINT ( 'NONE',  ( -4.252945846877829600, 12.85216827353895000, 0.4354076069392963100 ) ) ;
#155 =( BOUNDED_SURFACE ( )  B_SPLINE_SURFACE ( 3, 3, ( 
 ( #64, #17, #39, #243 ),
 ( #272, #16, #269, #292 ),
 ( #114, #95, #71, #185 ),
 ( #208, #70, #228, #249 ) ),
 .UNSPECIFIED., .F., .F., .F. ) 
 B_SPLINE_SURFACE_WITH_KNOTS ( ( 4, 4 ),
 ( 4, 4 ),
 ( 0.0000000000000000000, 1.000000000000000000 ),
 ( 0.0000000000000000000, 1.000000000000000000 ),
 .UNSPECIFIED. ) 
 GEOMETRIC_REPRESENTATION_ITEM ( )  RATIONAL_B_SPLINE_SURFACE ( (
 ( 1.000000000000000000, 0.9996222715052134300, 0.9996222715052134300, 1.000000000000000000),
 ( 0.9984714495104816100, 0.9980942983927706400, 0.9980942983927706400, 0.9984714495104816100),
 ( 0.9984714495104816100, 0.9980942983927706400, 0.9980942983927706400, 0.9984714495104816100),
 ( 1.000000000000000000, 0.9996222715052134300, 0.9996222715052134300, 1.000000000000000000) ) ) 
 REPRESENTATION_ITEM ( '' )  SURFACE ( )  );
#156 = FACE_OUTER_BOUND ( 'NONE', #150, .T. ) ;
#157 = AXIS2_PLACEMENT_3D ( 'NONE', #149, #196, #237 ) ;
#158 = CALENDAR_DATE ( 2019, 7, 1 ) ;
#159 = CARTESIAN_POINT ( 'NONE',  ( -12.74679183000852100, -12.85216827353900900, 0.8646830121126214400 ) ) ;
#160 = CC_DESIGN_APPROVAL ( #125, ( #242 ) ) ;
#161 = CARTESIAN_POINT ( 'NONE',  ( 4.996003610813200500E-016, 2.442490654175340100E-015, 0.4251467872319449900 ) ) ;
#162 = ORIENTED_EDGE ( 'NONE', *, *, #123, .T. ) ;
#163 = EDGE_LOOP ( 'NONE', ( #225, #162, #6 ) ) ;
#164 = DIRECTION ( 'NONE',  ( 1.000000000000000000, -8.881784197001252300E-016, 0.0000000000000000000 ) ) ;
#165 = FACE_OUTER_BOUND ( 'NONE', #191, .T. ) ;
#166 =( NAMED_UNIT ( * ) PLANE_ANGLE_UNIT ( ) SI_UNIT ( $, .RADIAN. ) );
#167 = APPLICATION_PROTOCOL_DEFINITION ( 'international standard', 'config_control_design', 1994, #182 ) ;
#168 = LOCAL_TIME ( 10, 10, 58.00000000000000000, #173 ) ;
#169 = CC_DESIGN_DATE_AND_TIME_ASSIGNMENT ( #9, #21, ( #242 ) ) ;
#170 = PERSON_AND_ORGANIZATION_ROLE ( 'classification_officer' ) ;
#171 = APPROVAL_STATUS ( 'not_yet_approved' ) ;
#172 = CARTESIAN_POINT ( 'NONE',  ( 4.996003610813200500E-016, 2.442490654175340100E-015, 0.4251467872319449900 ) ) ;
#173 = COORDINATED_UNIVERSAL_TIME_OFFSET ( 2, 0, .AHEAD. ) ;
#174 = AXIS2_PLACEMENT_3D ( 'NONE', #288, #287, #14 ) ;
#175 = VERTEX_POINT ( 'NONE', #18 ) ;
#176 = ORIENTED_EDGE ( 'NONE', *, *, #44, .F. ) ;
#177 = ORIENTED_EDGE ( 'NONE', *, *, #79, .T. ) ;
#178 = DATE_AND_TIME ( #194, #251 ) ;
#179 = CARTESIAN_POINT ( 'NONE',  ( 12.78586456077775500, -4.290614512092568900, 2.714766793379224600 ) ) ;
#180 = PRODUCT_DEFINITION_FORMATION_WITH_SPECIFIED_SOURCE ( 'ANY', '', #27, .NOT_KNOWN. ) ;
#181 = CARTESIAN_POINT ( 'NONE',  ( 3.816391647148975600E-014, -4.290614512092563600, 3.145358056107602400 ) ) ;
#182 = APPLICATION_CONTEXT ( 'configuration controlled 3d designs of mechanical parts and assemblies' ) ;
#183 = CIRCLE ( 'NONE', #289, 12.69999999999999900 ) ;
#184 = CARTESIAN_POINT ( 'NONE',  ( -3.593321145722906200E-015, 12.70000000000013800, 2.574853212768045500 ) ) ;
#185 = CARTESIAN_POINT ( 'NONE',  ( 12.78586456077767700, 4.290614512092431300, 0.2852332066207973700 ) ) ;
#186 = DIRECTION ( 'NONE',  ( -0.0000000000000000000, -0.0000000000000000000, -1.000000000000000000 ) ) ;
#187 = ORIENTED_EDGE ( 'NONE', *, *, #108, .F. ) ;
#188 = CARTESIAN_POINT ( 'NONE',  ( 0.0000000000000000000, 0.0000000000000000000, 0.0000000000000000000 ) ) ;
#189 = APPROVAL_DATE_TIME ( #178, #125 ) ;
#190 = SECURITY_CLASSIFICATION_LEVEL ( 'unclassified' ) ;
#191 = EDGE_LOOP ( 'NONE', ( #106, #177, #8 ) ) ;
#192 = COORDINATED_UNIVERSAL_TIME_OFFSET ( 2, 0, .AHEAD. ) ;
#193 = CC_DESIGN_SECURITY_CLASSIFICATION ( #197, ( #180 ) ) ;
#194 = CALENDAR_DATE ( 2019, 7, 1 ) ;
#195 = DIRECTION ( 'NONE',  ( 0.0000000000000000000, 0.0000000000000000000, 1.000000000000000000 ) ) ;
#196 = DIRECTION ( 'NONE',  ( -0.0000000000000000000, -0.0000000000000000000, -1.000000000000000000 ) ) ;
#197 = SECURITY_CLASSIFICATION ( '', '', #190 ) ;
#198 = CARTESIAN_POINT ( 'NONE',  ( -12.78586456077766300, -4.290614512092560100, 2.714766793379226800 ) ) ;
#199 = CARTESIAN_POINT ( 'NONE',  ( -4.265982398369886600, 4.290614512092528100, 3.145358056107597100 ) ) ;
#200 = CARTESIAN_POINT ( 'NONE',  ( 12.69999999999999900, 2.442490654175340100E-015, 2.574853212768049900 ) ) ;
#201 = CARTESIAN_POINT ( 'NONE',  ( -3.469446951953614200E-014, -12.85216827353900500, 0.4354076069392964200 ) ) ;
#202 = DIRECTION ( 'NONE',  ( 1.000000000000000000, 3.060408213568409900E-016, 2.644815545326620100E-016 ) ) ;
#203 = CARTESIAN_POINT ( 'NONE',  ( -4.265982398369939000, 4.290614512092425900, -0.1453580561075776500 ) ) ;
#204 = CIRCLE ( 'NONE', #144, 12.69999999999999900 ) ;
#205 = DIRECTION ( 'NONE',  ( -0.0000000000000000000, -0.0000000000000000000, -1.000000000000000000 ) ) ;
#206 =( GEOMETRIC_REPRESENTATION_CONTEXT ( 3 ) GLOBAL_UNCERTAINTY_ASSIGNED_CONTEXT ( ( #65 ) ) GLOBAL_UNIT_ASSIGNED_CONTEXT ( ( #92, #166, #110 ) ) REPRESENTATION_CONTEXT ( 'NONE', 'WORKASPACE' ) );
#207 = DIRECTION ( 'NONE',  ( -0.0000000000000000000, -0.0000000000000000000, -1.000000000000000000 ) ) ;
#208 = CARTESIAN_POINT ( 'NONE',  ( 3.544037644757657100E-015, 12.85216827353895200, 0.4354076069393031400 ) ) ;
#209 = VERTEX_POINT ( 'NONE', #250 ) ;
#210 = DIRECTION ( 'NONE',  ( 0.0000000000000000000, 0.0000000000000000000, 1.000000000000000000 ) ) ;
#211 = PERSON_AND_ORGANIZATION ( #247, #271 ) ;
#212 = DATE_TIME_ROLE ( 'classification_date' ) ;
#213 = APPROVAL ( #252, 'UNSPECIFIED' ) ;
#214 = FACE_OUTER_BOUND ( 'NONE', #85, .T. ) ;
#215 = COORDINATED_UNIVERSAL_TIME_OFFSET ( 2, 0, .AHEAD. ) ;
#216 = ORIENTED_EDGE ( 'NONE', *, *, #29, .T. ) ;
#217 = CARTESIAN_POINT ( 'NONE',  ( -12.78586456077766100, 4.290614512092530800, 2.714766793379230300 ) ) ;
#218 = APPROVAL ( #171, 'UNSPECIFIED' ) ;
#219 = ORIENTED_EDGE ( 'NONE', *, *, #12, .T. ) ;
#220 = CARTESIAN_POINT ( 'NONE',  ( -12.78586456077775500, 4.290614512092424200, 0.2852332066207992100 ) ) ;
#221 = CARTESIAN_POINT ( 'NONE',  ( 4.996003610813200500E-016, 2.442490654175340100E-015, 2.574853212768049900 ) ) ;
#222 =( BOUNDED_SURFACE ( )  B_SPLINE_SURFACE ( 3, 3, ( 
 ( #159, #104, #35, #201 ),
 ( #285, #263, #13, #58 ),
 ( #220, #15, #203, #84 ),
 ( #223, #224, #154, #107 ) ),
 .UNSPECIFIED., .F., .F., .F. ) 
 B_SPLINE_SURFACE_WITH_KNOTS ( ( 4, 4 ),
 ( 4, 4 ),
 ( 0.0000000000000000000, 1.000000000000000000 ),
 ( 0.0000000000000000000, 1.000000000000000000 ),
 .UNSPECIFIED. ) 
 GEOMETRIC_REPRESENTATION_ITEM ( )  RATIONAL_B_SPLINE_SURFACE ( (
 ( 1.000000000000000000, 0.9996222715052134300, 0.9996222715052134300, 1.000000000000000000),
 ( 0.9984714495104816100, 0.9980942983927706400, 0.9980942983927706400, 0.9984714495104816100),
 ( 0.9984714495104816100, 0.9980942983927706400, 0.9980942983927706400, 0.9984714495104816100),
 ( 1.000000000000000000, 0.9996222715052134300, 0.9996222715052134300, 1.000000000000000000) ) ) 
 REPRESENTATION_ITEM ( '' )  SURFACE ( )  );
#223 = CARTESIAN_POINT ( 'NONE',  ( -12.74679183000852800, 12.85216827353894900, 0.8646830121126214400 ) ) ;
#224 = CARTESIAN_POINT ( 'NONE',  ( -8.503482005505894400, 12.85216827353895000, 0.5785534789385072800 ) ) ;
#225 = ORIENTED_EDGE ( 'NONE', *, *, #98, .F. ) ;
#226 = CIRCLE ( 'NONE', #28, 12.69999999999999900 ) ;
#227 = CARTESIAN_POINT ( 'NONE',  ( 4.252945846877822500, -12.85216827353927200, 2.564592393060706400 ) ) ;
#228 = CARTESIAN_POINT ( 'NONE',  ( 8.503482005505826900, 12.85216827353895400, 0.5785534789385061700 ) ) ;
#229 = AXIS2_PLACEMENT_3D ( 'NONE', #282, #241, #152 ) ;
#230 = CYLINDRICAL_SURFACE ( 'NONE', #256, 12.69999999999999900 ) ;
#231 = COORDINATED_UNIVERSAL_TIME_OFFSET ( 2, 0, .AHEAD. ) ;
#232 = EDGE_LOOP ( 'NONE', ( #46, #140, #216, #130, #40, #187 ) ) ;
#233 = VERTEX_POINT ( 'NONE', #115 ) ;
#234 = CC_DESIGN_DATE_AND_TIME_ASSIGNMENT ( #131, #212, ( #197 ) ) ;
#235 = CYLINDRICAL_SURFACE ( 'NONE', #279, 12.69999999999999900 ) ;
#236 = CARTESIAN_POINT ( 'NONE',  ( -6.317824395383307300E-015, 4.290614512092526300, 3.145358056107598900 ) ) ;
#237 = DIRECTION ( 'NONE',  ( 1.000000000000000000, 0.0000000000000000000, 0.0000000000000000000 ) ) ;
#238 = CARTESIAN_POINT ( 'NONE',  ( -1.141061391405814200E-014, -12.85216827353927200, 2.564592393060699700 ) ) ;
#239 = ORIENTED_EDGE ( 'NONE', *, *, #123, .F. ) ;
#240 = CARTESIAN_POINT ( 'NONE',  ( 4.265982398369939000, 4.290614512092525400, 3.145358056107604700 ) ) ;
#241 = DIRECTION ( 'NONE',  ( -1.000000000000000000, 3.060408213568409900E-016, -2.644815545326620100E-016 ) ) ;
#242 = PRODUCT_DEFINITION ( 'UNKNOWN', '', #180, #83 ) ;
#243 = CARTESIAN_POINT ( 'NONE',  ( 12.74679183000845300, -12.85216827353900400, 0.8646830121126194400 ) ) ;
#244 = ORIENTED_EDGE ( 'NONE', *, *, #56, .T. ) ;
#245 = PERSON_AND_ORGANIZATION ( #247, #271 ) ;
#246 = DIRECTION ( 'NONE',  ( 1.000000000000000000, 0.0000000000000000000, 0.0000000000000000000 ) ) ;
#247 = PERSON ( 'UNSPECIFIED', 'UNSPECIFIED', 'UNSPECIFIED', ('UNSPECIFIED'), ('UNSPECIFIED'), ('UNSPECIFIED') ) ;
#248 = CC_DESIGN_APPROVAL ( #213, ( #197 ) ) ;
#249 = CARTESIAN_POINT ( 'NONE',  ( 12.74679183000844400, 12.85216827353895600, 0.8646830121126194400 ) ) ;
#250 = CARTESIAN_POINT ( 'NONE',  ( 1.136675800818668800E-014, -12.69999999999991900, 0.4251467872319393300 ) ) ;
#251 = LOCAL_TIME ( 10, 10, 58.00000000000000000, #231 ) ;
#252 = APPROVAL_STATUS ( 'not_yet_approved' ) ;
#253 = CIRCLE ( 'NONE', #142, 12.69999999999999900 ) ;
#254 = CARTESIAN_POINT ( 'NONE',  ( -8.503482005505816200, 12.85216827353923500, 2.421446521061495700 ) ) ;
#255 = CC_DESIGN_PERSON_AND_ORGANIZATION_ASSIGNMENT ( #211, #117, ( #180 ) ) ;
#256 = AXIS2_PLACEMENT_3D ( 'NONE', #172, #195, #52 ) ;
#257 = DIRECTION ( 'NONE',  ( -0.0000000000000000000, -0.0000000000000000000, -1.000000000000000000 ) ) ;
#258 = FACE_OUTER_BOUND ( 'NONE', #163, .T. ) ;
#259 = PERSON_AND_ORGANIZATION ( #247, #271 ) ;
#260 =( BOUNDED_SURFACE ( )  B_SPLINE_SURFACE ( 3, 3, ( 
 ( #238, #127, #281, #7 ),
 ( #148, #30, #26, #198 ),
 ( #236, #199, #54, #217 ),
 ( #101, #122, #254, #80 ) ),
 .UNSPECIFIED., .F., .F., .F. ) 
 B_SPLINE_SURFACE_WITH_KNOTS ( ( 4, 4 ),
 ( 4, 4 ),
 ( 0.0000000000000000000, 1.000000000000000000 ),
 ( 0.0000000000000000000, 1.000000000000000000 ),
 .UNSPECIFIED. ) 
 GEOMETRIC_REPRESENTATION_ITEM ( )  RATIONAL_B_SPLINE_SURFACE ( (
 ( 1.000000000000000000, 0.9996222715052134300, 0.9996222715052134300, 1.000000000000000000),
 ( 0.9984714495104816100, 0.9980942983927706400, 0.9980942983927706400, 0.9984714495104816100),
 ( 0.9984714495104816100, 0.9980942983927706400, 0.9980942983927706400, 0.9984714495104816100),
 ( 1.000000000000000000, 0.9996222715052134300, 0.9996222715052134300, 1.000000000000000000) ) ) 
 REPRESENTATION_ITEM ( '' )  SURFACE ( )  );
#261 = CARTESIAN_POINT ( 'NONE',  ( 8.503482005505894400, 12.85216827353923100, 2.421446521061495300 ) ) ;
#262 = VECTOR ( 'NONE', #265, 1000.000000000000000 ) ;
#263 = CARTESIAN_POINT ( 'NONE',  ( -8.529547722074656900, -4.290614512092482800, -0.001773399181776824200 ) ) ;
#264 = CARTESIAN_POINT ( 'NONE',  ( 4.265982398369939000, -4.290614512092566300, 3.145358056107602000 ) ) ;
#265 = DIRECTION ( 'NONE',  ( 0.0000000000000000000, 0.0000000000000000000, 1.000000000000000000 ) ) ;
#266 = CARTESIAN_POINT ( 'NONE',  ( 4.996003610813200500E-016, 2.442490654175340100E-015, 0.4251467872319449900 ) ) ;
#267 = ADVANCED_FACE ( 'NONE', ( #124 ), #155, .T. ) ;
#268 = APPROVAL_ROLE ( '' ) ;
#269 = CARTESIAN_POINT ( 'NONE',  ( 8.529547722074600100, -4.290614512092478300, -0.001773399181777908000 ) ) ;
#270 = DIRECTION ( 'NONE',  ( 1.000000000000000000, 0.0000000000000000000, 0.0000000000000000000 ) ) ;
#271 = ORGANIZATION ( 'UNSPECIFIED', 'UNSPECIFIED', '' ) ;
#272 = CARTESIAN_POINT ( 'NONE',  ( 8.944030774196045200E-015, -4.290614512092481000, -0.1453580561075679700 ) ) ;
#273 = VERTEX_POINT ( 'NONE', #45 ) ;
#274 = LINE ( 'NONE', #146, #31 ) ;
#275 = APPROVAL_PERSON_ORGANIZATION ( #60, #213, #74 ) ;
#276 = PRODUCT_DEFINITION_SHAPE ( 'NONE', 'NONE',  #242 ) ;
#277 = PRODUCT_RELATED_PRODUCT_CATEGORY ( 'detail', '', ( #27 ) ) ;
#278 = CARTESIAN_POINT ( 'NONE',  ( 4.996003610813200500E-016, 2.442490654175340100E-015, 2.574853212768049900 ) ) ;
#279 = AXIS2_PLACEMENT_3D ( 'NONE', #293, #210, #246 ) ;
#280 = DIRECTION ( 'NONE',  ( -0.0000000000000000000, -0.0000000000000000000, -1.000000000000000000 ) ) ;
#281 = CARTESIAN_POINT ( 'NONE',  ( -8.503482005505823300, -12.85216827353926800, 2.421446521061495700 ) ) ;
#282 = CARTESIAN_POINT ( 'NONE',  ( 4.263256414560599900E-014, -5.684341886080800200E-014, -186.9000000000000100 ) ) ;
#283 = CIRCLE ( 'NONE', #157, 12.69999999999999900 ) ;
#284 = CARTESIAN_POINT ( 'NONE',  ( 4.163336342344337000E-014, 12.85216827353923300, 2.564592393060706000 ) ) ;
#285 = CARTESIAN_POINT ( 'NONE',  ( -12.78586456077775300, -4.290614512092484600, 0.2852332066208019300 ) ) ;
#286 = ORIENTED_EDGE ( 'NONE', *, *, #78, .T. ) ;
#287 = DIRECTION ( 'NONE',  ( -0.0000000000000000000, -0.0000000000000000000, -1.000000000000000000 ) ) ;
#288 = CARTESIAN_POINT ( 'NONE',  ( 4.996003610813200500E-016, 2.442490654175340100E-015, 2.574853212768049900 ) ) ;
#289 = AXIS2_PLACEMENT_3D ( 'NONE', #221, #63, #55 ) ;
#290 = DIRECTION ( 'NONE',  ( 1.000000000000000000, 0.0000000000000000000, 0.0000000000000000000 ) ) ;
#291 = VERTEX_POINT ( 'NONE', #43 ) ;
#292 = CARTESIAN_POINT ( 'NONE',  ( 12.78586456077768000, -4.290614512092476600, 0.2852332066208000900 ) ) ;
#293 = CARTESIAN_POINT ( 'NONE',  ( 4.996003610813200500E-016, 2.442490654175340100E-015, 0.4251467872319449900 ) ) ;
#294 = EDGE_CURVE ( 'NONE', #120, #273, #253, .T. ) ;
#295 = ORIENTED_EDGE ( 'NONE', *, *, #62, .T. ) ;
ENDSEC;
END-ISO-10303-21;
