ISO-10303-21;
HEADER;
FILE_DESCRIPTION (( 'STEP AP203' ),
    '1' );
FILE_NAME ('111-1222E UVFS bi-cx 25.4 F150.STEP',
    '2019-01-08T12:34:41',
    ( '' ),
    ( '' ),
    'SwSTEP 2.0',
    'SolidWorks 2017',
    '' );
FILE_SCHEMA (( 'CONFIG_CONTROL_DESIGN' ));
ENDSEC;

DATA;
#1 = PERSON_AND_ORGANIZATION ( #43, #184 ) ;
#2 = ORIENTED_EDGE ( 'NONE', *, *, #40, .F. ) ;
#3 = CARTESIAN_POINT ( 'NONE',  ( -12.72378158239945400, -12.85198673990520000, 1.153899029832594600 ) ) ;
#4 = ORIENTED_EDGE ( 'NONE', *, *, #192, .T. ) ;
#5 = DATE_AND_TIME ( #133, #252 ) ;
#6 = CARTESIAN_POINT ( 'NONE',  ( 1.256517712878278700E-014, -12.70000000000002100, 0.5678582677874050000 ) ) ;
#7 = CARTESIAN_POINT ( 'NONE',  ( 12.72378158239944300, -12.85198673990519500, 1.153899029832586200 ) ) ;
#8 = CARTESIAN_POINT ( 'NONE',  ( -12.79344729740385800, -4.295699510462530000, 0.3810907274822896700 ) ) ;
#9 = CARTESIAN_POINT ( 'NONE',  ( -4.271671259041702300, 4.295699510462548600, 3.394382706310802100 ) ) ;
#10 = CARTESIAN_POINT ( 'NONE',  ( 9.071747845895026900E-015, 4.295699510462553900, -0.1943827063107957700 ) ) ;
#11 = EDGE_CURVE ( 'NONE', #235, #140, #178, .T. ) ;
#12 = CARTESIAN_POINT ( 'NONE',  ( -12.79344729740386000, 4.295699510462550400, 0.3810907274822895600 ) ) ;
#13 =( LENGTH_UNIT ( ) NAMED_UNIT ( * ) SI_UNIT ( .MILLI., .METRE. ) );
#14 = CARTESIAN_POINT ( 'NONE',  ( 12.72378158239946100, 12.85198673990520600, 2.046100970167414000 ) ) ;
#15 = DATE_TIME_ROLE ( 'creation_date' ) ;
#16 = CARTESIAN_POINT ( 'NONE',  ( -4.271671259041704100, -4.295699510462520200, 3.394382706310802100 ) ) ;
#17 = ADVANCED_BREP_SHAPE_REPRESENTATION ( '111-1222E UVFS bi-cx 25.4 F150', ( #262, #23 ), #173 ) ;
#18 = DIRECTION ( 'NONE',  ( -1.000000000000000000, 2.042064370192000000E-016, 2.990923078388510200E-017 ) ) ;
#19 = CIRCLE ( 'NONE', #153, 142.3000000000000100 ) ;
#20 = CLOSED_SHELL ( 'NONE', ( #180, #227, #46, #135, #276, #181 ) ) ;
#21 = CC_DESIGN_PERSON_AND_ORGANIZATION_ASSIGNMENT ( #119, #195, ( #121 ) ) ;
#22 = CIRCLE ( 'NONE', #185, 12.69999999999999900 ) ;
#23 = AXIS2_PLACEMENT_3D ( 'NONE', #37, #270, #134 ) ;
#24 = DIRECTION ( 'NONE',  ( -0.0000000000000000000, -0.0000000000000000000, -1.000000000000000000 ) ) ;
#25 = CARTESIAN_POINT ( 'NONE',  ( 4.996003610813200500E-016, 2.442490654175340100E-015, 2.632141732212600200 ) ) ;
#26 = DIRECTION ( 'NONE',  ( 0.0000000000000000000, 0.0000000000000000000, 1.000000000000000000 ) ) ;
#27 = DATE_AND_TIME ( #211, #277 ) ;
#28 = PRODUCT_RELATED_PRODUCT_CATEGORY ( 'detail', '', ( #121 ) ) ;
#29 = CARTESIAN_POINT ( 'NONE',  ( -12.69999999999999900, 3.997792089092478900E-015, 0.5678582677874020000 ) ) ;
#30 = EDGE_CURVE ( 'NONE', #47, #183, #19, .T. ) ;
#31 = CARTESIAN_POINT ( 'NONE',  ( -1.256517712878279000E-014, -12.70000000000002100, 2.632141732212600600 ) ) ;
#32 = ORIENTED_EDGE ( 'NONE', *, *, #68, .F. ) ;
#33 = APPROVAL_STATUS ( 'not_yet_approved' ) ;
#34 = CARTESIAN_POINT ( 'NONE',  ( 4.996003610813200500E-016, 2.442490654175340100E-015, 0.5678582677874020000 ) ) ;
#35 = APPLICATION_CONTEXT ( 'configuration controlled 3d designs of mechanical parts and assemblies' ) ;
#36 = CARTESIAN_POINT ( 'NONE',  ( -4.271671259041710300, 4.295699510462553900, -0.1943827063107892400 ) ) ;
#37 = CARTESIAN_POINT ( 'NONE',  ( 0.0000000000000000000, 0.0000000000000000000, 0.0000000000000000000 ) ) ;
#38 = CARTESIAN_POINT ( 'NONE',  ( -2.949029909160572100E-014, 12.85198673990522300, 0.5815592915399734300 ) ) ;
#39 = CIRCLE ( 'NONE', #115, 12.69999999999999900 ) ;
#40 = EDGE_CURVE ( 'NONE', #186, #140, #39, .T. ) ;
#41 = CARTESIAN_POINT ( 'NONE',  ( 8.492528873422625000, 12.85198673990520600, 2.427532231243030700 ) ) ;
#42 = CARTESIAN_POINT ( 'NONE',  ( -12.69999999999999900, 3.997792089092478900E-015, 0.5678582677874020000 ) ) ;
#43 = PERSON ( 'UNSPECIFIED', 'UNSPECIFIED', 'UNSPECIFIED', ('UNSPECIFIED'), ('UNSPECIFIED'), ('UNSPECIFIED') ) ;
#44 = ORIENTED_EDGE ( 'NONE', *, *, #176, .T. ) ;
#45 = ORIENTED_EDGE ( 'NONE', *, *, #40, .T. ) ;
#46 = ADVANCED_FACE ( 'NONE', ( #145 ), #266, .T. ) ;
#47 = VERTEX_POINT ( 'NONE', #6 ) ;
#48 = EDGE_CURVE ( 'NONE', #183, #235, #251, .T. ) ;
#49 = DATE_AND_TIME ( #104, #162 ) ;
#50 = APPROVAL ( #216, 'UNSPECIFIED' ) ;
#51 = APPROVAL_PERSON_ORGANIZATION ( #231, #90, #142 ) ;
#52 = DIRECTION ( 'NONE',  ( 1.000000000000000000, -1.776356839400250500E-015, 0.0000000000000000000 ) ) ;
#53 = VECTOR ( 'NONE', #269, 1000.000000000000000 ) ;
#54 = CARTESIAN_POINT ( 'NONE',  ( 12.72378158239945400, -12.85198673990518300, 2.046100970167414000 ) ) ;
#55 = CARTESIAN_POINT ( 'NONE',  ( -8.492528873422625000, 12.85198673990520900, 2.427532231243040100 ) ) ;
#56 = CARTESIAN_POINT ( 'NONE',  ( 12.72378158239944000, 12.85198673990522700, 1.153899029832586200 ) ) ;
#57 =( NAMED_UNIT ( * ) PLANE_ANGLE_UNIT ( ) SI_UNIT ( $, .RADIAN. ) );
#58 = DIRECTION ( 'NONE',  ( -0.0000000000000000000, -0.0000000000000000000, -1.000000000000000000 ) ) ;
#59 = APPROVAL_DATE_TIME ( #241, #90 ) ;
#60 = AXIS2_PLACEMENT_3D ( 'NONE', #25, #189, #61 ) ;
#61 = DIRECTION ( 'NONE',  ( 1.000000000000000000, 8.881784197001252300E-016, 0.0000000000000000000 ) ) ;
#62 = CARTESIAN_POINT ( 'NONE',  ( 4.248410207848317000, 12.85198673990520700, 2.618440708460033000 ) ) ;
#63 = CARTESIAN_POINT ( 'NONE',  ( 2.775557561562891400E-014, 12.85198673990520900, 2.618440708460034700 ) ) ;
#64 = ORIENTED_EDGE ( 'NONE', *, *, #192, .F. ) ;
#65 = APPROVAL_DATE_TIME ( #5, #50 ) ;
#66 = EDGE_LOOP ( 'NONE', ( #198, #207, #210 ) ) ;
#67 = ORIENTED_EDGE ( 'NONE', *, *, #95, .F. ) ;
#68 = EDGE_CURVE ( 'NONE', #140, #191, #255, .T. ) ;
#69 = ORIENTED_EDGE ( 'NONE', *, *, #11, .F. ) ;
#70 = PRODUCT_DEFINITION_FORMATION_WITH_SPECIFIED_SOURCE ( 'ANY', '', #121, .NOT_KNOWN. ) ;
#71 = PERSON_AND_ORGANIZATION ( #43, #184 ) ;
#72 = CARTESIAN_POINT ( 'NONE',  ( 4.996003610813200500E-016, 2.442490654175340100E-015, 0.5678582677874020000 ) ) ;
#73 = PERSON_AND_ORGANIZATION ( #43, #184 ) ;
#74 = DESIGN_CONTEXT ( 'detailed design', #130, 'design' ) ;
#75 = DIRECTION ( 'NONE',  ( -0.0000000000000000000, -0.0000000000000000000, -1.000000000000000000 ) ) ;
#76 = AXIS2_PLACEMENT_3D ( 'NONE', #158, #233, #92 ) ;
#77 = CARTESIAN_POINT ( 'NONE',  ( 8.539027478599930300, 4.295699510462556600, -0.002428960006172333000 ) ) ;
#78 = CARTESIAN_POINT ( 'NONE',  ( 4.248410207848301900, -12.85198673990519500, 0.5815592915399679900 ) ) ;
#79 = CARTESIAN_POINT ( 'NONE',  ( -4.248410207848307300, 12.85198673990520900, 2.618440708460040100 ) ) ;
#80 = CARTESIAN_POINT ( 'NONE',  ( -8.539027478599949800, 4.295699510462552200, -0.002428960006165339900 ) ) ;
#81 = CARTESIAN_POINT ( 'NONE',  ( -4.248410207848318800, 12.85198673990522200, 0.5815592915399746500 ) ) ;
#82 = DIRECTION ( 'NONE',  ( 1.000000000000000000, 0.0000000000000000000, 0.0000000000000000000 ) ) ;
#83 = CARTESIAN_POINT ( 'NONE',  ( -8.492528873422632100, -12.85198673990517900, 2.427532231243040100 ) ) ;
#84 = PERSON_AND_ORGANIZATION ( #43, #184 ) ;
#85 = CARTESIAN_POINT ( 'NONE',  ( -9.071747845895031700E-015, 4.295699510462546800, 3.394382706310802100 ) ) ;
#86 = EDGE_CURVE ( 'NONE', #214, #186, #88, .T. ) ;
#87 = CARTESIAN_POINT ( 'NONE',  ( 8.539027478599949800, 4.295699510462546800, 3.202428960006170800 ) ) ;
#88 = CIRCLE ( 'NONE', #60, 12.69999999999999900 ) ;
#89 = CIRCLE ( 'NONE', #272, 12.69999999999999900 ) ;
#90 = APPROVAL ( #33, 'UNSPECIFIED' ) ;
#91 = EDGE_LOOP ( 'NONE', ( #260, #32, #2 ) ) ;
#92 = DIRECTION ( 'NONE',  ( 1.000000000000000000, 0.0000000000000000000, 0.0000000000000000000 ) ) ;
#93 = CC_DESIGN_APPROVAL ( #268, ( #70 ) ) ;
#94 = COORDINATED_UNIVERSAL_TIME_OFFSET ( 2, 0, .AHEAD. ) ;
#95 = EDGE_CURVE ( 'NONE', #47, #99, #152, .T. ) ;
#96 = UNCERTAINTY_MEASURE_WITH_UNIT (LENGTH_MEASURE( 1.000000000000000100E-005 ), #13, 'distance_accuracy_value', 'NONE');
#97 = CARTESIAN_POINT ( 'NONE',  ( 12.69999999999999900, 2.442490654175340100E-015, 0.5678582677874020000 ) ) ;
#98 = CARTESIAN_POINT ( 'NONE',  ( 1.259662358649437600E-014, -12.85198673990519700, 0.5815592915399681000 ) ) ;
#99 = VERTEX_POINT ( 'NONE', #29 ) ;
#100 = CARTESIAN_POINT ( 'NONE',  ( 4.996003610813200500E-016, 2.442490654175340100E-015, 2.632141732212600200 ) ) ;
#101 = DIRECTION ( 'NONE',  ( 0.0000000000000000000, 0.0000000000000000000, 1.000000000000000000 ) ) ;
#102 =( BOUNDED_SURFACE ( )  B_SPLINE_SURFACE ( 3, 3, ( 
 ( #98, #78, #143, #7 ),
 ( #201, #164, #138, #244 ),
 ( #10, #197, #77, #166 ),
 ( #123, #257, #120, #56 ) ),
 .UNSPECIFIED., .F., .F., .F. ) 
 B_SPLINE_SURFACE_WITH_KNOTS ( ( 4, 4 ),
 ( 4, 4 ),
 ( 0.0000000000000000000, 1.000000000000000000 ),
 ( 0.0000000000000000000, 1.000000000000000000 ),
 .UNSPECIFIED. ) 
 GEOMETRIC_REPRESENTATION_ITEM ( )  RATIONAL_B_SPLINE_SURFACE ( (
 ( 1.000000000000000000, 0.9993265649872110600, 0.9993265649872110600, 1.000000000000000000),
 ( 0.9972754308196769600, 0.9966038306271688400, 0.9966038306271688400, 0.9972754308196769600),
 ( 0.9972754308196769600, 0.9966038306271688400, 0.9966038306271688400, 0.9972754308196769600),
 ( 1.000000000000000000, 0.9993265649872110600, 0.9993265649872110600, 1.000000000000000000) ) ) 
 REPRESENTATION_ITEM ( '' )  SURFACE ( )  );
#103 = ORIENTED_EDGE ( 'NONE', *, *, #176, .F. ) ;
#104 = CALENDAR_DATE ( 2019, 8, 1 ) ;
#105 = CARTESIAN_POINT ( 'NONE',  ( -12.72378158239947200, 12.85198673990521100, 2.046100970167422000 ) ) ;
#106 = EDGE_CURVE ( 'NONE', #191, #214, #22, .T. ) ;
#107 = CARTESIAN_POINT ( 'NONE',  ( 2.775557561562891000E-014, 4.295699510462546800, 3.394382706310795900 ) ) ;
#108 = SECURITY_CLASSIFICATION_LEVEL ( 'unclassified' ) ;
#109 = CARTESIAN_POINT ( 'NONE',  ( -12.69999999999999900, 3.997792089092478900E-015, 2.632141732212600200 ) ) ;
#110 = CC_DESIGN_PERSON_AND_ORGANIZATION_ASSIGNMENT ( #1, #202, ( #116 ) ) ;
#111 = CARTESIAN_POINT ( 'NONE',  ( 2.081668171172168500E-014, -12.85198673990517900, 2.618440708460034300 ) ) ;
#112 = CALENDAR_DATE ( 2019, 8, 1 ) ;
#113 = AXIS2_PLACEMENT_3D ( 'NONE', #271, #203, #205 ) ;
#114 = ORIENTED_EDGE ( 'NONE', *, *, #30, .T. ) ;
#115 = AXIS2_PLACEMENT_3D ( 'NONE', #212, #75, #163 ) ;
#116 = PRODUCT_DEFINITION ( 'UNKNOWN', '', #70, #74 ) ;
#117 = DIRECTION ( 'NONE',  ( 1.000000000000000000, 2.042064370192000000E-016, -2.990923078388510200E-017 ) ) ;
#118 = CC_DESIGN_DATE_AND_TIME_ASSIGNMENT ( #228, #128, ( #182 ) ) ;
#119 = PERSON_AND_ORGANIZATION ( #43, #184 ) ;
#120 = CARTESIAN_POINT ( 'NONE',  ( 8.492528873422603700, 12.85198673990522700, 0.7724677687569705400 ) ) ;
#121 = PRODUCT ( '111-1222E UVFS bi-cx 25.4 F150', '111-1222E UVFS bi-cx 25.4 F150', '', ( #264 ) ) ;
#122 = CARTESIAN_POINT ( 'NONE',  ( -2.775557561562891000E-014, 4.295699510462553900, -0.1943827063107904100 ) ) ;
#123 = CARTESIAN_POINT ( 'NONE',  ( 7.347706744946283500E-015, 12.85198673990522500, 0.5815592915399681000 ) ) ;
#124 = APPLICATION_PROTOCOL_DEFINITION ( 'international standard', 'config_control_design', 1994, #35 ) ;
#125 = ORIENTED_EDGE ( 'NONE', *, *, #86, .F. ) ;
#126 = EDGE_LOOP ( 'NONE', ( #64, #67, #103, #132, #281, #219 ) ) ;
#127 = LOCAL_TIME ( 14, 34, 41.00000000000000000, #249 ) ;
#128 = DATE_TIME_ROLE ( 'classification_date' ) ;
#129 = CARTESIAN_POINT ( 'NONE',  ( 8.492528873422617900, -12.85198673990518300, 2.427532231243030700 ) ) ;
#130 = APPLICATION_CONTEXT ( 'configuration controlled 3d designs of mechanical parts and assemblies' ) ;
#131 = CARTESIAN_POINT ( 'NONE',  ( -4.248410207848313500, -12.85198673990517900, 2.618440708460040100 ) ) ;
#132 = ORIENTED_EDGE ( 'NONE', *, *, #11, .T. ) ;
#133 = CALENDAR_DATE ( 2019, 8, 1 ) ;
#134 = DIRECTION ( 'NONE',  ( 1.000000000000000000, 0.0000000000000000000, 0.0000000000000000000 ) ) ;
#135 = ADVANCED_FACE ( 'NONE', ( #141 ), #154, .T. ) ;
#136 = CC_DESIGN_SECURITY_CLASSIFICATION ( #182, ( #70 ) ) ;
#137 = ORIENTED_EDGE ( 'NONE', *, *, #187, .F. ) ;
#138 = CARTESIAN_POINT ( 'NONE',  ( 8.539027478599932100, -4.295699510462524600, -0.002428960006172333000 ) ) ;
#139 = CARTESIAN_POINT ( 'NONE',  ( -2.255140518769849200E-014, -12.85198673990519900, 0.5815592915399736600 ) ) ;
#140 = VERTEX_POINT ( 'NONE', #259 ) ;
#141 = FACE_OUTER_BOUND ( 'NONE', #66, .T. ) ;
#142 = APPROVAL_ROLE ( '' ) ;
#143 = CARTESIAN_POINT ( 'NONE',  ( 8.492528873422607200, -12.85198673990519500, 0.7724677687569706500 ) ) ;
#144 = PERSON_AND_ORGANIZATION_ROLE ( 'design_supplier' ) ;
#145 = FACE_OUTER_BOUND ( 'NONE', #160, .T. ) ;
#146 = CARTESIAN_POINT ( 'NONE',  ( 4.271671259041706700, -4.295699510462522000, 3.394382706310794500 ) ) ;
#147 = FACE_OUTER_BOUND ( 'NONE', #126, .T. ) ;
#148 = APPROVAL_ROLE ( '' ) ;
#149 = CARTESIAN_POINT ( 'NONE',  ( 4.271671259041710300, 4.295699510462546800, 3.394382706310794500 ) ) ;
#150 = APPROVAL_ROLE ( '' ) ;
#151 = AXIS2_PLACEMENT_3D ( 'NONE', #172, #101, #293 ) ;
#152 = CIRCLE ( 'NONE', #253, 12.69999999999999900 ) ;
#153 = AXIS2_PLACEMENT_3D ( 'NONE', #161, #117, #190 ) ;
#154 =( BOUNDED_SURFACE ( )  B_SPLINE_SURFACE ( 3, 3, ( 
 ( #3, #194, #286, #139 ),
 ( #8, #236, #237, #169 ),
 ( #12, #80, #36, #122 ),
 ( #200, #171, #81, #38 ) ),
 .UNSPECIFIED., .F., .F., .F. ) 
 B_SPLINE_SURFACE_WITH_KNOTS ( ( 4, 4 ),
 ( 4, 4 ),
 ( 0.0000000000000000000, 1.000000000000000000 ),
 ( 0.0000000000000000000, 1.000000000000000000 ),
 .UNSPECIFIED. ) 
 GEOMETRIC_REPRESENTATION_ITEM ( )  RATIONAL_B_SPLINE_SURFACE ( (
 ( 1.000000000000000000, 0.9993265649872110600, 0.9993265649872110600, 1.000000000000000000),
 ( 0.9972754308196769600, 0.9966038306271688400, 0.9966038306271688400, 0.9972754308196769600),
 ( 0.9972754308196769600, 0.9966038306271688400, 0.9966038306271688400, 0.9972754308196769600),
 ( 1.000000000000000000, 0.9993265649872110600, 0.9993265649872110600, 1.000000000000000000) ) ) 
 REPRESENTATION_ITEM ( '' )  SURFACE ( )  );
#155 = CYLINDRICAL_SURFACE ( 'NONE', #151, 12.69999999999999900 ) ;
#156 = EDGE_LOOP ( 'NONE', ( #44, #114, #290 ) ) ;
#157 = LOCAL_TIME ( 14, 34, 41.00000000000000000, #287 ) ;
#158 = CARTESIAN_POINT ( 'NONE',  ( 4.996003610813200500E-016, 2.442490654175340100E-015, 2.632141732212600200 ) ) ;
#159 = CC_DESIGN_DATE_AND_TIME_ASSIGNMENT ( #49, #15, ( #116 ) ) ;
#160 = EDGE_LOOP ( 'NONE', ( #137, #4, #275, #45, #69, #196 ) ) ;
#161 = CARTESIAN_POINT ( 'NONE',  ( 1.421085471520200100E-014, 1.421085471520200100E-014, 142.3000000000000100 ) ) ;
#162 = LOCAL_TIME ( 14, 34, 41.00000000000000000, #229 ) ;
#163 = DIRECTION ( 'NONE',  ( 1.000000000000000000, -8.881784197001252300E-016, 0.0000000000000000000 ) ) ;
#164 = CARTESIAN_POINT ( 'NONE',  ( 4.271671259041694300, -4.295699510462525500, -0.1943827063107959100 ) ) ;
#165 = CIRCLE ( 'NONE', #232, 142.3000000000000100 ) ;
#166 = CARTESIAN_POINT ( 'NONE',  ( 12.79344729740384200, 4.295699510462556600, 0.3810907274822813400 ) ) ;
#167 = CARTESIAN_POINT ( 'NONE',  ( -12.79344729740387600, 4.295699510462549500, 2.818909272517724500 ) ) ;
#168 = DIRECTION ( 'NONE',  ( -0.0000000000000000000, -0.0000000000000000000, -1.000000000000000000 ) ) ;
#169 = CARTESIAN_POINT ( 'NONE',  ( -2.602085213965210300E-014, -4.295699510462526400, -0.1943827063107901900 ) ) ;
#170 = EDGE_LOOP ( 'NONE', ( #208, #279, #125 ) ) ;
#171 = CARTESIAN_POINT ( 'NONE',  ( -8.492528873422625000, 12.85198673990522300, 0.7724677687569775400 ) ) ;
#172 = CARTESIAN_POINT ( 'NONE',  ( 4.996003610813200500E-016, 2.442490654175340100E-015, 0.5678582677874020000 ) ) ;
#173 =( GEOMETRIC_REPRESENTATION_CONTEXT ( 3 ) GLOBAL_UNCERTAINTY_ASSIGNED_CONTEXT ( ( #96 ) ) GLOBAL_UNIT_ASSIGNED_CONTEXT ( ( #13, #57, #263 ) ) REPRESENTATION_CONTEXT ( 'NONE', 'WORKASPACE' ) );
#174 = CARTESIAN_POINT ( 'NONE',  ( -7.378333628495097400E-015, 12.70000000000003500, 2.632141732212600600 ) ) ;
#175 = CARTESIAN_POINT ( 'NONE',  ( -8.539027478599953400, -4.295699510462519300, 3.202428960006180200 ) ) ;
#176 = EDGE_CURVE ( 'NONE', #235, #47, #89, .T. ) ;
#177 = CARTESIAN_POINT ( 'NONE',  ( 12.79344729740385700, -4.295699510462522900, 2.818909272517716500 ) ) ;
#178 = LINE ( 'NONE', #97, #274 ) ;
#179 = LINE ( 'NONE', #42, #53 ) ;
#180 = ADVANCED_FACE ( 'NONE', ( #248 ), #102, .T. ) ;
#181 = ADVANCED_FACE ( 'NONE', ( #280 ), #250, .T. ) ;
#182 = SECURITY_CLASSIFICATION ( '', '', #108 ) ;
#183 = VERTEX_POINT ( 'NONE', #288 ) ;
#184 = ORGANIZATION ( 'UNSPECIFIED', 'UNSPECIFIED', '' ) ;
#185 = AXIS2_PLACEMENT_3D ( 'NONE', #100, #58, #218 ) ;
#186 = VERTEX_POINT ( 'NONE', #174 ) ;
#187 = EDGE_CURVE ( 'NONE', #99, #183, #239, .T. ) ;
#188 = CALENDAR_DATE ( 2019, 8, 1 ) ;
#189 = DIRECTION ( 'NONE',  ( -0.0000000000000000000, -0.0000000000000000000, -1.000000000000000000 ) ) ;
#190 = DIRECTION ( 'NONE',  ( 2.042064370191999700E-016, -1.000000000000000000, -3.900994464599987400E-016 ) ) ;
#191 = VERTEX_POINT ( 'NONE', #31 ) ;
#192 = EDGE_CURVE ( 'NONE', #99, #214, #179, .T. ) ;
#193 = CARTESIAN_POINT ( 'NONE',  ( 4.996003610813200500E-016, 2.442490654175340100E-015, 0.5678582677874020000 ) ) ;
#194 = CARTESIAN_POINT ( 'NONE',  ( -8.492528873422617900, -12.85198673990519900, 0.7724677687569775400 ) ) ;
#195 = PERSON_AND_ORGANIZATION_ROLE ( 'design_owner' ) ;
#196 = ORIENTED_EDGE ( 'NONE', *, *, #48, .F. ) ;
#197 = CARTESIAN_POINT ( 'NONE',  ( 4.271671259041692500, 4.295699510462555700, -0.1943827063107959100 ) ) ;
#198 = ORIENTED_EDGE ( 'NONE', *, *, #30, .F. ) ;
#199 = PERSON_AND_ORGANIZATION ( #43, #184 ) ;
#200 = CARTESIAN_POINT ( 'NONE',  ( -12.72378158239946100, 12.85198673990522200, 1.153899029832594600 ) ) ;
#201 = CARTESIAN_POINT ( 'NONE',  ( 1.082616682896838000E-014, -4.295699510462526400, -0.1943827063107957700 ) ) ;
#202 = PERSON_AND_ORGANIZATION_ROLE ( 'creator' ) ;
#203 = DIRECTION ( 'NONE',  ( -0.0000000000000000000, -0.0000000000000000000, -1.000000000000000000 ) ) ;
#204 = PERSON_AND_ORGANIZATION_ROLE ( 'creator' ) ;
#205 = DIRECTION ( 'NONE',  ( 1.000000000000000000, 8.881784197001252300E-016, 0.0000000000000000000 ) ) ;
#206 = CARTESIAN_POINT ( 'NONE',  ( 2.428612866367529600E-014, -4.295699510462521100, 3.394382706310795900 ) ) ;
#207 = ORIENTED_EDGE ( 'NONE', *, *, #95, .T. ) ;
#208 = ORIENTED_EDGE ( 'NONE', *, *, #106, .F. ) ;
#209 = EDGE_CURVE ( 'NONE', #191, #186, #165, .T. ) ;
#210 = ORIENTED_EDGE ( 'NONE', *, *, #187, .T. ) ;
#211 = CALENDAR_DATE ( 2019, 8, 1 ) ;
#212 = CARTESIAN_POINT ( 'NONE',  ( 4.996003610813200500E-016, 2.442490654175340100E-015, 2.632141732212600200 ) ) ;
#213 = CARTESIAN_POINT ( 'NONE',  ( 4.248410207848309900, -12.85198673990518100, 2.618440708460032500 ) ) ;
#214 = VERTEX_POINT ( 'NONE', #109 ) ;
#215 = CARTESIAN_POINT ( 'NONE',  ( -7.347706744946289800E-015, 12.85198673990520700, 2.618440708460040500 ) ) ;
#216 = APPROVAL_STATUS ( 'not_yet_approved' ) ;
#217 = AXIS2_PLACEMENT_3D ( 'NONE', #72, #285, #254 ) ;
#218 = DIRECTION ( 'NONE',  ( 1.000000000000000000, 0.0000000000000000000, 0.0000000000000000000 ) ) ;
#219 = ORIENTED_EDGE ( 'NONE', *, *, #106, .T. ) ;
#220 = DIRECTION ( 'NONE',  ( -0.0000000000000000000, -0.0000000000000000000, -1.000000000000000000 ) ) ;
#221 = APPROVAL_PERSON_ORGANIZATION ( #282, #268, #150 ) ;
#222 = CARTESIAN_POINT ( 'NONE',  ( -12.79344729740387800, -4.295699510462518400, 2.818909272517724500 ) ) ;
#223 = CARTESIAN_POINT ( 'NONE',  ( -1.421085471520200100E-014, 1.421085471520200100E-014, -139.0999999999999900 ) ) ;
#224 = CARTESIAN_POINT ( 'NONE',  ( 12.79344729740386000, 4.295699510462545100, 2.818909272517716100 ) ) ;
#225 = AXIS2_PLACEMENT_3D ( 'NONE', #193, #24, #52 ) ;
#226 = CARTESIAN_POINT ( 'NONE',  ( 12.69999999999999900, 2.442490654175340100E-015, 0.5678582677874020000 ) ) ;
#227 = ADVANCED_FACE ( 'NONE', ( #295 ), #230, .T. ) ;
#228 = DATE_AND_TIME ( #112, #127 ) ;
#229 = COORDINATED_UNIVERSAL_TIME_OFFSET ( 2, 0, .AHEAD. ) ;
#230 =( BOUNDED_SURFACE ( )  B_SPLINE_SURFACE ( 3, 3, ( 
 ( #265, #131, #83, #246 ),
 ( #294, #16, #175, #222 ),
 ( #85, #9, #240, #167 ),
 ( #215, #79, #55, #105 ) ),
 .UNSPECIFIED., .F., .F., .T. ) 
 B_SPLINE_SURFACE_WITH_KNOTS ( ( 4, 4 ),
 ( 4, 4 ),
 ( 0.0000000000000000000, 1.000000000000000000 ),
 ( 0.0000000000000000000, 1.000000000000000000 ),
 .UNSPECIFIED. ) 
 GEOMETRIC_REPRESENTATION_ITEM ( )  RATIONAL_B_SPLINE_SURFACE ( (
 ( 1.000000000000000000, 0.9993265649872110600, 0.9993265649872110600, 1.000000000000000000),
 ( 0.9972754308196769600, 0.9966038306271688400, 0.9966038306271688400, 0.9972754308196769600),
 ( 0.9972754308196769600, 0.9966038306271688400, 0.9966038306271688400, 0.9972754308196769600),
 ( 1.000000000000000000, 0.9993265649872110600, 0.9993265649872110600, 1.000000000000000000) ) ) 
 REPRESENTATION_ITEM ( '' )  SURFACE ( )  );
#231 = PERSON_AND_ORGANIZATION ( #43, #184 ) ;
#232 = AXIS2_PLACEMENT_3D ( 'NONE', #223, #18, #292 ) ;
#233 = DIRECTION ( 'NONE',  ( -0.0000000000000000000, -0.0000000000000000000, -1.000000000000000000 ) ) ;
#234 = CC_DESIGN_PERSON_AND_ORGANIZATION_ASSIGNMENT ( #199, #204, ( #70 ) ) ;
#235 = VERTEX_POINT ( 'NONE', #226 ) ;
#236 = CARTESIAN_POINT ( 'NONE',  ( -8.539027478599946300, -4.295699510462529100, -0.002428960006165231500 ) ) ;
#237 = CARTESIAN_POINT ( 'NONE',  ( -4.271671259041708500, -4.295699510462527300, -0.1943827063107890200 ) ) ;
#238 = DIRECTION ( 'NONE',  ( 1.000000000000000000, 0.0000000000000000000, 0.0000000000000000000 ) ) ;
#239 = CIRCLE ( 'NONE', #113, 12.69999999999999900 ) ;
#240 = CARTESIAN_POINT ( 'NONE',  ( -8.539027478599951600, 4.295699510462549500, 3.202428960006180200 ) ) ;
#241 = DATE_AND_TIME ( #188, #157 ) ;
#242 = CC_DESIGN_PERSON_AND_ORGANIZATION_ASSIGNMENT ( #84, #289, ( #182 ) ) ;
#243 = APPLICATION_PROTOCOL_DEFINITION ( 'international standard', 'config_control_design', 1994, #130 ) ;
#244 = CARTESIAN_POINT ( 'NONE',  ( 12.79344729740384400, -4.295699510462523700, 0.3810907274822813400 ) ) ;
#245 = APPROVAL_STATUS ( 'not_yet_approved' ) ;
#246 = CARTESIAN_POINT ( 'NONE',  ( -12.72378158239947700, -12.85198673990517700, 2.046100970167422000 ) ) ;
#247 = COORDINATED_UNIVERSAL_TIME_OFFSET ( 2, 0, .AHEAD. ) ;
#248 = FACE_OUTER_BOUND ( 'NONE', #156, .T. ) ;
#249 = COORDINATED_UNIVERSAL_TIME_OFFSET ( 2, 0, .AHEAD. ) ;
#250 =( BOUNDED_SURFACE ( )  B_SPLINE_SURFACE ( 3, 3, ( 
 ( #54, #129, #213, #111 ),
 ( #177, #273, #146, #206 ),
 ( #224, #87, #149, #107 ),
 ( #14, #41, #62, #63 ) ),
 .UNSPECIFIED., .F., .F., .T. ) 
 B_SPLINE_SURFACE_WITH_KNOTS ( ( 4, 4 ),
 ( 4, 4 ),
 ( 0.0000000000000000000, 1.000000000000000000 ),
 ( 0.0000000000000000000, 1.000000000000000000 ),
 .UNSPECIFIED. ) 
 GEOMETRIC_REPRESENTATION_ITEM ( )  RATIONAL_B_SPLINE_SURFACE ( (
 ( 1.000000000000000000, 0.9993265649872110600, 0.9993265649872110600, 1.000000000000000000),
 ( 0.9972754308196769600, 0.9966038306271688400, 0.9966038306271688400, 0.9972754308196769600),
 ( 0.9972754308196769600, 0.9966038306271688400, 0.9966038306271688400, 0.9972754308196769600),
 ( 1.000000000000000000, 0.9993265649872110600, 0.9993265649872110600, 1.000000000000000000) ) ) 
 REPRESENTATION_ITEM ( '' )  SURFACE ( )  );
#251 = CIRCLE ( 'NONE', #225, 12.69999999999999900 ) ;
#252 = LOCAL_TIME ( 14, 34, 41.00000000000000000, #247 ) ;
#253 = AXIS2_PLACEMENT_3D ( 'NONE', #261, #220, #82 ) ;
#254 = DIRECTION ( 'NONE',  ( 1.000000000000000000, 0.0000000000000000000, 0.0000000000000000000 ) ) ;
#255 = CIRCLE ( 'NONE', #76, 12.69999999999999900 ) ;
#256 = PRODUCT_DEFINITION_SHAPE ( 'NONE', 'NONE',  #116 ) ;
#257 = CARTESIAN_POINT ( 'NONE',  ( 4.248410207848295700, 12.85198673990522700, 0.5815592915399679900 ) ) ;
#258 = CC_DESIGN_APPROVAL ( #50, ( #116 ) ) ;
#259 = CARTESIAN_POINT ( 'NONE',  ( 12.69999999999999900, 2.442490654175340100E-015, 2.632141732212600200 ) ) ;
#260 = ORIENTED_EDGE ( 'NONE', *, *, #209, .F. ) ;
#261 = CARTESIAN_POINT ( 'NONE',  ( 4.996003610813200500E-016, 2.442490654175340100E-015, 0.5678582677874020000 ) ) ;
#262 = MANIFOLD_SOLID_BREP ( 'Imported1', #20 ) ;
#263 =( NAMED_UNIT ( * ) SI_UNIT ( $, .STERADIAN. ) SOLID_ANGLE_UNIT ( ) );
#264 = MECHANICAL_CONTEXT ( 'NONE', #35, 'mechanical' ) ;
#265 = CARTESIAN_POINT ( 'NONE',  ( -1.259662358649437600E-014, -12.85198673990518100, 2.618440708460040500 ) ) ;
#266 = CYLINDRICAL_SURFACE ( 'NONE', #217, 12.69999999999999900 ) ;
#267 = APPROVAL_PERSON_ORGANIZATION ( #73, #50, #148 ) ;
#268 = APPROVAL ( #245, 'UNSPECIFIED' ) ;
#269 = DIRECTION ( 'NONE',  ( 0.0000000000000000000, 0.0000000000000000000, 1.000000000000000000 ) ) ;
#270 = DIRECTION ( 'NONE',  ( 0.0000000000000000000, 0.0000000000000000000, 1.000000000000000000 ) ) ;
#271 = CARTESIAN_POINT ( 'NONE',  ( 4.996003610813200500E-016, 2.442490654175340100E-015, 0.5678582677874020000 ) ) ;
#272 = AXIS2_PLACEMENT_3D ( 'NONE', #34, #168, #238 ) ;
#273 = CARTESIAN_POINT ( 'NONE',  ( 8.539027478599946300, -4.295699510462522000, 3.202428960006171300 ) ) ;
#274 = VECTOR ( 'NONE', #26, 1000.000000000000000 ) ;
#275 = ORIENTED_EDGE ( 'NONE', *, *, #86, .T. ) ;
#276 = ADVANCED_FACE ( 'NONE', ( #147 ), #155, .T. ) ;
#277 = LOCAL_TIME ( 14, 34, 41.00000000000000000, #94 ) ;
#278 = CC_DESIGN_PERSON_AND_ORGANIZATION_ASSIGNMENT ( #71, #144, ( #70 ) ) ;
#279 = ORIENTED_EDGE ( 'NONE', *, *, #209, .T. ) ;
#280 = FACE_OUTER_BOUND ( 'NONE', #91, .T. ) ;
#281 = ORIENTED_EDGE ( 'NONE', *, *, #68, .T. ) ;
#282 = PERSON_AND_ORGANIZATION ( #43, #184 ) ;
#283 = APPROVAL_DATE_TIME ( #27, #268 ) ;
#284 = CC_DESIGN_APPROVAL ( #90, ( #182 ) ) ;
#285 = DIRECTION ( 'NONE',  ( 0.0000000000000000000, 0.0000000000000000000, 1.000000000000000000 ) ) ;
#286 = CARTESIAN_POINT ( 'NONE',  ( -4.248410207848311700, -12.85198673990520000, 0.5815592915399747700 ) ) ;
#287 = COORDINATED_UNIVERSAL_TIME_OFFSET ( 2, 0, .AHEAD. ) ;
#288 = CARTESIAN_POINT ( 'NONE',  ( 7.378333628495095800E-015, 12.70000000000003500, 0.5678582677874050000 ) ) ;
#289 = PERSON_AND_ORGANIZATION_ROLE ( 'classification_officer' ) ;
#290 = ORIENTED_EDGE ( 'NONE', *, *, #48, .T. ) ;
#291 = SHAPE_DEFINITION_REPRESENTATION ( #256, #17 ) ;
#292 = DIRECTION ( 'NONE',  ( -2.042064370191999700E-016, -1.000000000000000000, -3.900994464599987400E-016 ) ) ;
#293 = DIRECTION ( 'NONE',  ( 1.000000000000000000, 0.0000000000000000000, 0.0000000000000000000 ) ) ;
#294 = CARTESIAN_POINT ( 'NONE',  ( -1.082616682896838200E-014, -4.295699510462521100, 3.394382706310802100 ) ) ;
#295 = FACE_OUTER_BOUND ( 'NONE', #170, .T. ) ;
ENDSEC;
END-ISO-10303-21;
