ISO-10303-21;
HEADER;
FILE_DESCRIPTION (( 'STEP AP203' ),
    '1' );
FILE_NAME ('111-1218E UVFS bi-cx 25.4 F100.STEP',
    '2019-01-07T07:28:24',
    ( '' ),
    ( '' ),
    'SwSTEP 2.0',
    'SolidWorks 2017',
    '' );
FILE_SCHEMA (( 'CONFIG_CONTROL_DESIGN' ));
ENDSEC;

DATA;
#1 = EDGE_CURVE ( 'NONE', #27, #187, #130, .T. ) ;
#2 = CIRCLE ( 'NONE', #66, 12.69999999999999900 ) ;
#3 = COORDINATED_UNIVERSAL_TIME_OFFSET ( 2, 0, .AHEAD. ) ;
#4 = AXIS2_PLACEMENT_3D ( 'NONE', #185, #100, #53 ) ;
#5 = CARTESIAN_POINT ( 'NONE',  ( -4.235248883598415200, 12.85146032005298600, 0.8773785185208201600 ) ) ;
#6 = LOCAL_TIME ( 9, 28, 24.00000000000000000, #62 ) ;
#7 = CARTESIAN_POINT ( 'NONE',  ( 8.566594582994438800, 4.310483428487762200, 4.003929016874169900 ) ) ;
#8 = CARTESIAN_POINT ( 'NONE',  ( 3.660863634781264200E-014, -12.85146032005303100, 3.122621481479168200 ) ) ;
#9 = CARTESIAN_POINT ( 'NONE',  ( -8.566594582994380100, -4.310483428487748900, 4.003929016874169000 ) ) ;
#10 = CC_DESIGN_PERSON_AND_ORGANIZATION_ASSIGNMENT ( #68, #265, ( #188 ) ) ;
#11 = CARTESIAN_POINT ( 'NONE',  ( 4.996003610813200500E-016, 2.442490654175340100E-015, 0.8567257775908879700 ) ) ;
#12 = COORDINATED_UNIVERSAL_TIME_OFFSET ( 2, 0, .AHEAD. ) ;
#13 =( LENGTH_UNIT ( ) NAMED_UNIT ( * ) SI_UNIT ( .MILLI., .METRE. ) );
#14 = EDGE_LOOP ( 'NONE', ( #82, #74, #146 ) ) ;
#15 = CARTESIAN_POINT ( 'NONE',  ( 12.65719420153307500, 12.85146032005298100, 1.736355368975181400 ) ) ;
#16 = CALENDAR_DATE ( 2019, 7, 1 ) ;
#17 = CARTESIAN_POINT ( 'NONE',  ( 4.996003610813200500E-016, 2.442490654175340100E-015, 0.8567257775908879700 ) ) ;
#18 = FACE_OUTER_BOUND ( 'NONE', #63, .T. ) ;
#19 = PERSON_AND_ORGANIZATION ( #125, #124 ) ;
#20 = APPROVAL_ROLE ( '' ) ;
#21 = PRODUCT_DEFINITION_FORMATION_WITH_SPECIFIED_SOURCE ( 'ANY', '', #188, .NOT_KNOWN. ) ;
#22 = VERTEX_POINT ( 'NONE', #134 ) ;
#23 = CARTESIAN_POINT ( 'NONE',  ( -8.460778355368932000, -12.85146032005294500, 1.164142862922217700 ) ) ;
#24 = ORIENTED_EDGE ( 'NONE', *, *, #1, .T. ) ;
#25 = CARTESIAN_POINT ( 'NONE',  ( -12.69999999999999900, 3.997792089092478900E-015, 0.8567257775908879700 ) ) ;
#26 = DIRECTION ( 'NONE',  ( 1.000000000000000000, 0.0000000000000000000, 0.0000000000000000000 ) ) ;
#27 = VERTEX_POINT ( 'NONE', #193 ) ;
#28 = CARTESIAN_POINT ( 'NONE',  ( -4.288217776186475500, 4.310483428487757800, 4.294279830494761400 ) ) ;
#29 = CARTESIAN_POINT ( 'NONE',  ( -12.69999999999999900, 3.997792089092478900E-015, 0.8567257775908879700 ) ) ;
#30 = CARTESIAN_POINT ( 'NONE',  ( 0.0000000000000000000, 0.0000000000000000000, 0.0000000000000000000 ) ) ;
#31 = CARTESIAN_POINT ( 'NONE',  ( -3.465902388682324900E-014, -4.310483428487709800, -0.2942798304947297800 ) ) ;
#32 = ORIENTED_EDGE ( 'NONE', *, *, #248, .F. ) ;
#33 = CARTESIAN_POINT ( 'NONE',  ( 4.996003610813200500E-016, 2.442490654175340100E-015, 0.8567257775908879700 ) ) ;
#34 = DIRECTION ( 'NONE',  ( 1.000000000000000000, -8.881784197001252300E-016, 0.0000000000000000000 ) ) ;
#35 = CARTESIAN_POINT ( 'NONE',  ( 4.996003610813200500E-016, 2.442490654175340100E-015, 0.8567257775908879700 ) ) ;
#36 = PERSON_AND_ORGANIZATION ( #125, #124 ) ;
#37 = APPROVAL ( #103, 'UNSPECIFIED' ) ;
#38 = VERTEX_POINT ( 'NONE', #273 ) ;
#39 = CIRCLE ( 'NONE', #194, 12.69999999999999900 ) ;
#40 = FACE_OUTER_BOUND ( 'NONE', #200, .T. ) ;
#41 = CARTESIAN_POINT ( 'NONE',  ( -8.566594582994437000, -4.310483428487708900, -0.003929016874141579000 ) ) ;
#42 = CARTESIAN_POINT ( 'NONE',  ( -12.81549364946502200, -4.310483428487751600, 3.424560033456160100 ) ) ;
#43 = DIRECTION ( 'NONE',  ( 1.000000000000000000, 8.881784197001252300E-016, 0.0000000000000000000 ) ) ;
#44 = CARTESIAN_POINT ( 'NONE',  ( 8.460778355368924900, 12.85146032005304800, 2.835857137077799200 ) ) ;
#45 = CARTESIAN_POINT ( 'NONE',  ( 6.245004513516505500E-014, -4.310483428487747100, 4.294279830494752500 ) ) ;
#46 = CARTESIAN_POINT ( 'NONE',  ( 2.876849393419731300E-014, 12.70000000000004400, 3.143274222409115000 ) ) ;
#47 = CIRCLE ( 'NONE', #4, 12.69999999999999900 ) ;
#48 = APPROVAL_DATE_TIME ( #167, #37 ) ;
#49 = CC_DESIGN_PERSON_AND_ORGANIZATION_ASSIGNMENT ( #212, #104, ( #264 ) ) ;
#50 = DIRECTION ( 'NONE',  ( -0.0000000000000000000, -0.0000000000000000000, -1.000000000000000000 ) ) ;
#51 = FACE_OUTER_BOUND ( 'NONE', #286, .T. ) ;
#52 = ADVANCED_FACE ( 'NONE', ( #18 ), #207, .T. ) ;
#53 = DIRECTION ( 'NONE',  ( 1.000000000000000000, 0.0000000000000000000, 0.0000000000000000000 ) ) ;
#54 = AXIS2_PLACEMENT_3D ( 'NONE', #204, #122, #121 ) ;
#55 = DATE_TIME_ROLE ( 'creation_date' ) ;
#56 = MECHANICAL_CONTEXT ( 'NONE', #165, 'mechanical' ) ;
#57 = APPROVAL_PERSON_ORGANIZATION ( #220, #127, #20 ) ;
#58 = DESIGN_CONTEXT ( 'detailed design', #81, 'design' ) ;
#59 = DIRECTION ( 'NONE',  ( 1.000000000000000000, 0.0000000000000000000, 0.0000000000000000000 ) ) ;
#60 = CC_DESIGN_APPROVAL ( #127, ( #264 ) ) ;
#61 = ORIENTED_EDGE ( 'NONE', *, *, #164, .F. ) ;
#62 = COORDINATED_UNIVERSAL_TIME_OFFSET ( 2, 0, .AHEAD. ) ;
#63 = EDGE_LOOP ( 'NONE', ( #242, #251, #257 ) ) ;
#64 = PERSON_AND_ORGANIZATION ( #125, #124 ) ;
#65 = CARTESIAN_POINT ( 'NONE',  ( -12.65719420153310000, -12.85146032005294400, 1.736355368975206500 ) ) ;
#66 = AXIS2_PLACEMENT_3D ( 'NONE', #96, #50, #231 ) ;
#67 = CARTESIAN_POINT ( 'NONE',  ( 12.65719420153310000, -12.85146032005302700, 2.263644631024797100 ) ) ;
#68 = PERSON_AND_ORGANIZATION ( #125, #124 ) ;
#69 = DIRECTION ( 'NONE',  ( -0.0000000000000000000, -0.0000000000000000000, -1.000000000000000000 ) ) ;
#70 = AXIS2_PLACEMENT_3D ( 'NONE', #282, #197, #43 ) ;
#71 = CARTESIAN_POINT ( 'NONE',  ( 12.81549364946506800, -4.310483428487742700, 3.424560033456149500 ) ) ;
#72 = CARTESIAN_POINT ( 'NONE',  ( -12.81549364946502600, 4.310483428487755100, 3.424560033456170300 ) ) ;
#73 = CARTESIAN_POINT ( 'NONE',  ( 6.245004513516505500E-014, -12.85146032005303100, 3.122621481479173100 ) ) ;
#74 = ORIENTED_EDGE ( 'NONE', *, *, #107, .T. ) ;
#75 = LOCAL_TIME ( 9, 28, 24.00000000000000000, #12 ) ;
#76 = CARTESIAN_POINT ( 'NONE',  ( -4.288217776186471900, -4.310483428487748000, 4.294279830494751600 ) ) ;
#77 = DIRECTION ( 'NONE',  ( 0.0000000000000000000, 0.0000000000000000000, 1.000000000000000000 ) ) ;
#78 = CARTESIAN_POINT ( 'NONE',  ( -2.871005055540847800E-014, 12.85146032005298400, 0.8773785185208216000 ) ) ;
#79 = FACE_OUTER_BOUND ( 'NONE', #143, .T. ) ;
#80 = CC_DESIGN_PERSON_AND_ORGANIZATION_ASSIGNMENT ( #19, #214, ( #21 ) ) ;
#81 = APPLICATION_CONTEXT ( 'configuration controlled 3d designs of mechanical parts and assemblies' ) ;
#82 = ORIENTED_EDGE ( 'NONE', *, *, #161, .T. ) ;
#83 = ADVANCED_FACE ( 'NONE', ( #191 ), #211, .T. ) ;
#84 = APPLICATION_PROTOCOL_DEFINITION ( 'international standard', 'config_control_design', 1994, #81 ) ;
#85 = PERSON_AND_ORGANIZATION_ROLE ( 'creator' ) ;
#86 = CC_DESIGN_APPROVAL ( #37, ( #275 ) ) ;
#87 = PERSON_AND_ORGANIZATION_ROLE ( 'classification_officer' ) ;
#88 = ORIENTED_EDGE ( 'NONE', *, *, #215, .F. ) ;
#89 = ORIENTED_EDGE ( 'NONE', *, *, #215, .T. ) ;
#90 = VERTEX_POINT ( 'NONE', #198 ) ;
#91 = CARTESIAN_POINT ( 'NONE',  ( -2.876849393419733200E-014, 12.69999999999997400, 0.8567257775908855300 ) ) ;
#92 = DATE_AND_TIME ( #293, #6 ) ;
#93 = CARTESIAN_POINT ( 'NONE',  ( -12.65719420153305000, -12.85146032005303400, 2.263644631024808200 ) ) ;
#94 = CARTESIAN_POINT ( 'NONE',  ( 2.131628207280299900E-014, 2.842170943040400100E-014, 94.56000000000000200 ) ) ;
#95 =( BOUNDED_SURFACE ( )  B_SPLINE_SURFACE ( 3, 3, ( 
 ( #67, #113, #202, #73 ),
 ( #71, #225, #278, #45 ),
 ( #177, #7, #156, #178 ),
 ( #153, #44, #203, #114 ) ),
 .UNSPECIFIED., .F., .F., .F. ) 
 B_SPLINE_SURFACE_WITH_KNOTS ( ( 4, 4 ),
 ( 4, 4 ),
 ( 0.0000000000000000000, 1.000000000000000000 ),
 ( 0.0000000000000000000, 1.000000000000000000 ),
 .UNSPECIFIED. ) 
 GEOMETRIC_REPRESENTATION_ITEM ( )  RATIONAL_B_SPLINE_SURFACE ( (
 ( 1.000000000000000000, 0.9984700762426680400, 0.9984700762426680400, 1.000000000000000000),
 ( 0.9938143082450589000, 0.9922938481244983900, 0.9922938481244983900, 0.9938143082450589000),
 ( 0.9938143082450589000, 0.9922938481244983900, 0.9922938481244983900, 0.9938143082450589000),
 ( 1.000000000000000000, 0.9984700762426680400, 0.9984700762426680400, 1.000000000000000000) ) ) 
 REPRESENTATION_ITEM ( '' )  SURFACE ( )  );
#96 = CARTESIAN_POINT ( 'NONE',  ( 4.996003610813200500E-016, 2.442490654175340100E-015, 3.143274222409110600 ) ) ;
#97 = DIRECTION ( 'NONE',  ( 0.0000000000000000000, 0.0000000000000000000, 1.000000000000000000 ) ) ;
#98 = ADVANCED_FACE ( 'NONE', ( #79 ), #95, .T. ) ;
#99 = CARTESIAN_POINT ( 'NONE',  ( 8.460778355368871600, -12.85146032005294900, 1.164142862922206800 ) ) ;
#100 = DIRECTION ( 'NONE',  ( -0.0000000000000000000, -0.0000000000000000000, -1.000000000000000000 ) ) ;
#101 = CIRCLE ( 'NONE', #295, 94.56000000000000200 ) ;
#102 = APPLICATION_PROTOCOL_DEFINITION ( 'international standard', 'config_control_design', 1994, #165 ) ;
#103 = APPROVAL_STATUS ( 'not_yet_approved' ) ;
#104 = PERSON_AND_ORGANIZATION_ROLE ( 'creator' ) ;
#105 = APPROVAL ( #168, 'UNSPECIFIED' ) ;
#106 = ORIENTED_EDGE ( 'NONE', *, *, #161, .F. ) ;
#107 = EDGE_CURVE ( 'NONE', #205, #154, #101, .T. ) ;
#108 = LOCAL_TIME ( 9, 28, 24.00000000000000000, #3 ) ;
#109 = LINE ( 'NONE', #287, #213 ) ;
#110 = DATE_AND_TIME ( #16, #172 ) ;
#111 = CC_DESIGN_PERSON_AND_ORGANIZATION_ASSIGNMENT ( #36, #85, ( #21 ) ) ;
#112 = CARTESIAN_POINT ( 'NONE',  ( -12.81549364946506500, -4.310483428487706300, 0.5754399665438689700 ) ) ;
#113 = CARTESIAN_POINT ( 'NONE',  ( 8.460778355368932000, -12.85146032005303100, 2.835857137077785400 ) ) ;
#114 = CARTESIAN_POINT ( 'NONE',  ( 5.551115123125782700E-014, 12.85146032005304700, 3.122621481479187300 ) ) ;
#115 = ORIENTED_EDGE ( 'NONE', *, *, #266, .T. ) ;
#116 = COORDINATED_UNIVERSAL_TIME_OFFSET ( 2, 0, .AHEAD. ) ;
#117 = DIRECTION ( 'NONE',  ( 0.0000000000000000000, 0.0000000000000000000, 1.000000000000000000 ) ) ;
#118 = DIRECTION ( 'NONE',  ( -3.073030455566002200E-016, -1.000000000000000000, -2.935234307913378900E-016 ) ) ;
#119 = CYLINDRICAL_SURFACE ( 'NONE', #245, 12.69999999999999900 ) ;
#120 = UNCERTAINTY_MEASURE_WITH_UNIT (LENGTH_MEASURE( 1.000000000000000100E-005 ), #13, 'distance_accuracy_value', 'NONE');
#121 = DIRECTION ( 'NONE',  ( 1.000000000000000000, -1.776356839400250500E-015, 0.0000000000000000000 ) ) ;
#122 = DIRECTION ( 'NONE',  ( -0.0000000000000000000, -0.0000000000000000000, -1.000000000000000000 ) ) ;
#123 = ORIENTED_EDGE ( 'NONE', *, *, #233, .F. ) ;
#124 = ORGANIZATION ( 'UNSPECIFIED', 'UNSPECIFIED', '' ) ;
#125 = PERSON ( 'UNSPECIFIED', 'UNSPECIFIED', 'UNSPECIFIED', ('UNSPECIFIED'), ('UNSPECIFIED'), ('UNSPECIFIED') ) ;
#126 = DATE_TIME_ROLE ( 'classification_date' ) ;
#127 = APPROVAL ( #190, 'UNSPECIFIED' ) ;
#128 = CIRCLE ( 'NONE', #269, 12.69999999999999900 ) ;
#129 = AXIS2_PLACEMENT_3D ( 'NONE', #35, #208, #34 ) ;
#130 = CIRCLE ( 'NONE', #285, 94.56000000000000200 ) ;
#131 = CALENDAR_DATE ( 2019, 7, 1 ) ;
#132 = CARTESIAN_POINT ( 'NONE',  ( -4.288217776186550100, 4.310483428487748900, -0.2942798304947435400 ) ) ;
#133 = CARTESIAN_POINT ( 'NONE',  ( -6.245004513516505500E-014, -12.85146032005294700, 0.8773785185208306000 ) ) ;
#134 = CARTESIAN_POINT ( 'NONE',  ( 12.69999999999999900, 2.442490654175340100E-015, 0.8567257775908879700 ) ) ;
#135 = ORIENTED_EDGE ( 'NONE', *, *, #248, .T. ) ;
#136 = DATE_AND_TIME ( #131, #236 ) ;
#137 = CARTESIAN_POINT ( 'NONE',  ( 4.996003610813200500E-016, 2.442490654175340100E-015, 0.8567257775908879700 ) ) ;
#138 = CARTESIAN_POINT ( 'NONE',  ( 12.81549364946503600, 4.310483428487741800, 0.5754399665438453300 ) ) ;
#139 = ORIENTED_EDGE ( 'NONE', *, *, #164, .T. ) ;
#140 = ADVANCED_FACE ( 'NONE', ( #51 ), #290, .T. ) ;
#141 = CARTESIAN_POINT ( 'NONE',  ( 12.65719420153306300, -12.85146032005294900, 1.736355368975195200 ) ) ;
#142 = CARTESIAN_POINT ( 'NONE',  ( 4.288217776186476400, -4.310483428487712500, -0.2942798304947322800 ) ) ;
#143 = EDGE_LOOP ( 'NONE', ( #234, #216, #180 ) ) ;
#144 = APPROVAL_ROLE ( '' ) ;
#145 = EDGE_CURVE ( 'NONE', #205, #169, #128, .T. ) ;
#146 = ORIENTED_EDGE ( 'NONE', *, *, #174, .T. ) ;
#147 = APPROVAL_PERSON_ORGANIZATION ( #64, #105, #144 ) ;
#148 = CARTESIAN_POINT ( 'NONE',  ( -5.898059818321144100E-014, 4.310483428487746200, -0.2942798304947472600 ) ) ;
#149 = APPROVAL_PERSON_ORGANIZATION ( #238, #37, #240 ) ;
#150 = AXIS2_PLACEMENT_3D ( 'NONE', #33, #258, #162 ) ;
#151 = CARTESIAN_POINT ( 'NONE',  ( -12.65719420153309500, 12.85146032005298800, 1.736355368975192700 ) ) ;
#152 = CARTESIAN_POINT ( 'NONE',  ( -5.551115123125782700E-014, 12.85146032005298400, 0.8773785185208165000 ) ) ;
#153 = CARTESIAN_POINT ( 'NONE',  ( 12.65719420153309500, 12.85146032005305000, 2.263644631024810800 ) ) ;
#154 = VERTEX_POINT ( 'NONE', #91 ) ;
#155 = CC_DESIGN_SECURITY_CLASSIFICATION ( #275, ( #21 ) ) ;
#156 = CARTESIAN_POINT ( 'NONE',  ( 4.288217776186550100, 4.310483428487761300, 4.294279830494760500 ) ) ;
#157 = CARTESIAN_POINT ( 'NONE',  ( 3.465902388682324900E-014, -4.310483428487747100, 4.294279830494748000 ) ) ;
#158 = DIRECTION ( 'NONE',  ( 1.000000000000000000, 8.881784197001252300E-016, 0.0000000000000000000 ) ) ;
#159 = FACE_OUTER_BOUND ( 'NONE', #14, .T. ) ;
#160 = COORDINATED_UNIVERSAL_TIME_OFFSET ( 2, 0, .AHEAD. ) ;
#161 = EDGE_CURVE ( 'NONE', #22, #205, #39, .T. ) ;
#162 = DIRECTION ( 'NONE',  ( 1.000000000000000000, 8.881784197001252300E-016, 0.0000000000000000000 ) ) ;
#163 = CALENDAR_DATE ( 2019, 7, 1 ) ;
#164 = EDGE_CURVE ( 'NONE', #90, #187, #291, .T. ) ;
#165 = APPLICATION_CONTEXT ( 'configuration controlled 3d designs of mechanical parts and assemblies' ) ;
#166 = CIRCLE ( 'NONE', #54, 12.69999999999999900 ) ;
#167 = DATE_AND_TIME ( #268, #108 ) ;
#168 = APPROVAL_STATUS ( 'not_yet_approved' ) ;
#169 = VERTEX_POINT ( 'NONE', #29 ) ;
#170 = PERSON_AND_ORGANIZATION ( #125, #124 ) ;
#171 = LINE ( 'NONE', #25, #219 ) ;
#172 = LOCAL_TIME ( 9, 28, 24.00000000000000000, #116 ) ;
#173 = CARTESIAN_POINT ( 'NONE',  ( -8.566594582994433400, 4.310483428487749800, -0.003929016874153938900 ) ) ;
#174 = EDGE_CURVE ( 'NONE', #154, #22, #184, .T. ) ;
#175 = CARTESIAN_POINT ( 'NONE',  ( -8.460778355368866200, -12.85146032005303400, 2.835857137077795200 ) ) ;
#176 = CARTESIAN_POINT ( 'NONE',  ( -3.657399129133495600E-014, -12.69999999999994600, 0.8567257775908855300 ) ) ;
#177 = CARTESIAN_POINT ( 'NONE',  ( 12.81549364946506700, 4.310483428487763100, 3.424560033456159200 ) ) ;
#178 = CARTESIAN_POINT ( 'NONE',  ( 5.898059818321142900E-014, 4.310483428487759600, 4.294279830494763100 ) ) ;
#179 = CARTESIAN_POINT ( 'NONE',  ( 2.871005055540844600E-014, 12.85146032005304700, 3.122621481479181900 ) ) ;
#180 = ORIENTED_EDGE ( 'NONE', *, *, #266, .F. ) ;
#181 = APPROVAL_DATE_TIME ( #110, #127 ) ;
#182 = CARTESIAN_POINT ( 'NONE',  ( -3.200977451603216600E-014, 4.310483428487746200, -0.2942798304947421000 ) ) ;
#183 = DIRECTION ( 'NONE',  ( 0.0000000000000000000, 0.0000000000000000000, 1.000000000000000000 ) ) ;
#184 = CIRCLE ( 'NONE', #129, 12.69999999999999900 ) ;
#185 = CARTESIAN_POINT ( 'NONE',  ( 4.996003610813200500E-016, 2.442490654175340100E-015, 3.143274222409110600 ) ) ;
#186 = CARTESIAN_POINT ( 'NONE',  ( 8.460778355368884000, 12.85146032005298300, 1.164142862922192400 ) ) ;
#187 = VERTEX_POINT ( 'NONE', #46 ) ;
#188 = PRODUCT ( '111-1218E UVFS bi-cx 25.4 F100', '111-1218E UVFS bi-cx 25.4 F100', '', ( #56 ) ) ;
#189 =( NAMED_UNIT ( * ) SI_UNIT ( $, .STERADIAN. ) SOLID_ANGLE_UNIT ( ) );
#190 = APPROVAL_STATUS ( 'not_yet_approved' ) ;
#191 = FACE_OUTER_BOUND ( 'NONE', #196, .T. ) ;
#192 = CC_DESIGN_DATE_AND_TIME_ASSIGNMENT ( #230, #126, ( #275 ) ) ;
#193 = CARTESIAN_POINT ( 'NONE',  ( 3.657399129133497500E-014, -12.70000000000001400, 3.143274222409115000 ) ) ;
#194 = AXIS2_PLACEMENT_3D ( 'NONE', #11, #229, #252 ) ;
#195 = CARTESIAN_POINT ( 'NONE',  ( -6.245004513516504300E-014, -4.310483428487709800, -0.2942798304947346600 ) ) ;
#196 = EDGE_LOOP ( 'NONE', ( #123, #89, #139, #115, #262, #244 ) ) ;
#197 = DIRECTION ( 'NONE',  ( -0.0000000000000000000, -0.0000000000000000000, -1.000000000000000000 ) ) ;
#198 = CARTESIAN_POINT ( 'NONE',  ( -12.69999999999999900, 3.997792089092478900E-015, 3.143274222409110600 ) ) ;
#199 = CARTESIAN_POINT ( 'NONE',  ( -4.235248883598338800, -12.85146032005303400, 3.122621481479170000 ) ) ;
#200 = EDGE_LOOP ( 'NONE', ( #88, #247, #106, #267, #277, #135 ) ) ;
#201 = CC_DESIGN_PERSON_AND_ORGANIZATION_ASSIGNMENT ( #170, #87, ( #275 ) ) ;
#202 = CARTESIAN_POINT ( 'NONE',  ( 4.235248883598421400, -12.85146032005303100, 3.122621481479169100 ) ) ;
#203 = CARTESIAN_POINT ( 'NONE',  ( 4.235248883598415200, 12.85146032005304800, 3.122621481479182800 ) ) ;
#204 = CARTESIAN_POINT ( 'NONE',  ( 4.996003610813200500E-016, 2.442490654175340100E-015, 3.143274222409110600 ) ) ;
#205 = VERTEX_POINT ( 'NONE', #176 ) ;
#206 = CARTESIAN_POINT ( 'NONE',  ( 4.235248883598352200, 12.85146032005298300, 0.8773785185208191600 ) ) ;
#207 =( BOUNDED_SURFACE ( )  B_SPLINE_SURFACE ( 3, 3, ( 
 ( #65, #23, #270, #133 ),
 ( #112, #41, #218, #195 ),
 ( #272, #173, #132, #148 ),
 ( #151, #224, #5, #152 ) ),
 .UNSPECIFIED., .F., .F., .F. ) 
 B_SPLINE_SURFACE_WITH_KNOTS ( ( 4, 4 ),
 ( 4, 4 ),
 ( 0.0000000000000000000, 1.000000000000000000 ),
 ( 0.0000000000000000000, 1.000000000000000000 ),
 .UNSPECIFIED. ) 
 GEOMETRIC_REPRESENTATION_ITEM ( )  RATIONAL_B_SPLINE_SURFACE ( (
 ( 1.000000000000000000, 0.9984700762426680400, 0.9984700762426680400, 1.000000000000000000),
 ( 0.9938143082450590100, 0.9922938481244985000, 0.9922938481244985000, 0.9938143082450590100),
 ( 0.9938143082450590100, 0.9922938481244985000, 0.9922938481244985000, 0.9938143082450590100),
 ( 1.000000000000000000, 0.9984700762426680400, 0.9984700762426680400, 1.000000000000000000) ) ) 
 REPRESENTATION_ITEM ( '' )  SURFACE ( )  );
#208 = DIRECTION ( 'NONE',  ( -0.0000000000000000000, -0.0000000000000000000, -1.000000000000000000 ) ) ;
#209 =( NAMED_UNIT ( * ) PLANE_ANGLE_UNIT ( ) SI_UNIT ( $, .RADIAN. ) );
#210 = DIRECTION ( 'NONE',  ( 0.0000000000000000000, 0.0000000000000000000, 1.000000000000000000 ) ) ;
#211 = CYLINDRICAL_SURFACE ( 'NONE', #255, 12.69999999999999900 ) ;
#212 = PERSON_AND_ORGANIZATION ( #125, #124 ) ;
#213 = VECTOR ( 'NONE', #183, 1000.000000000000000 ) ;
#214 = PERSON_AND_ORGANIZATION_ROLE ( 'design_supplier' ) ;
#215 = EDGE_CURVE ( 'NONE', #169, #90, #171, .T. ) ;
#216 = ORIENTED_EDGE ( 'NONE', *, *, #279, .F. ) ;
#217 = APPROVAL_DATE_TIME ( #92, #105 ) ;
#218 = CARTESIAN_POINT ( 'NONE',  ( -4.288217776186552800, -4.310483428487709800, -0.2942798304947308900 ) ) ;
#219 = VECTOR ( 'NONE', #97, 1000.000000000000000 ) ;
#220 = PERSON_AND_ORGANIZATION ( #125, #124 ) ;
#221 = PRODUCT_DEFINITION_SHAPE ( 'NONE', 'NONE',  #264 ) ;
#222 = CARTESIAN_POINT ( 'NONE',  ( -2.131628207280299900E-014, 2.842170943040400100E-014, -90.56000000000000200 ) ) ;
#223 = CARTESIAN_POINT ( 'NONE',  ( 3.200977451603216600E-014, 4.310483428487759600, 4.294279830494757800 ) ) ;
#224 = CARTESIAN_POINT ( 'NONE',  ( -8.460778355368924900, 12.85146032005298600, 1.164142862922203700 ) ) ;
#225 = CARTESIAN_POINT ( 'NONE',  ( 8.566594582994438800, -4.310483428487743600, 4.003929016874159300 ) ) ;
#226 = EDGE_CURVE ( 'NONE', #22, #38, #109, .T. ) ;
#227 = CARTESIAN_POINT ( 'NONE',  ( -8.460778355368875100, 12.85146032005304500, 2.835857137077809000 ) ) ;
#228 = CARTESIAN_POINT ( 'NONE',  ( -4.235248883598346800, 12.85146032005304500, 3.122621481479183700 ) ) ;
#229 = DIRECTION ( 'NONE',  ( -0.0000000000000000000, -0.0000000000000000000, -1.000000000000000000 ) ) ;
#230 = DATE_AND_TIME ( #163, #75 ) ;
#231 = DIRECTION ( 'NONE',  ( 1.000000000000000000, 0.0000000000000000000, 0.0000000000000000000 ) ) ;
#232 =( GEOMETRIC_REPRESENTATION_CONTEXT ( 3 ) GLOBAL_UNCERTAINTY_ASSIGNED_CONTEXT ( ( #120 ) ) GLOBAL_UNIT_ASSIGNED_CONTEXT ( ( #13, #209, #189 ) ) REPRESENTATION_CONTEXT ( 'NONE', 'WORKASPACE' ) );
#233 = EDGE_CURVE ( 'NONE', #169, #154, #289, .T. ) ;
#234 = ORIENTED_EDGE ( 'NONE', *, *, #1, .F. ) ;
#235 = CARTESIAN_POINT ( 'NONE',  ( 4.235248883598343300, -12.85146032005294900, 0.8773785185208328200 ) ) ;
#236 = LOCAL_TIME ( 9, 28, 24.00000000000000000, #160 ) ;
#237 = SHAPE_DEFINITION_REPRESENTATION ( #221, #294 ) ;
#238 = PERSON_AND_ORGANIZATION ( #125, #124 ) ;
#239 = SECURITY_CLASSIFICATION_LEVEL ( 'unclassified' ) ;
#240 = APPROVAL_ROLE ( '' ) ;
#241 = ADVANCED_FACE ( 'NONE', ( #159 ), #281, .T. ) ;
#242 = ORIENTED_EDGE ( 'NONE', *, *, #107, .F. ) ;
#243 = CC_DESIGN_APPROVAL ( #105, ( #21 ) ) ;
#244 = ORIENTED_EDGE ( 'NONE', *, *, #174, .F. ) ;
#245 = AXIS2_PLACEMENT_3D ( 'NONE', #17, #210, #254 ) ;
#246 = DIRECTION ( 'NONE',  ( -1.000000000000000000, -3.073030455566000200E-016, 5.761540899566349900E-016 ) ) ;
#247 = ORIENTED_EDGE ( 'NONE', *, *, #145, .F. ) ;
#248 = EDGE_CURVE ( 'NONE', #27, #90, #47, .T. ) ;
#249 = CARTESIAN_POINT ( 'NONE',  ( 4.996003610813200500E-016, 2.442490654175340100E-015, 0.8567257775908879700 ) ) ;
#250 = DIRECTION ( 'NONE',  ( 1.000000000000000000, -3.073030455566000200E-016, -5.761540899566349900E-016 ) ) ;
#251 = ORIENTED_EDGE ( 'NONE', *, *, #145, .T. ) ;
#252 = DIRECTION ( 'NONE',  ( 1.000000000000000000, 0.0000000000000000000, 0.0000000000000000000 ) ) ;
#253 = CC_DESIGN_DATE_AND_TIME_ASSIGNMENT ( #136, #55, ( #264 ) ) ;
#254 = DIRECTION ( 'NONE',  ( 1.000000000000000000, 0.0000000000000000000, 0.0000000000000000000 ) ) ;
#255 = AXIS2_PLACEMENT_3D ( 'NONE', #249, #117, #26 ) ;
#256 = CARTESIAN_POINT ( 'NONE',  ( 4.288217776186479000, 4.310483428487746200, -0.2942798304947446000 ) ) ;
#257 = ORIENTED_EDGE ( 'NONE', *, *, #233, .T. ) ;
#258 = DIRECTION ( 'NONE',  ( -0.0000000000000000000, -0.0000000000000000000, -1.000000000000000000 ) ) ;
#259 = CARTESIAN_POINT ( 'NONE',  ( 8.566594582994385500, 4.310483428487745300, -0.003929016874165106200 ) ) ;
#260 = ADVANCED_FACE ( 'NONE', ( #40 ), #119, .T. ) ;
#261 = CARTESIAN_POINT ( 'NONE',  ( 12.81549364946503100, -4.310483428487714300, 0.5754399665438574300 ) ) ;
#262 = ORIENTED_EDGE ( 'NONE', *, *, #226, .F. ) ;
#263 = MANIFOLD_SOLID_BREP ( 'Imported1', #271 ) ;
#264 = PRODUCT_DEFINITION ( 'UNKNOWN', '', #21, #58 ) ;
#265 = PERSON_AND_ORGANIZATION_ROLE ( 'design_owner' ) ;
#266 = EDGE_CURVE ( 'NONE', #187, #38, #166, .T. ) ;
#267 = ORIENTED_EDGE ( 'NONE', *, *, #226, .T. ) ;
#268 = CALENDAR_DATE ( 2019, 7, 1 ) ;
#269 = AXIS2_PLACEMENT_3D ( 'NONE', #137, #69, #158 ) ;
#270 = CARTESIAN_POINT ( 'NONE',  ( -4.235248883598421400, -12.85146032005294500, 0.8773785185208340400 ) ) ;
#271 = CLOSED_SHELL ( 'NONE', ( #241, #140, #83, #52, #260, #98 ) ) ;
#272 = CARTESIAN_POINT ( 'NONE',  ( -12.81549364946506300, 4.310483428487749800, 0.5754399665438566500 ) ) ;
#273 = CARTESIAN_POINT ( 'NONE',  ( 12.69999999999999900, 2.442490654175340100E-015, 3.143274222409110600 ) ) ;
#274 = CARTESIAN_POINT ( 'NONE',  ( -12.65719420153306300, 12.85146032005304300, 2.263644631024821900 ) ) ;
#275 = SECURITY_CLASSIFICATION ( '', '', #239 ) ;
#276 = DIRECTION ( 'NONE',  ( 3.073030455566002200E-016, -1.000000000000000000, 2.935234307913378900E-016 ) ) ;
#277 = ORIENTED_EDGE ( 'NONE', *, *, #279, .T. ) ;
#278 = CARTESIAN_POINT ( 'NONE',  ( 4.288217776186552800, -4.310483428487744500, 4.294279830494748900 ) ) ;
#279 = EDGE_CURVE ( 'NONE', #38, #27, #2, .T. ) ;
#280 = CARTESIAN_POINT ( 'NONE',  ( -8.566594582994381900, 4.310483428487756900, 4.003929016874178800 ) ) ;
#281 =( BOUNDED_SURFACE ( )  B_SPLINE_SURFACE ( 3, 3, ( 
 ( #284, #235, #99, #141 ),
 ( #31, #142, #283, #261 ),
 ( #182, #256, #259, #138 ),
 ( #78, #206, #186, #15 ) ),
 .UNSPECIFIED., .F., .F., .F. ) 
 B_SPLINE_SURFACE_WITH_KNOTS ( ( 4, 4 ),
 ( 4, 4 ),
 ( 0.0000000000000000000, 1.000000000000000000 ),
 ( 0.0000000000000000000, 1.000000000000000000 ),
 .UNSPECIFIED. ) 
 GEOMETRIC_REPRESENTATION_ITEM ( )  RATIONAL_B_SPLINE_SURFACE ( (
 ( 1.000000000000000000, 0.9984700762426680400, 0.9984700762426680400, 1.000000000000000000),
 ( 0.9938143082450590100, 0.9922938481244985000, 0.9922938481244985000, 0.9938143082450590100),
 ( 0.9938143082450590100, 0.9922938481244985000, 0.9922938481244985000, 0.9938143082450590100),
 ( 1.000000000000000000, 0.9984700762426680400, 0.9984700762426680400, 1.000000000000000000) ) ) 
 REPRESENTATION_ITEM ( '' )  SURFACE ( )  );
#282 = CARTESIAN_POINT ( 'NONE',  ( 4.996003610813200500E-016, 2.442490654175340100E-015, 3.143274222409110600 ) ) ;
#283 = CARTESIAN_POINT ( 'NONE',  ( 8.566594582994381900, -4.310483428487713400, -0.003929016874152637900 ) ) ;
#284 = CARTESIAN_POINT ( 'NONE',  ( -3.660863634781263000E-014, -12.85146032005294700, 0.8773785185208354800 ) ) ;
#285 = AXIS2_PLACEMENT_3D ( 'NONE', #222, #246, #276 ) ;
#286 = EDGE_LOOP ( 'NONE', ( #32, #24, #61 ) ) ;
#287 = CARTESIAN_POINT ( 'NONE',  ( 12.69999999999999900, 2.442490654175340100E-015, 0.8567257775908879700 ) ) ;
#288 = AXIS2_PLACEMENT_3D ( 'NONE', #30, #77, #59 ) ;
#289 = CIRCLE ( 'NONE', #150, 12.69999999999999900 ) ;
#290 =( BOUNDED_SURFACE ( )  B_SPLINE_SURFACE ( 3, 3, ( 
 ( #8, #199, #175, #93 ),
 ( #157, #76, #9, #42 ),
 ( #223, #28, #280, #72 ),
 ( #179, #228, #227, #274 ) ),
 .UNSPECIFIED., .F., .F., .F. ) 
 B_SPLINE_SURFACE_WITH_KNOTS ( ( 4, 4 ),
 ( 4, 4 ),
 ( 0.0000000000000000000, 1.000000000000000000 ),
 ( 0.0000000000000000000, 1.000000000000000000 ),
 .UNSPECIFIED. ) 
 GEOMETRIC_REPRESENTATION_ITEM ( )  RATIONAL_B_SPLINE_SURFACE ( (
 ( 1.000000000000000000, 0.9984700762426680400, 0.9984700762426680400, 1.000000000000000000),
 ( 0.9938143082450589000, 0.9922938481244983900, 0.9922938481244983900, 0.9938143082450589000),
 ( 0.9938143082450589000, 0.9922938481244983900, 0.9922938481244983900, 0.9938143082450589000),
 ( 1.000000000000000000, 0.9984700762426680400, 0.9984700762426680400, 1.000000000000000000) ) ) 
 REPRESENTATION_ITEM ( '' )  SURFACE ( )  );
#291 = CIRCLE ( 'NONE', #70, 12.69999999999999900 ) ;
#292 = PRODUCT_RELATED_PRODUCT_CATEGORY ( 'detail', '', ( #188 ) ) ;
#293 = CALENDAR_DATE ( 2019, 7, 1 ) ;
#294 = ADVANCED_BREP_SHAPE_REPRESENTATION ( '111-1218E UVFS bi-cx 25.4 F100', ( #263, #288 ), #232 ) ;
#295 = AXIS2_PLACEMENT_3D ( 'NONE', #94, #250, #118 ) ;
ENDSEC;
END-ISO-10303-21;
