ISO-10303-21;
HEADER;
FILE_DESCRIPTION (( 'STEP AP203' ),
    '1' );
FILE_NAME ('111-1214E UVFS bi-cx 25.4 F75.STEP',
    '2019-01-07T07:09:46',
    ( '' ),
    ( '' ),
    'SwSTEP 2.0',
    'SolidWorks 2017',
    '' );
FILE_SCHEMA (( 'CONFIG_CONTROL_DESIGN' ));
ENDSEC;

DATA;
#1 = CARTESIAN_POINT ( 'NONE',  ( 8.605970128218286800, -4.331591724065865500, 4.005776194547285000 ) ) ;
#2 = DIRECTION ( 'NONE',  ( -0.0000000000000000000, -0.0000000000000000000, -1.000000000000000000 ) ) ;
#3 = APPROVAL_DATE_TIME ( #244, #95 ) ;
#4 = DIRECTION ( 'NONE',  ( 1.000000000000000000, 0.0000000000000000000, 0.0000000000000000000 ) ) ;
#5 = CARTESIAN_POINT ( 'NONE',  ( 4.996003610813200500E-016, 2.442490654175340100E-015, 1.149026727102860000 ) ) ;
#6 = DIRECTION ( 'NONE',  ( -0.0000000000000000000, -0.0000000000000000000, -1.000000000000000000 ) ) ;
#7 = LINE ( 'NONE', #77, #127 ) ;
#8 = DIRECTION ( 'NONE',  ( -1.000000000000000000, -2.053319388625779900E-016, 3.849712460874749800E-016 ) ) ;
#9 = CARTESIAN_POINT ( 'NONE',  ( 12.56291779815040500, -12.85071219968158700, 2.320173200410041000 ) ) ;
#10 = MANIFOLD_SOLID_BREP ( 'Imported1', #21 ) ;
#11 = CARTESIAN_POINT ( 'NONE',  ( 4.311860581298405200, -4.331591724065859200, -0.3966276645541201900 ) ) ;
#12 =( GEOMETRIC_REPRESENTATION_CONTEXT ( 3 ) GLOBAL_UNCERTAINTY_ASSIGNED_CONTEXT ( ( #251 ) ) GLOBAL_UNIT_ASSIGNED_CONTEXT ( ( #138, #84, #44 ) ) REPRESENTATION_CONTEXT ( 'NONE', 'WORKASPACE' ) );
#13 = CARTESIAN_POINT ( 'NONE',  ( 4.996003610813200500E-016, 2.442490654175340100E-015, 1.149026727102860000 ) ) ;
#14 = ORIENTED_EDGE ( 'NONE', *, *, #270, .T. ) ;
#15 = ADVANCED_FACE ( 'NONE', ( #116 ), #162, .T. ) ;
#16 = ORIENTED_EDGE ( 'NONE', *, *, #62, .T. ) ;
#17 = DIRECTION ( 'NONE',  ( 0.0000000000000000000, 0.0000000000000000000, 1.000000000000000000 ) ) ;
#18 = CARTESIAN_POINT ( 'NONE',  ( -12.69999999999999900, 3.997792089092478900E-015, 1.149026727102860000 ) ) ;
#19 = CARTESIAN_POINT ( 'NONE',  ( 6.966387673666433400E-015, -4.331591724065868100, 4.396627664554109100 ) ) ;
#20 = CYLINDRICAL_SURFACE ( 'NONE', #34, 12.69999999999999900 ) ;
#21 = CLOSED_SHELL ( 'NONE', ( #105, #287, #75, #243, #133, #15 ) ) ;
#22 = PERSON_AND_ORGANIZATION_ROLE ( 'creator' ) ;
#23 = SECURITY_CLASSIFICATION_LEVEL ( 'unclassified' ) ;
#24 = PERSON_AND_ORGANIZATION ( #101, #208 ) ;
#25 = EDGE_LOOP ( 'NONE', ( #64, #16, #178 ) ) ;
#26 = CC_DESIGN_PERSON_AND_ORGANIZATION_ASSIGNMENT ( #85, #112, ( #50 ) ) ;
#27 = EDGE_CURVE ( 'NONE', #226, #39, #143, .T. ) ;
#28 = CIRCLE ( 'NONE', #106, 70.76000000000000500 ) ;
#29 = ORIENTED_EDGE ( 'NONE', *, *, #62, .F. ) ;
#30 = PRODUCT_DEFINITION_SHAPE ( 'NONE', 'NONE',  #161 ) ;
#31 = AXIS2_PLACEMENT_3D ( 'NONE', #151, #285, #35 ) ;
#32 = DIRECTION ( 'NONE',  ( -0.0000000000000000000, -0.0000000000000000000, -1.000000000000000000 ) ) ;
#33 = CALENDAR_DATE ( 2019, 7, 1 ) ;
#34 = AXIS2_PLACEMENT_3D ( 'NONE', #13, #262, #38 ) ;
#35 = DIRECTION ( 'NONE',  ( 1.000000000000000000, 0.0000000000000000000, 0.0000000000000000000 ) ) ;
#36 = EDGE_CURVE ( 'NONE', #39, #192, #83, .T. ) ;
#37 = CARTESIAN_POINT ( 'NONE',  ( 8.415686527449754100, -12.85071219968158800, 1.558901175331755200 ) ) ;
#38 = DIRECTION ( 'NONE',  ( 1.000000000000000000, 0.0000000000000000000, 0.0000000000000000000 ) ) ;
#39 = VERTEX_POINT ( 'NONE', #48 ) ;
#40 = AXIS2_PLACEMENT_3D ( 'NONE', #259, #191, #68 ) ;
#41 = CARTESIAN_POINT ( 'NONE',  ( 5.187559419539356800E-015, 4.331591724065880600, 4.396627664554121600 ) ) ;
#42 = APPROVAL_PERSON_ORGANIZATION ( #172, #129, #291 ) ;
#43 = CARTESIAN_POINT ( 'NONE',  ( -1.561251128379126400E-014, 4.331591724065888500, -0.3966276645540918200 ) ) ;
#44 =( NAMED_UNIT ( * ) SI_UNIT ( $, .STERADIAN. ) SOLID_ANGLE_UNIT ( ) );
#45 = VERTEX_POINT ( 'NONE', #90 ) ;
#46 = CC_DESIGN_PERSON_AND_ORGANIZATION_ASSIGNMENT ( #177, #22, ( #50 ) ) ;
#47 = CARTESIAN_POINT ( 'NONE',  ( 4.996003610813200500E-016, 2.442490654175340100E-015, 2.850973272897140200 ) ) ;
#48 = CARTESIAN_POINT ( 'NONE',  ( 12.69999999999999900, 2.442490654175340100E-015, 2.850973272897140200 ) ) ;
#49 = CARTESIAN_POINT ( 'NONE',  ( 12.84697272664539500, -4.331591724065866300, 3.227291363166890500 ) ) ;
#50 = PRODUCT_DEFINITION_FORMATION_WITH_SPECIFIED_SOURCE ( 'ANY', '', #78, .NOT_KNOWN. ) ;
#51 = CARTESIAN_POINT ( 'NONE',  ( 12.56291779815040100, 12.85071219968161000, 2.320173200410053900 ) ) ;
#52 = DIRECTION ( 'NONE',  ( -0.0000000000000000000, -0.0000000000000000000, -1.000000000000000000 ) ) ;
#53 = CIRCLE ( 'NONE', #232, 12.69999999999999900 ) ;
#54 = CALENDAR_DATE ( 2019, 7, 1 ) ;
#55 = CARTESIAN_POINT ( 'NONE',  ( -12.84697272664540300, 4.331591724065878800, 3.227291363166914000 ) ) ;
#56 = COORDINATED_UNIVERSAL_TIME_OFFSET ( 2, 0, .AHEAD. ) ;
#57 = CARTESIAN_POINT ( 'NONE',  ( -1.387778780781445700E-014, 12.85071219968161000, 1.176691685714227600 ) ) ;
#58 = ORIENTED_EDGE ( 'NONE', *, *, #27, .T. ) ;
#59 = APPLICATION_PROTOCOL_DEFINITION ( 'international standard', 'config_control_design', 1994, #206 ) ;
#60 = APPROVAL_PERSON_ORGANIZATION ( #24, #95, #210 ) ;
#61 = APPROVAL ( #290, 'UNSPECIFIED' ) ;
#62 = EDGE_CURVE ( 'NONE', #45, #258, #136, .T. ) ;
#63 = CARTESIAN_POINT ( 'NONE',  ( 8.605970128218285000, 4.331591724065882300, 4.005776194547292900 ) ) ;
#64 = ORIENTED_EDGE ( 'NONE', *, *, #79, .F. ) ;
#65 = ORIENTED_EDGE ( 'NONE', *, *, #79, .T. ) ;
#66 = DIRECTION ( 'NONE',  ( 0.0000000000000000000, 0.0000000000000000000, 1.000000000000000000 ) ) ;
#67 = AXIS2_PLACEMENT_3D ( 'NONE', #281, #144, #4 ) ;
#68 = DIRECTION ( 'NONE',  ( 1.000000000000000000, -8.881784197001252300E-016, 0.0000000000000000000 ) ) ;
#69 = CARTESIAN_POINT ( 'NONE',  ( -4.311860581298399900, -4.331591724065857500, -0.3966276645541053600 ) ) ;
#70 = CARTESIAN_POINT ( 'NONE',  ( -1.214306433183765000E-014, -4.331591724065859200, -0.3966276645541073100 ) ) ;
#71 = CARTESIAN_POINT ( 'NONE',  ( -8.415686527449741700, -12.85071219968158700, 1.558901175331773400 ) ) ;
#72 = PERSON_AND_ORGANIZATION ( #101, #208 ) ;
#73 = ORIENTED_EDGE ( 'NONE', *, *, #123, .F. ) ;
#74 = CARTESIAN_POINT ( 'NONE',  ( -4.216522537452408200, 12.85071219968161000, 2.823308314285804900 ) ) ;
#75 = ADVANCED_FACE ( 'NONE', ( #294 ), #148, .T. ) ;
#76 = DIRECTION ( 'NONE',  ( -0.0000000000000000000, -0.0000000000000000000, -1.000000000000000000 ) ) ;
#77 = CARTESIAN_POINT ( 'NONE',  ( -12.69999999999999900, 3.997792089092478900E-015, 1.149026727102860000 ) ) ;
#78 = PRODUCT ( '111-1214E UVFS bi-cx 25.4 F75', '111-1214E UVFS bi-cx 25.4 F75', '', ( #185 ) ) ;
#79 = EDGE_CURVE ( 'NONE', #45, #108, #28, .T. ) ;
#80 = CARTESIAN_POINT ( 'NONE',  ( 12.69999999999999900, 2.442490654175340100E-015, 1.149026727102860000 ) ) ;
#81 = COORDINATED_UNIVERSAL_TIME_OFFSET ( 2, 0, .AHEAD. ) ;
#82 = APPLICATION_CONTEXT ( 'configuration controlled 3d designs of mechanical parts and assemblies' ) ;
#83 = CIRCLE ( 'NONE', #295, 12.69999999999999900 ) ;
#84 =( NAMED_UNIT ( * ) PLANE_ANGLE_UNIT ( ) SI_UNIT ( $, .RADIAN. ) );
#85 = PERSON_AND_ORGANIZATION ( #101, #208 ) ;
#86 = EDGE_CURVE ( 'NONE', #188, #45, #111, .T. ) ;
#87 = LOCAL_TIME ( 9, 9, 46.00000000000000000, #157 ) ;
#88 = PERSON_AND_ORGANIZATION ( #101, #208 ) ;
#89 = CIRCLE ( 'NONE', #280, 70.76000000000000500 ) ;
#90 = CARTESIAN_POINT ( 'NONE',  ( 6.870427586348437400E-015, -12.69999999999998200, 1.149026727102860700 ) ) ;
#91 = EDGE_CURVE ( 'NONE', #192, #226, #89, .T. ) ;
#92 = CARTESIAN_POINT ( 'NONE',  ( 12.84697272664539400, 4.331591724065882300, 3.227291363166902500 ) ) ;
#93 = DATE_AND_TIME ( #109, #117 ) ;
#94 = DIRECTION ( 'NONE',  ( 1.000000000000000000, 0.0000000000000000000, 0.0000000000000000000 ) ) ;
#95 = APPROVAL ( #179, 'UNSPECIFIED' ) ;
#96 = CARTESIAN_POINT ( 'NONE',  ( 4.311860581298410500, 4.331591724065881400, 4.396627664554107400 ) ) ;
#97 = ORIENTED_EDGE ( 'NONE', *, *, #36, .T. ) ;
#98 = CARTESIAN_POINT ( 'NONE',  ( 6.870427586348438900E-015, 12.70000000000000500, 1.149026727102860700 ) ) ;
#99 = CARTESIAN_POINT ( 'NONE',  ( 6.876168692206941000E-015, 12.85071219968161000, 1.176691685714215100 ) ) ;
#100 = LINE ( 'NONE', #80, #195 ) ;
#101 = PERSON ( 'UNSPECIFIED', 'UNSPECIFIED', 'UNSPECIFIED', ('UNSPECIFIED'), ('UNSPECIFIED'), ('UNSPECIFIED') ) ;
#102 = DIRECTION ( 'NONE',  ( 1.000000000000000000, -1.776356839400250500E-015, 0.0000000000000000000 ) ) ;
#103 = APPROVAL_DATE_TIME ( #246, #129 ) ;
#104 = CARTESIAN_POINT ( 'NONE',  ( -12.56291779815040000, 12.85071219968160400, 1.679826799589957200 ) ) ;
#105 = ADVANCED_FACE ( 'NONE', ( #265 ), #110, .T. ) ;
#106 = AXIS2_PLACEMENT_3D ( 'NONE', #164, #189, #130 ) ;
#107 = VERTEX_POINT ( 'NONE', #126 ) ;
#108 = VERTEX_POINT ( 'NONE', #98 ) ;
#109 = CALENDAR_DATE ( 2019, 7, 1 ) ;
#110 =( BOUNDED_SURFACE ( )  B_SPLINE_SURFACE ( 3, 3, ( 
 ( #260, #263, #37, #9 ),
 ( #168, #11, #165, #261 ),
 ( #128, #124, #198, #149 ),
 ( #99, #171, #238, #51 ) ),
 .UNSPECIFIED., .F., .F., .F. ) 
 B_SPLINE_SURFACE_WITH_KNOTS ( ( 4, 4 ),
 ( 4, 4 ),
 ( 0.0000000000000000000, 1.000000000000000000 ),
 ( 0.0000000000000000000, 1.000000000000000000 ),
 .UNSPECIFIED. ) 
 GEOMETRIC_REPRESENTATION_ITEM ( )  RATIONAL_B_SPLINE_SURFACE ( (
 ( 1.000000000000000000, 0.9972554718094693800, 0.9972554718094693800, 1.000000000000000000),
 ( 0.9889137772214603400, 0.9861996754818719300, 0.9861996754818719300, 0.9889137772214603400),
 ( 0.9889137772214603400, 0.9861996754818719300, 0.9861996754818719300, 0.9889137772214603400),
 ( 1.000000000000000000, 0.9972554718094693800, 0.9972554718094693800, 1.000000000000000000) ) ) 
 REPRESENTATION_ITEM ( '' )  SURFACE ( )  );
#111 = CIRCLE ( 'NONE', #31, 12.69999999999999900 ) ;
#112 = PERSON_AND_ORGANIZATION_ROLE ( 'design_supplier' ) ;
#113 =( BOUNDED_SURFACE ( )  B_SPLINE_SURFACE ( 3, 3, ( 
 ( #286, #71, #154, #193 ),
 ( #284, #220, #69, #70 ),
 ( #239, #202, #225, #43 ),
 ( #228, #229, #135, #57 ) ),
 .UNSPECIFIED., .F., .F., .F. ) 
 B_SPLINE_SURFACE_WITH_KNOTS ( ( 4, 4 ),
 ( 4, 4 ),
 ( 0.0000000000000000000, 1.000000000000000000 ),
 ( 0.0000000000000000000, 1.000000000000000000 ),
 .UNSPECIFIED. ) 
 GEOMETRIC_REPRESENTATION_ITEM ( )  RATIONAL_B_SPLINE_SURFACE ( (
 ( 1.000000000000000000, 0.9972554718094693800, 0.9972554718094693800, 1.000000000000000000),
 ( 0.9889137772214603400, 0.9861996754818719300, 0.9861996754818719300, 0.9889137772214603400),
 ( 0.9889137772214603400, 0.9861996754818719300, 0.9861996754818719300, 0.9889137772214603400),
 ( 1.000000000000000000, 0.9972554718094693800, 0.9972554718094693800, 1.000000000000000000) ) ) 
 REPRESENTATION_ITEM ( '' )  SURFACE ( )  );
#114 = PERSON_AND_ORGANIZATION ( #101, #208 ) ;
#115 = CC_DESIGN_DATE_AND_TIME_ASSIGNMENT ( #292, #142, ( #161 ) ) ;
#116 = FACE_OUTER_BOUND ( 'NONE', #141, .T. ) ;
#117 = LOCAL_TIME ( 9, 9, 46.00000000000000000, #199 ) ;
#118 = SECURITY_CLASSIFICATION ( '', '', #23 ) ;
#119 = CARTESIAN_POINT ( 'NONE',  ( 2.255140518769849200E-014, 12.85071219968160600, 2.823308314285792000 ) ) ;
#120 = LOCAL_TIME ( 9, 9, 46.00000000000000000, #56 ) ;
#121 = ORIENTED_EDGE ( 'NONE', *, *, #216, .T. ) ;
#122 = ORIENTED_EDGE ( 'NONE', *, *, #267, .F. ) ;
#123 = EDGE_CURVE ( 'NONE', #192, #107, #250, .T. ) ;
#124 = CARTESIAN_POINT ( 'NONE',  ( 4.311860581298404300, 4.331591724065885900, -0.3966276645541043100 ) ) ;
#125 = CC_DESIGN_PERSON_AND_ORGANIZATION_ASSIGNMENT ( #88, #181, ( #118 ) ) ;
#126 = CARTESIAN_POINT ( 'NONE',  ( -12.69999999999999900, 3.997792089092478900E-015, 2.850973272897140200 ) ) ;
#127 = VECTOR ( 'NONE', #174, 1000.000000000000000 ) ;
#128 = CARTESIAN_POINT ( 'NONE',  ( 6.549669272272117300E-015, 4.331591724065886800, -0.3966276645541034800 ) ) ;
#129 = APPROVAL ( #182, 'UNSPECIFIED' ) ;
#130 = DIRECTION ( 'NONE',  ( 0.0000000000000000000, -1.000000000000000000, 3.922495140705046700E-016 ) ) ;
#131 = ORIENTED_EDGE ( 'NONE', *, *, #36, .F. ) ;
#132 = CARTESIAN_POINT ( 'NONE',  ( -8.415686527449743400, -12.85071219968159500, 2.441098824668229000 ) ) ;
#133 = ADVANCED_FACE ( 'NONE', ( #276 ), #20, .T. ) ;
#134 = CC_DESIGN_APPROVAL ( #95, ( #161 ) ) ;
#135 = CARTESIAN_POINT ( 'NONE',  ( -4.216522537452410900, 12.85071219968161100, 1.176691685714229600 ) ) ;
#136 = CIRCLE ( 'NONE', #67, 12.69999999999999900 ) ;
#137 = ORIENTED_EDGE ( 'NONE', *, *, #216, .F. ) ;
#138 =( LENGTH_UNIT ( ) NAMED_UNIT ( * ) SI_UNIT ( .MILLI., .METRE. ) );
#139 = COORDINATED_UNIVERSAL_TIME_OFFSET ( 2, 0, .AHEAD. ) ;
#140 = CC_DESIGN_SECURITY_CLASSIFICATION ( #118, ( #50 ) ) ;
#141 = EDGE_LOOP ( 'NONE', ( #274, #131, #245 ) ) ;
#142 = DATE_TIME_ROLE ( 'creation_date' ) ;
#143 = CIRCLE ( 'NONE', #40, 12.69999999999999900 ) ;
#144 = DIRECTION ( 'NONE',  ( -0.0000000000000000000, -0.0000000000000000000, -1.000000000000000000 ) ) ;
#145 = CARTESIAN_POINT ( 'NONE',  ( 12.56291779815038900, 12.85071219968160800, 1.679826799589945200 ) ) ;
#146 = DIRECTION ( 'NONE',  ( 1.000000000000000000, 0.0000000000000000000, 0.0000000000000000000 ) ) ;
#147 = AXIS2_PLACEMENT_3D ( 'NONE', #230, #211, #207 ) ;
#148 = CYLINDRICAL_SURFACE ( 'NONE', #271, 12.69999999999999900 ) ;
#149 = CARTESIAN_POINT ( 'NONE',  ( 12.84697272664540600, 4.331591724065887700, 0.7727086368330972100 ) ) ;
#150 = EDGE_LOOP ( 'NONE', ( #73, #204, #163 ) ) ;
#151 = CARTESIAN_POINT ( 'NONE',  ( 4.996003610813200500E-016, 2.442490654175340100E-015, 1.149026727102860000 ) ) ;
#152 = DIRECTION ( 'NONE',  ( 1.000000000000000000, 0.0000000000000000000, 0.0000000000000000000 ) ) ;
#153 = ORIENTED_EDGE ( 'NONE', *, *, #123, .T. ) ;
#154 = CARTESIAN_POINT ( 'NONE',  ( -4.216522537452409100, -12.85071219968158800, 1.176691685714215100 ) ) ;
#155 = AXIS2_PLACEMENT_3D ( 'NONE', #240, #6, #152 ) ;
#156 = CARTESIAN_POINT ( 'NONE',  ( -4.311860581298393700, 4.331591724065880600, 4.396627664554122500 ) ) ;
#157 = COORDINATED_UNIVERSAL_TIME_OFFSET ( 2, 0, .AHEAD. ) ;
#158 = APPROVAL_DATE_TIME ( #175, #61 ) ;
#159 = AXIS2_PLACEMENT_3D ( 'NONE', #197, #52, #219 ) ;
#160 = CIRCLE ( 'NONE', #159, 12.69999999999999900 ) ;
#161 = PRODUCT_DEFINITION ( 'UNKNOWN', '', #50, #186 ) ;
#162 =( BOUNDED_SURFACE ( )  B_SPLINE_SURFACE ( 3, 3, ( 
 ( #190, #278, #233, #279 ),
 ( #49, #1, #213, #257 ),
 ( #92, #63, #96, #255 ),
 ( #145, #215, #275, #119 ) ),
 .UNSPECIFIED., .F., .F., .F. ) 
 B_SPLINE_SURFACE_WITH_KNOTS ( ( 4, 4 ),
 ( 4, 4 ),
 ( 0.0000000000000000000, 1.000000000000000000 ),
 ( 0.0000000000000000000, 1.000000000000000000 ),
 .UNSPECIFIED. ) 
 GEOMETRIC_REPRESENTATION_ITEM ( )  RATIONAL_B_SPLINE_SURFACE ( (
 ( 1.000000000000000000, 0.9972554718094693800, 0.9972554718094693800, 1.000000000000000000),
 ( 0.9889137772214603400, 0.9861996754818719300, 0.9861996754818719300, 0.9889137772214603400),
 ( 0.9889137772214603400, 0.9861996754818719300, 0.9861996754818719300, 0.9889137772214603400),
 ( 1.000000000000000000, 0.9972554718094693800, 0.9972554718094693800, 1.000000000000000000) ) ) 
 REPRESENTATION_ITEM ( '' )  SURFACE ( )  );
#163 = ORIENTED_EDGE ( 'NONE', *, *, #270, .F. ) ;
#164 = CARTESIAN_POINT ( 'NONE',  ( 2.131628207280299900E-014, 2.131628207280299900E-014, 70.76000000000000500 ) ) ;
#165 = CARTESIAN_POINT ( 'NONE',  ( 8.605970128218286800, -4.331591724065858400, -0.005776194547311725600 ) ) ;
#166 = CARTESIAN_POINT ( 'NONE',  ( 4.996003610813200500E-016, 2.442490654175340100E-015, 1.149026727102860000 ) ) ;
#167 = FACE_OUTER_BOUND ( 'NONE', #25, .T. ) ;
#168 = CARTESIAN_POINT ( 'NONE',  ( 6.549669272272115000E-015, -4.331591724065861000, -0.3966276645541193500 ) ) ;
#169 = ORIENTED_EDGE ( 'NONE', *, *, #267, .T. ) ;
#170 = PRODUCT_RELATED_PRODUCT_CATEGORY ( 'detail', '', ( #78 ) ) ;
#171 = CARTESIAN_POINT ( 'NONE',  ( 4.216522537452414500, 12.85071219968161100, 1.176691685714214200 ) ) ;
#172 = PERSON_AND_ORGANIZATION ( #101, #208 ) ;
#173 = CARTESIAN_POINT ( 'NONE',  ( -8.605970128218274300, -4.331591724065869000, 4.005776194547293800 ) ) ;
#174 = DIRECTION ( 'NONE',  ( 0.0000000000000000000, 0.0000000000000000000, 1.000000000000000000 ) ) ;
#175 = DATE_AND_TIME ( #234, #120 ) ;
#176 = CC_DESIGN_PERSON_AND_ORGANIZATION_ASSIGNMENT ( #217, #247, ( #161 ) ) ;
#177 = PERSON_AND_ORGANIZATION ( #101, #208 ) ;
#178 = ORIENTED_EDGE ( 'NONE', *, *, #237, .T. ) ;
#179 = APPROVAL_STATUS ( 'not_yet_approved' ) ;
#180 = LOCAL_TIME ( 9, 9, 46.00000000000000000, #81 ) ;
#181 = PERSON_AND_ORGANIZATION_ROLE ( 'classification_officer' ) ;
#182 = APPROVAL_STATUS ( 'not_yet_approved' ) ;
#183 = CC_DESIGN_DATE_AND_TIME_ASSIGNMENT ( #93, #293, ( #118 ) ) ;
#184 = APPROVAL_PERSON_ORGANIZATION ( #114, #61, #249 ) ;
#185 = MECHANICAL_CONTEXT ( 'NONE', #206, 'mechanical' ) ;
#186 = DESIGN_CONTEXT ( 'detailed design', #82, 'design' ) ;
#187 = ADVANCED_BREP_SHAPE_REPRESENTATION ( '111-1214E UVFS bi-cx 25.4 F75', ( #10, #147 ), #12 ) ;
#188 = VERTEX_POINT ( 'NONE', #236 ) ;
#189 = DIRECTION ( 'NONE',  ( 1.000000000000000000, -8.522206114262920100E-032, -2.075226621214190000E-016 ) ) ;
#190 = CARTESIAN_POINT ( 'NONE',  ( 12.56291779815039300, -12.85071219968159000, 1.679826799589931400 ) ) ;
#191 = DIRECTION ( 'NONE',  ( -0.0000000000000000000, -0.0000000000000000000, -1.000000000000000000 ) ) ;
#192 = VERTEX_POINT ( 'NONE', #283 ) ;
#193 = CARTESIAN_POINT ( 'NONE',  ( -1.040834085586084300E-014, -12.85071219968158700, 1.176691685714213100 ) ) ;
#194 = DIRECTION ( 'NONE',  ( 2.053319388625779700E-016, -1.000000000000000000, 0.0000000000000000000 ) ) ;
#195 = VECTOR ( 'NONE', #17, 1000.000000000000000 ) ;
#196 = ORIENTED_EDGE ( 'NONE', *, *, #254, .F. ) ;
#197 = CARTESIAN_POINT ( 'NONE',  ( 4.996003610813200500E-016, 2.442490654175340100E-015, 1.149026727102860000 ) ) ;
#198 = CARTESIAN_POINT ( 'NONE',  ( 8.605970128218285000, 4.331591724065886800, -0.005776194547296003800 ) ) ;
#199 = COORDINATED_UNIVERSAL_TIME_OFFSET ( 2, 0, .AHEAD. ) ;
#200 = CALENDAR_DATE ( 2019, 7, 1 ) ;
#201 = CARTESIAN_POINT ( 'NONE',  ( -8.605970128218277900, 4.331591724065879700, 4.005776194547305400 ) ) ;
#202 = CARTESIAN_POINT ( 'NONE',  ( -8.605970128218272600, 4.331591724065887700, -0.005776194547277463900 ) ) ;
#203 = CARTESIAN_POINT ( 'NONE',  ( -4.216522537452402000, -12.85071219968159400, 2.823308314285791100 ) ) ;
#204 = ORIENTED_EDGE ( 'NONE', *, *, #91, .T. ) ;
#205 = CARTESIAN_POINT ( 'NONE',  ( 8.109952487562166100E-015, -12.85071219968159200, 2.823308314285788400 ) ) ;
#206 = APPLICATION_CONTEXT ( 'configuration controlled 3d designs of mechanical parts and assemblies' ) ;
#207 = DIRECTION ( 'NONE',  ( 1.000000000000000000, 0.0000000000000000000, 0.0000000000000000000 ) ) ;
#208 = ORGANIZATION ( 'UNSPECIFIED', 'UNSPECIFIED', '' ) ;
#209 = EDGE_LOOP ( 'NONE', ( #227, #169, #14, #58, #196, #137 ) ) ;
#210 = APPROVAL_ROLE ( '' ) ;
#211 = DIRECTION ( 'NONE',  ( 0.0000000000000000000, 0.0000000000000000000, 1.000000000000000000 ) ) ;
#212 = FACE_OUTER_BOUND ( 'NONE', #150, .T. ) ;
#213 = CARTESIAN_POINT ( 'NONE',  ( 4.311860581298414100, -4.331591724065867200, 4.396627664554096700 ) ) ;
#214 = AXIS2_PLACEMENT_3D ( 'NONE', #166, #32, #102 ) ;
#215 = CARTESIAN_POINT ( 'NONE',  ( 8.415686527449750500, 12.85071219968161000, 2.441098824668231200 ) ) ;
#216 = EDGE_CURVE ( 'NONE', #108, #188, #252, .T. ) ;
#217 = PERSON_AND_ORGANIZATION ( #101, #208 ) ;
#218 = CARTESIAN_POINT ( 'NONE',  ( -2.131628207280299900E-014, 2.131628207280299900E-014, -66.76000000000000500 ) ) ;
#219 = DIRECTION ( 'NONE',  ( 1.000000000000000000, 8.881784197001252300E-016, 0.0000000000000000000 ) ) ;
#220 = CARTESIAN_POINT ( 'NONE',  ( -8.605970128218270800, -4.331591724065857500, -0.005776194547293293300 ) ) ;
#221 = CC_DESIGN_APPROVAL ( #129, ( #118 ) ) ;
#222 = ORIENTED_EDGE ( 'NONE', *, *, #86, .F. ) ;
#223 = CARTESIAN_POINT ( 'NONE',  ( 2.832629184110959900E-015, 12.85071219968160600, 2.823308314285802200 ) ) ;
#224 = CARTESIAN_POINT ( 'NONE',  ( 4.996003610813200500E-016, 2.442490654175340100E-015, 2.850973272897140200 ) ) ;
#225 = CARTESIAN_POINT ( 'NONE',  ( -4.311860581298402600, 4.331591724065887700, -0.3966276645540895400 ) ) ;
#226 = VERTEX_POINT ( 'NONE', #266 ) ;
#227 = ORIENTED_EDGE ( 'NONE', *, *, #237, .F. ) ;
#228 = CARTESIAN_POINT ( 'NONE',  ( -12.56291779815037700, 12.85071219968161100, 2.320173200410072100 ) ) ;
#229 = CARTESIAN_POINT ( 'NONE',  ( -8.415686527449739900, 12.85071219968161300, 1.558901175331786700 ) ) ;
#230 = CARTESIAN_POINT ( 'NONE',  ( 0.0000000000000000000, 0.0000000000000000000, 0.0000000000000000000 ) ) ;
#231 = APPLICATION_PROTOCOL_DEFINITION ( 'international standard', 'config_control_design', 1994, #82 ) ;
#232 = AXIS2_PLACEMENT_3D ( 'NONE', #224, #76, #268 ) ;
#233 = CARTESIAN_POINT ( 'NONE',  ( 4.216522537452425100, -12.85071219968159400, 2.823308314285776000 ) ) ;
#234 = CALENDAR_DATE ( 2019, 7, 1 ) ;
#235 =( BOUNDED_SURFACE ( )  B_SPLINE_SURFACE ( 3, 3, ( 
 ( #205, #203, #132, #288 ),
 ( #19, #269, #173, #289 ),
 ( #41, #156, #201, #55 ),
 ( #223, #74, #241, #104 ) ),
 .UNSPECIFIED., .F., .F., .T. ) 
 B_SPLINE_SURFACE_WITH_KNOTS ( ( 4, 4 ),
 ( 4, 4 ),
 ( 0.0000000000000000000, 1.000000000000000000 ),
 ( 0.0000000000000000000, 1.000000000000000000 ),
 .UNSPECIFIED. ) 
 GEOMETRIC_REPRESENTATION_ITEM ( )  RATIONAL_B_SPLINE_SURFACE ( (
 ( 1.000000000000000000, 0.9972554718094693800, 0.9972554718094693800, 1.000000000000000000),
 ( 0.9889137772214603400, 0.9861996754818719300, 0.9861996754818719300, 0.9889137772214603400),
 ( 0.9889137772214603400, 0.9861996754818719300, 0.9861996754818719300, 0.9889137772214603400),
 ( 1.000000000000000000, 0.9972554718094693800, 0.9972554718094693800, 1.000000000000000000) ) ) 
 REPRESENTATION_ITEM ( '' )  SURFACE ( )  );
#236 = CARTESIAN_POINT ( 'NONE',  ( 12.69999999999999900, 2.442490654175340100E-015, 1.149026727102860000 ) ) ;
#237 = EDGE_CURVE ( 'NONE', #258, #108, #160, .T. ) ;
#238 = CARTESIAN_POINT ( 'NONE',  ( 8.415686527449752300, 12.85071219968161100, 1.558901175331768500 ) ) ;
#239 = CARTESIAN_POINT ( 'NONE',  ( -12.84697272664538100, 4.331591724065888500, 0.7727086368331150800 ) ) ;
#240 = CARTESIAN_POINT ( 'NONE',  ( 4.996003610813200500E-016, 2.442490654175340100E-015, 2.850973272897140200 ) ) ;
#241 = CARTESIAN_POINT ( 'NONE',  ( -8.415686527449747000, 12.85071219968160800, 2.441098824668243200 ) ) ;
#242 = ORIENTED_EDGE ( 'NONE', *, *, #86, .T. ) ;
#243 = ADVANCED_FACE ( 'NONE', ( #167 ), #113, .T. ) ;
#244 = DATE_AND_TIME ( #200, #256 ) ;
#245 = ORIENTED_EDGE ( 'NONE', *, *, #27, .F. ) ;
#246 = DATE_AND_TIME ( #54, #180 ) ;
#247 = PERSON_AND_ORGANIZATION_ROLE ( 'creator' ) ;
#248 = CC_DESIGN_PERSON_AND_ORGANIZATION_ASSIGNMENT ( #72, #273, ( #78 ) ) ;
#249 = APPROVAL_ROLE ( '' ) ;
#250 = CIRCLE ( 'NONE', #155, 12.69999999999999900 ) ;
#251 = UNCERTAINTY_MEASURE_WITH_UNIT (LENGTH_MEASURE( 1.000000000000000100E-005 ), #138, 'distance_accuracy_value', 'NONE');
#252 = CIRCLE ( 'NONE', #214, 12.69999999999999900 ) ;
#253 = EDGE_LOOP ( 'NONE', ( #122, #29, #222, #277, #97, #153 ) ) ;
#254 = EDGE_CURVE ( 'NONE', #188, #39, #100, .T. ) ;
#255 = CARTESIAN_POINT ( 'NONE',  ( 2.255140518769849900E-014, 4.331591724065879700, 4.396627664554109100 ) ) ;
#256 = LOCAL_TIME ( 9, 9, 46.00000000000000000, #139 ) ;
#257 = CARTESIAN_POINT ( 'NONE',  ( 2.602085213965210600E-014, -4.331591724065869000, 4.396627664554099400 ) ) ;
#258 = VERTEX_POINT ( 'NONE', #18 ) ;
#259 = CARTESIAN_POINT ( 'NONE',  ( 4.996003610813200500E-016, 2.442490654175340100E-015, 2.850973272897140200 ) ) ;
#260 = CARTESIAN_POINT ( 'NONE',  ( 6.876168692206937900E-015, -12.85071219968158700, 1.176691685714201400 ) ) ;
#261 = CARTESIAN_POINT ( 'NONE',  ( 12.84697272664541000, -4.331591724065860100, 0.7727086368330817700 ) ) ;
#262 = DIRECTION ( 'NONE',  ( 0.0000000000000000000, 0.0000000000000000000, 1.000000000000000000 ) ) ;
#263 = CARTESIAN_POINT ( 'NONE',  ( 4.216522537452415300, -12.85071219968158800, 1.176691685714200200 ) ) ;
#264 = CC_DESIGN_APPROVAL ( #61, ( #50 ) ) ;
#265 = FACE_OUTER_BOUND ( 'NONE', #282, .T. ) ;
#266 = CARTESIAN_POINT ( 'NONE',  ( 2.874225425871390500E-015, 12.70000000000000500, 2.850973272897141100 ) ) ;
#267 = EDGE_CURVE ( 'NONE', #258, #107, #7, .T. ) ;
#268 = DIRECTION ( 'NONE',  ( 1.000000000000000000, 0.0000000000000000000, 0.0000000000000000000 ) ) ;
#269 = CARTESIAN_POINT ( 'NONE',  ( -4.311860581298391000, -4.331591724065868100, 4.396627664554111800 ) ) ;
#270 = EDGE_CURVE ( 'NONE', #107, #226, #53, .T. ) ;
#271 = AXIS2_PLACEMENT_3D ( 'NONE', #5, #66, #146 ) ;
#272 = SHAPE_DEFINITION_REPRESENTATION ( #30, #187 ) ;
#273 = PERSON_AND_ORGANIZATION_ROLE ( 'design_owner' ) ;
#274 = ORIENTED_EDGE ( 'NONE', *, *, #91, .F. ) ;
#275 = CARTESIAN_POINT ( 'NONE',  ( 4.216522537452420700, 12.85071219968161000, 2.823308314285790200 ) ) ;
#276 = FACE_OUTER_BOUND ( 'NONE', #253, .T. ) ;
#277 = ORIENTED_EDGE ( 'NONE', *, *, #254, .T. ) ;
#278 = CARTESIAN_POINT ( 'NONE',  ( 8.415686527449754100, -12.85071219968159200, 2.441098824668217000 ) ) ;
#279 = CARTESIAN_POINT ( 'NONE',  ( 2.775557561562891400E-014, -12.85071219968159200, 2.823308314285778200 ) ) ;
#280 = AXIS2_PLACEMENT_3D ( 'NONE', #218, #8, #194 ) ;
#281 = CARTESIAN_POINT ( 'NONE',  ( 4.996003610813200500E-016, 2.442490654175340100E-015, 1.149026727102860000 ) ) ;
#282 = EDGE_LOOP ( 'NONE', ( #242, #65, #121 ) ) ;
#283 = CARTESIAN_POINT ( 'NONE',  ( 8.089656672980869100E-015, -12.69999999999998200, 2.850973272897141100 ) ) ;
#284 = CARTESIAN_POINT ( 'NONE',  ( -12.84697272664538100, -4.331591724065859200, 0.7727086368330992000 ) ) ;
#285 = DIRECTION ( 'NONE',  ( -0.0000000000000000000, -0.0000000000000000000, -1.000000000000000000 ) ) ;
#286 = CARTESIAN_POINT ( 'NONE',  ( -12.56291779815037800, -12.85071219968158500, 2.320173200410058400 ) ) ;
#287 = ADVANCED_FACE ( 'NONE', ( #212 ), #235, .T. ) ;
#288 = CARTESIAN_POINT ( 'NONE',  ( -12.56291779815039300, -12.85071219968159200, 1.679826799589943200 ) ) ;
#289 = CARTESIAN_POINT ( 'NONE',  ( -12.84697272664539700, -4.331591724065870800, 3.227291363166903800 ) ) ;
#290 = APPROVAL_STATUS ( 'not_yet_approved' ) ;
#291 = APPROVAL_ROLE ( '' ) ;
#292 = DATE_AND_TIME ( #33, #87 ) ;
#293 = DATE_TIME_ROLE ( 'classification_date' ) ;
#294 = FACE_OUTER_BOUND ( 'NONE', #209, .T. ) ;
#295 = AXIS2_PLACEMENT_3D ( 'NONE', #47, #2, #94 ) ;
ENDSEC;
END-ISO-10303-21;
