ISO-10303-21;
HEADER;
FILE_DESCRIPTION (( 'STEP AP203' ),
    '1' );
FILE_NAME ('111-1210E UVFS bi-cx 25.4 F50.STEP',
    '2019-01-07T06:56:57',
    ( '' ),
    ( '' ),
    'SwSTEP 2.0',
    'SolidWorks 2017',
    '' );
FILE_SCHEMA (( 'CONFIG_CONTROL_DESIGN' ));
ENDSEC;

DATA;
#1 = APPROVAL_PERSON_ORGANIZATION ( #167, #138, #216 ) ;
#2 = CIRCLE ( 'NONE', #261, 12.69999999999999900 ) ;
#3 = CARTESIAN_POINT ( 'NONE',  ( -7.105427357601000300E-015, -12.84844335195475800, 1.805472183324191600 ) ) ;
#4 = CARTESIAN_POINT ( 'NONE',  ( 4.159571552350166200, -12.84844335195475700, 1.805472183324191100 ) ) ;
#5 =( NAMED_UNIT ( * ) SI_UNIT ( $, .STERADIAN. ) SOLID_ANGLE_UNIT ( ) );
#6 = EDGE_CURVE ( 'NONE', #81, #258, #15, .T. ) ;
#7 = DIRECTION ( 'NONE',  ( 0.0000000000000000000, 0.0000000000000000000, 1.000000000000000000 ) ) ;
#8 = CARTESIAN_POINT ( 'NONE',  ( 4.996003610813200500E-016, 2.442490654175340100E-015, 1.763178891053810000 ) ) ;
#9 = CIRCLE ( 'NONE', #250, 12.69999999999999900 ) ;
#10 = DIRECTION ( 'NONE',  ( 1.000000000000000000, 0.0000000000000000000, 0.0000000000000000000 ) ) ;
#11 = ADVANCED_FACE ( 'NONE', ( #142 ), #270, .T. ) ;
#12 = DIRECTION ( 'NONE',  ( -1.000000000000000000, 0.0000000000000000000, 0.0000000000000000000 ) ) ;
#13 = EDGE_CURVE ( 'NONE', #211, #50, #125, .T. ) ;
#14 = ORIENTED_EDGE ( 'NONE', *, *, #184, .F. ) ;
#15 = CIRCLE ( 'NONE', #114, 12.69999999999999900 ) ;
#16 = MANIFOLD_SOLID_BREP ( 'Imported1', #31 ) ;
#17 = CARTESIAN_POINT ( 'NONE',  ( 7.105427357600997100E-015, 4.396319859126469600, 6.617773919938788800 ) ) ;
#18 = AXIS2_PLACEMENT_3D ( 'NONE', #290, #98, #228 ) ;
#19 = CARTESIAN_POINT ( 'NONE',  ( 4.996003610813200500E-016, 2.442490654175340100E-015, 4.236821108946189800 ) ) ;
#20 = DIRECTION ( 'NONE',  ( 1.000000000000000000, 0.0000000000000000000, 0.0000000000000000000 ) ) ;
#21 = CARTESIAN_POINT ( 'NONE',  ( -4.159571552350167100, -12.84844335195477600, 4.194527816675806900 ) ) ;
#22 = CALENDAR_DATE ( 2019, 7, 1 ) ;
#23 = VERTEX_POINT ( 'NONE', #176 ) ;
#24 = CARTESIAN_POINT ( 'NONE',  ( -12.94351399285128900, -4.396319859126476700, 4.809866062185488300 ) ) ;
#25 = CARTESIAN_POINT ( 'NONE',  ( 1.734723475976807100E-014, 12.84844335195477100, 4.194527816675799800 ) ) ;
#26 = CARTESIAN_POINT ( 'NONE',  ( 1.734723475976807100E-014, -12.84844335195477800, 4.194527816675806000 ) ) ;
#27 = EDGE_LOOP ( 'NONE', ( #220, #269, #265 ) ) ;
#28 = APPROVAL_ROLE ( '' ) ;
#29 = CARTESIAN_POINT ( 'NONE',  ( 4.384491149778692300, -4.396319859126467800, -0.6177739199387929400 ) ) ;
#30 = DIRECTION ( 'NONE',  ( 1.000000000000000000, -1.776356839400250500E-015, 0.0000000000000000000 ) ) ;
#31 = CLOSED_SHELL ( 'NONE', ( #11, #131, #287, #89, #221, #109 ) ) ;
#32 = CC_DESIGN_DATE_AND_TIME_ASSIGNMENT ( #170, #238, ( #92 ) ) ;
#33 = FACE_OUTER_BOUND ( 'NONE', #263, .T. ) ;
#34 = ORIENTED_EDGE ( 'NONE', *, *, #236, .T. ) ;
#35 = APPLICATION_CONTEXT ( 'configuration controlled 3d designs of mechanical parts and assemblies' ) ;
#36 = DIRECTION ( 'NONE',  ( 1.000000000000000000, -8.881784197001252300E-016, 0.0000000000000000000 ) ) ;
#37 = AXIS2_PLACEMENT_3D ( 'NONE', #19, #188, #230 ) ;
#38 = CARTESIAN_POINT ( 'NONE',  ( 12.69999999999999900, 2.442490654175340100E-015, 4.236821108946189800 ) ) ;
#39 = ORIENTED_EDGE ( 'NONE', *, *, #204, .T. ) ;
#40 = CARTESIAN_POINT ( 'NONE',  ( -12.94351399285130800, -4.396319859126467800, 1.190133937814517900 ) ) ;
#41 = EDGE_CURVE ( 'NONE', #242, #50, #195, .T. ) ;
#42 = COORDINATED_UNIVERSAL_TIME_OFFSET ( 2, 0, .AHEAD. ) ;
#43 = CALENDAR_DATE ( 2019, 7, 1 ) ;
#44 = AXIS2_PLACEMENT_3D ( 'NONE', #8, #154, #36 ) ;
#45 = CARTESIAN_POINT ( 'NONE',  ( 7.105427357600998700E-015, -12.84844335195477800, 4.194527816675806900 ) ) ;
#46 = CARTESIAN_POINT ( 'NONE',  ( -8.279151554466979600, -12.84844335195477600, 3.619118305735900400 ) ) ;
#47 = FACE_OUTER_BOUND ( 'NONE', #96, .T. ) ;
#48 = DIRECTION ( 'NONE',  ( 1.000000000000000000, 8.881784197001252300E-016, 0.0000000000000000000 ) ) ;
#49 = CARTESIAN_POINT ( 'NONE',  ( -7.105427357601000300E-015, 0.0000000000000000000, 46.62000000000000500 ) ) ;
#50 = VERTEX_POINT ( 'NONE', #110 ) ;
#51 = CARTESIAN_POINT ( 'NONE',  ( 4.384491149778720700, 4.396319859126469600, 6.617773919938788800 ) ) ;
#52 = CARTESIAN_POINT ( 'NONE',  ( -12.69999999999999900, 3.997792089092478900E-015, 4.236821108946189800 ) ) ;
#53 = COORDINATED_UNIVERSAL_TIME_OFFSET ( 2, 0, .AHEAD. ) ;
#54 = CARTESIAN_POINT ( 'NONE',  ( 4.159571552350167100, 12.84844335195475800, 1.805472183324198500 ) ) ;
#55 = CARTESIAN_POINT ( 'NONE',  ( 4.996003610813200500E-016, 2.442490654175340100E-015, 1.763178891053810000 ) ) ;
#56 =( BOUNDED_SURFACE ( )  B_SPLINE_SURFACE ( 3, 3, ( 
 ( #61, #85, #262, #26 ),
 ( #234, #294, #191, #73 ),
 ( #194, #121, #51, #212 ),
 ( #171, #103, #231, #25 ) ),
 .UNSPECIFIED., .F., .F., .F. ) 
 B_SPLINE_SURFACE_WITH_KNOTS ( ( 4, 4 ),
 ( 4, 4 ),
 ( 0.0000000000000000000, 1.000000000000000000 ),
 ( 0.0000000000000000000, 1.000000000000000000 ),
 .UNSPECIFIED. ) 
 GEOMETRIC_REPRESENTATION_ITEM ( )  RATIONAL_B_SPLINE_SURFACE ( (
 ( 1.000000000000000000, 0.9935904375839271800, 0.9935904375839271800, 1.000000000000000000),
 ( 0.9741817219601858200, 0.9679376434086847100, 0.9679376434086847100, 0.9741817219601858200),
 ( 0.9741817219601858200, 0.9679376434086847100, 0.9679376434086847100, 0.9741817219601858200),
 ( 1.000000000000000000, 0.9935904375839271800, 0.9935904375839271800, 1.000000000000000000) ) ) 
 REPRESENTATION_ITEM ( '' )  SURFACE ( )  );
#57 =( NAMED_UNIT ( * ) PLANE_ANGLE_UNIT ( ) SI_UNIT ( $, .RADIAN. ) );
#58 = PERSON_AND_ORGANIZATION ( #237, #155 ) ;
#59 = FACE_OUTER_BOUND ( 'NONE', #27, .T. ) ;
#60 = CARTESIAN_POINT ( 'NONE',  ( -12.27952589089573200, -12.84844335195476000, 3.520636346618394100 ) ) ;
#61 = CARTESIAN_POINT ( 'NONE',  ( 12.27952589089573000, -12.84844335195478000, 2.479363653381604100 ) ) ;
#62 = AXIS2_PLACEMENT_3D ( 'NONE', #100, #159, #108 ) ;
#63 = CARTESIAN_POINT ( 'NONE',  ( -1.734723475976807100E-014, -12.84844335195475800, 1.805472183324191800 ) ) ;
#64 = DATE_AND_TIME ( #257, #126 ) ;
#65 = COORDINATED_UNIVERSAL_TIME_OFFSET ( 2, 0, .AHEAD. ) ;
#66 = CIRCLE ( 'NONE', #37, 12.69999999999999900 ) ;
#67 = PRODUCT_DEFINITION_SHAPE ( 'NONE', 'NONE',  #92 ) ;
#68 = CIRCLE ( 'NONE', #147, 12.69999999999999900 ) ;
#69 = CC_DESIGN_DATE_AND_TIME_ASSIGNMENT ( #267, #151, ( #281 ) ) ;
#70 = CARTESIAN_POINT ( 'NONE',  ( -12.69999999999999900, 3.997792089092478900E-015, 1.763178891053810000 ) ) ;
#71 = DIRECTION ( 'NONE',  ( 1.000000000000000000, 0.0000000000000000000, 0.0000000000000000000 ) ) ;
#72 = ORIENTED_EDGE ( 'NONE', *, *, #135, .F. ) ;
#73 = CARTESIAN_POINT ( 'NONE',  ( 1.734723475976806800E-014, -4.396319859126477600, 6.617773919938797700 ) ) ;
#74 = AXIS2_PLACEMENT_3D ( 'NONE', #127, #7, #80 ) ;
#75 = ORIENTED_EDGE ( 'NONE', *, *, #41, .F. ) ;
#76 = CARTESIAN_POINT ( 'NONE',  ( 8.279151554466977800, -12.84844335195475700, 2.380881694264098200 ) ) ;
#77 = CARTESIAN_POINT ( 'NONE',  ( -7.105427357600998700E-015, 4.396319859126469600, -0.6177739199387863900 ) ) ;
#78 = APPROVAL_STATUS ( 'not_yet_approved' ) ;
#79 = ORIENTED_EDGE ( 'NONE', *, *, #184, .T. ) ;
#80 = DIRECTION ( 'NONE',  ( 1.000000000000000000, 0.0000000000000000000, 0.0000000000000000000 ) ) ;
#81 = VERTEX_POINT ( 'NONE', #178 ) ;
#82 = CARTESIAN_POINT ( 'NONE',  ( -12.69999999999999900, 3.997792089092478900E-015, 1.763178891053810000 ) ) ;
#83 = CC_DESIGN_PERSON_AND_ORGANIZATION_ASSIGNMENT ( #291, #245, ( #239 ) ) ;
#84 = CARTESIAN_POINT ( 'NONE',  ( -12.27952589089573500, 12.84844335195475800, 3.520636346618401200 ) ) ;
#85 = CARTESIAN_POINT ( 'NONE',  ( 8.279151554467002700, -12.84844335195477800, 3.619118305735900000 ) ) ;
#86 = ORIENTED_EDGE ( 'NONE', *, *, #182, .F. ) ;
#87 = CARTESIAN_POINT ( 'NONE',  ( -1.908195823574487800E-014, 12.84844335195476000, 1.805472183324197800 ) ) ;
#88 = AXIS2_PLACEMENT_3D ( 'NONE', #49, #71, #168 ) ;
#89 = ADVANCED_FACE ( 'NONE', ( #206 ), #112, .T. ) ;
#90 = APPROVAL_DATE_TIME ( #64, #138 ) ;
#91 = ORIENTED_EDGE ( 'NONE', *, *, #169, .F. ) ;
#92 = PRODUCT_DEFINITION ( 'UNKNOWN', '', #292, #94 ) ;
#93 = ORIENTED_EDGE ( 'NONE', *, *, #217, .T. ) ;
#94 = DESIGN_CONTEXT ( 'detailed design', #130, 'design' ) ;
#95 = LOCAL_TIME ( 8, 56, 57.00000000000000000, #53 ) ;
#96 = EDGE_LOOP ( 'NONE', ( #123, #185, #165, #268, #117, #139 ) ) ;
#97 = DIRECTION ( 'NONE',  ( 0.0000000000000000000, 0.0000000000000000000, 1.000000000000000000 ) ) ;
#98 = DIRECTION ( 'NONE',  ( -0.0000000000000000000, -0.0000000000000000000, -1.000000000000000000 ) ) ;
#99 =( GEOMETRIC_REPRESENTATION_CONTEXT ( 3 ) GLOBAL_UNCERTAINTY_ASSIGNED_CONTEXT ( ( #193 ) ) GLOBAL_UNIT_ASSIGNED_CONTEXT ( ( #107, #57, #5 ) ) REPRESENTATION_CONTEXT ( 'NONE', 'WORKASPACE' ) );
#100 = CARTESIAN_POINT ( 'NONE',  ( 4.996003610813200500E-016, 2.442490654175340100E-015, 1.763178891053810000 ) ) ;
#101 = DATE_AND_TIME ( #43, #224 ) ;
#102 = VERTEX_POINT ( 'NONE', #38 ) ;
#103 = CARTESIAN_POINT ( 'NONE',  ( 8.279151554467004500, 12.84844335195476900, 3.619118305735893800 ) ) ;
#104 = PERSON_AND_ORGANIZATION_ROLE ( 'design_supplier' ) ;
#105 = CARTESIAN_POINT ( 'NONE',  ( 4.384491149778691400, 4.396319859126471400, -0.6177739199387865000 ) ) ;
#106 = PERSON_AND_ORGANIZATION_ROLE ( 'creator' ) ;
#107 =( LENGTH_UNIT ( ) NAMED_UNIT ( * ) SI_UNIT ( .MILLI., .METRE. ) );
#108 = DIRECTION ( 'NONE',  ( 1.000000000000000000, 0.0000000000000000000, 0.0000000000000000000 ) ) ;
#109 = ADVANCED_FACE ( 'NONE', ( #59 ), #56, .T. ) ;
#110 = CARTESIAN_POINT ( 'NONE',  ( 7.105427357600998700E-015, 12.70000000000001000, 4.236821108946185400 ) ) ;
#111 = COORDINATED_UNIVERSAL_TIME_OFFSET ( 2, 0, .AHEAD. ) ;
#112 =( BOUNDED_SURFACE ( )  B_SPLINE_SURFACE ( 3, 3, ( 
 ( #60, #202, #115, #63 ),
 ( #40, #158, #260, #113 ),
 ( #201, #285, #282, #222 ),
 ( #84, #134, #162, #87 ) ),
 .UNSPECIFIED., .F., .F., .T. ) 
 B_SPLINE_SURFACE_WITH_KNOTS ( ( 4, 4 ),
 ( 4, 4 ),
 ( 0.0000000000000000000, 1.000000000000000000 ),
 ( 0.0000000000000000000, 1.000000000000000000 ),
 .UNSPECIFIED. ) 
 GEOMETRIC_REPRESENTATION_ITEM ( )  RATIONAL_B_SPLINE_SURFACE ( (
 ( 1.000000000000000000, 0.9935904375839271800, 0.9935904375839271800, 1.000000000000000000),
 ( 0.9741817219601858200, 0.9679376434086847100, 0.9679376434086847100, 0.9741817219601858200),
 ( 0.9741817219601858200, 0.9679376434086847100, 0.9679376434086847100, 0.9741817219601858200),
 ( 1.000000000000000000, 0.9935904375839271800, 0.9935904375839271800, 1.000000000000000000) ) ) 
 REPRESENTATION_ITEM ( '' )  SURFACE ( )  );
#113 = CARTESIAN_POINT ( 'NONE',  ( -1.734723475976806800E-014, -4.396319859126467800, -0.6177739199387927100 ) ) ;
#114 = AXIS2_PLACEMENT_3D ( 'NONE', #149, #153, #150 ) ;
#115 = CARTESIAN_POINT ( 'NONE',  ( -4.159571552350191900, -12.84844335195475700, 1.805472183324192200 ) ) ;
#116 = APPROVAL_DATE_TIME ( #219, #271 ) ;
#117 = ORIENTED_EDGE ( 'NONE', *, *, #156, .T. ) ;
#118 = PERSON_AND_ORGANIZATION ( #237, #155 ) ;
#119 = CARTESIAN_POINT ( 'NONE',  ( -12.94351399285128700, 4.396319859126468700, 4.809866062185480300 ) ) ;
#120 = DIRECTION ( 'NONE',  ( -0.0000000000000000000, -0.0000000000000000000, -1.000000000000000000 ) ) ;
#121 = CARTESIAN_POINT ( 'NONE',  ( 8.726828295026580300, 4.396319859126469600, 6.011250417106131400 ) ) ;
#122 = CARTESIAN_POINT ( 'NONE',  ( 7.105427357600998700E-015, -12.70000000000001000, 4.236821108946192500 ) ) ;
#123 = ORIENTED_EDGE ( 'NONE', *, *, #204, .F. ) ;
#124 = CARTESIAN_POINT ( 'NONE',  ( 4.996003610813200500E-016, 2.442490654175340100E-015, 4.236821108946189800 ) ) ;
#125 = CIRCLE ( 'NONE', #198, 46.62000000000000500 ) ;
#126 = LOCAL_TIME ( 8, 56, 57.00000000000000000, #42 ) ;
#127 = CARTESIAN_POINT ( 'NONE',  ( 0.0000000000000000000, 0.0000000000000000000, 0.0000000000000000000 ) ) ;
#128 = APPROVAL_PERSON_ORGANIZATION ( #246, #271, #240 ) ;
#129 = DIRECTION ( 'NONE',  ( -0.0000000000000000000, -0.0000000000000000000, -1.000000000000000000 ) ) ;
#130 = APPLICATION_CONTEXT ( 'configuration controlled 3d designs of mechanical parts and assemblies' ) ;
#131 = ADVANCED_FACE ( 'NONE', ( #145 ), #132, .T. ) ;
#132 =( BOUNDED_SURFACE ( )  B_SPLINE_SURFACE ( 3, 3, ( 
 ( #45, #21, #46, #275 ),
 ( #253, #189, #227, #24 ),
 ( #17, #143, #232, #119 ),
 ( #187, #277, #293, #140 ) ),
 .UNSPECIFIED., .F., .F., .F. ) 
 B_SPLINE_SURFACE_WITH_KNOTS ( ( 4, 4 ),
 ( 4, 4 ),
 ( 0.0000000000000000000, 1.000000000000000000 ),
 ( 0.0000000000000000000, 1.000000000000000000 ),
 .UNSPECIFIED. ) 
 GEOMETRIC_REPRESENTATION_ITEM ( )  RATIONAL_B_SPLINE_SURFACE ( (
 ( 1.000000000000000000, 0.9935904375839271800, 0.9935904375839271800, 1.000000000000000000),
 ( 0.9741817219601858200, 0.9679376434086847100, 0.9679376434086847100, 0.9741817219601858200),
 ( 0.9741817219601858200, 0.9679376434086847100, 0.9679376434086847100, 0.9741817219601858200),
 ( 1.000000000000000000, 0.9935904375839271800, 0.9935904375839271800, 1.000000000000000000) ) ) 
 REPRESENTATION_ITEM ( '' )  SURFACE ( )  );
#133 = DIRECTION ( 'NONE',  ( 0.0000000000000000000, -1.000000000000000000, 2.976788461564662400E-016 ) ) ;
#134 = CARTESIAN_POINT ( 'NONE',  ( -8.279151554467006200, 12.84844335195475700, 2.380881694264103600 ) ) ;
#135 = EDGE_CURVE ( 'NONE', #211, #242, #190, .T. ) ;
#136 = CIRCLE ( 'NONE', #44, 12.69999999999999900 ) ;
#137 = ORIENTED_EDGE ( 'NONE', *, *, #182, .T. ) ;
#138 = APPROVAL ( #295, 'UNSPECIFIED' ) ;
#139 = ORIENTED_EDGE ( 'NONE', *, *, #135, .T. ) ;
#140 = CARTESIAN_POINT ( 'NONE',  ( -12.27952589089570700, 12.84844335195477100, 2.479363653381597900 ) ) ;
#141 = CARTESIAN_POINT ( 'NONE',  ( 4.996003610813200500E-016, 2.442490654175340100E-015, 1.763178891053810000 ) ) ;
#142 = FACE_OUTER_BOUND ( 'NONE', #161, .T. ) ;
#143 = CARTESIAN_POINT ( 'NONE',  ( -4.384491149778694000, 4.396319859126471400, 6.617773919938791500 ) ) ;
#144 = PERSON_AND_ORGANIZATION ( #237, #155 ) ;
#145 = FACE_OUTER_BOUND ( 'NONE', #203, .T. ) ;
#146 = DIRECTION ( 'NONE',  ( -0.0000000000000000000, -0.0000000000000000000, -1.000000000000000000 ) ) ;
#147 = AXIS2_PLACEMENT_3D ( 'NONE', #55, #200, #10 ) ;
#148 = ORIENTED_EDGE ( 'NONE', *, *, #13, .T. ) ;
#149 = CARTESIAN_POINT ( 'NONE',  ( 4.996003610813200500E-016, 2.442490654175340100E-015, 1.763178891053810000 ) ) ;
#150 = DIRECTION ( 'NONE',  ( 1.000000000000000000, 0.0000000000000000000, 0.0000000000000000000 ) ) ;
#151 = DATE_TIME_ROLE ( 'classification_date' ) ;
#152 = CARTESIAN_POINT ( 'NONE',  ( -7.105427357601000300E-015, 12.84844335195476000, 1.805472183324198500 ) ) ;
#153 = DIRECTION ( 'NONE',  ( -0.0000000000000000000, -0.0000000000000000000, -1.000000000000000000 ) ) ;
#154 = DIRECTION ( 'NONE',  ( -0.0000000000000000000, -0.0000000000000000000, -1.000000000000000000 ) ) ;
#155 = ORGANIZATION ( 'UNSPECIFIED', 'UNSPECIFIED', '' ) ;
#156 = EDGE_CURVE ( 'NONE', #102, #211, #66, .T. ) ;
#157 = VERTEX_POINT ( 'NONE', #272 ) ;
#158 = CARTESIAN_POINT ( 'NONE',  ( -8.726828295026578500, -4.396319859126469600, -0.01125041710613454600 ) ) ;
#159 = DIRECTION ( 'NONE',  ( 0.0000000000000000000, 0.0000000000000000000, 1.000000000000000000 ) ) ;
#160 = CARTESIAN_POINT ( 'NONE',  ( 7.105427357601000300E-015, 0.0000000000000000000, -40.61999999999999700 ) ) ;
#161 = EDGE_LOOP ( 'NONE', ( #34, #137, #254 ) ) ;
#162 = CARTESIAN_POINT ( 'NONE',  ( -4.159571552350194600, 12.84844335195475800, 1.805472183324198900 ) ) ;
#163 = CC_DESIGN_APPROVAL ( #138, ( #92 ) ) ;
#164 = PERSON_AND_ORGANIZATION ( #237, #155 ) ;
#165 = ORIENTED_EDGE ( 'NONE', *, *, #236, .F. ) ;
#166 = CALENDAR_DATE ( 2019, 7, 1 ) ;
#167 = PERSON_AND_ORGANIZATION ( #237, #155 ) ;
#168 = DIRECTION ( 'NONE',  ( 0.0000000000000000000, -1.000000000000000000, -2.976788461564662400E-016 ) ) ;
#169 = EDGE_CURVE ( 'NONE', #23, #102, #235, .T. ) ;
#170 = DATE_AND_TIME ( #274, #233 ) ;
#171 = CARTESIAN_POINT ( 'NONE',  ( 12.27952589089573200, 12.84844335195476900, 2.479363653381597000 ) ) ;
#172 = APPROVAL ( #256, 'UNSPECIFIED' ) ;
#173 = CARTESIAN_POINT ( 'NONE',  ( -7.105427357600998700E-015, -4.396319859126466100, -0.6177739199387929400 ) ) ;
#174 = COORDINATED_UNIVERSAL_TIME_OFFSET ( 2, 0, .AHEAD. ) ;
#175 = CARTESIAN_POINT ( 'NONE',  ( 12.27952589089570300, 12.84844335195476000, 3.520636346618400300 ) ) ;
#176 = CARTESIAN_POINT ( 'NONE',  ( 12.69999999999999900, 2.442490654175340100E-015, 1.763178891053810000 ) ) ;
#177 = MECHANICAL_CONTEXT ( 'NONE', #35, 'mechanical' ) ;
#178 = CARTESIAN_POINT ( 'NONE',  ( -7.105427357601000300E-015, -12.69999999999999200, 1.763178891053810600 ) ) ;
#179 = LOCAL_TIME ( 8, 56, 57.00000000000000000, #65 ) ;
#180 = CC_DESIGN_APPROVAL ( #271, ( #292 ) ) ;
#181 = VECTOR ( 'NONE', #273, 1000.000000000000000 ) ;
#182 = EDGE_CURVE ( 'NONE', #81, #157, #249, .T. ) ;
#183 = APPROVAL_DATE_TIME ( #101, #172 ) ;
#184 = EDGE_CURVE ( 'NONE', #258, #157, #2, .T. ) ;
#185 = ORIENTED_EDGE ( 'NONE', *, *, #6, .F. ) ;
#186 = CC_DESIGN_APPROVAL ( #172, ( #281 ) ) ;
#187 = CARTESIAN_POINT ( 'NONE',  ( 7.105427357600998700E-015, 12.84844335195477100, 4.194527816675799800 ) ) ;
#188 = DIRECTION ( 'NONE',  ( -0.0000000000000000000, -0.0000000000000000000, -1.000000000000000000 ) ) ;
#189 = CARTESIAN_POINT ( 'NONE',  ( -4.384491149778694000, -4.396319859126476700, 6.617773919938798600 ) ) ;
#190 = CIRCLE ( 'NONE', #18, 12.69999999999999900 ) ;
#191 = CARTESIAN_POINT ( 'NONE',  ( 4.384491149778718000, -4.396319859126476700, 6.617773919938797700 ) ) ;
#192 = CC_DESIGN_PERSON_AND_ORGANIZATION_ASSIGNMENT ( #118, #197, ( #281 ) ) ;
#193 = UNCERTAINTY_MEASURE_WITH_UNIT (LENGTH_MEASURE( 1.000000000000000100E-005 ), #107, 'distance_accuracy_value', 'NONE');
#194 = CARTESIAN_POINT ( 'NONE',  ( 12.94351399285130800, 4.396319859126467800, 4.809866062185478500 ) ) ;
#195 = CIRCLE ( 'NONE', #289, 12.69999999999999900 ) ;
#196 = CARTESIAN_POINT ( 'NONE',  ( 8.726828295026550100, -4.396319859126468700, -0.01125041710613432900 ) ) ;
#197 = PERSON_AND_ORGANIZATION_ROLE ( 'classification_officer' ) ;
#198 = AXIS2_PLACEMENT_3D ( 'NONE', #160, #12, #133 ) ;
#199 = VECTOR ( 'NONE', #97, 1000.000000000000000 ) ;
#200 = DIRECTION ( 'NONE',  ( -0.0000000000000000000, -0.0000000000000000000, -1.000000000000000000 ) ) ;
#201 = CARTESIAN_POINT ( 'NONE',  ( -12.94351399285131000, 4.396319859126467800, 1.190133937814524800 ) ) ;
#202 = CARTESIAN_POINT ( 'NONE',  ( -8.279151554467004500, -12.84844335195475800, 2.380881694264097800 ) ) ;
#203 = EDGE_LOOP ( 'NONE', ( #72, #148, #75 ) ) ;
#204 = EDGE_CURVE ( 'NONE', #258, #242, #284, .T. ) ;
#205 = PERSON_AND_ORGANIZATION ( #237, #155 ) ;
#206 = FACE_OUTER_BOUND ( 'NONE', #276, .T. ) ;
#207 = ORIENTED_EDGE ( 'NONE', *, *, #6, .T. ) ;
#208 = SHAPE_DEFINITION_REPRESENTATION ( #67, #223 ) ;
#209 = DIRECTION ( 'NONE',  ( 0.0000000000000000000, 0.0000000000000000000, 1.000000000000000000 ) ) ;
#210 = ORIENTED_EDGE ( 'NONE', *, *, #225, .F. ) ;
#211 = VERTEX_POINT ( 'NONE', #122 ) ;
#212 = CARTESIAN_POINT ( 'NONE',  ( 2.081668171172168800E-014, 4.396319859126467800, 6.617773919938787900 ) ) ;
#213 = CC_DESIGN_SECURITY_CLASSIFICATION ( #281, ( #292 ) ) ;
#214 = SECURITY_CLASSIFICATION_LEVEL ( 'unclassified' ) ;
#215 = CARTESIAN_POINT ( 'NONE',  ( 12.94351399285128300, -4.396319859126466900, 1.190133937814517000 ) ) ;
#216 = APPROVAL_ROLE ( '' ) ;
#217 = EDGE_CURVE ( 'NONE', #50, #102, #9, .T. ) ;
#218 = CARTESIAN_POINT ( 'NONE',  ( 8.279151554466977800, 12.84844335195475800, 2.380881694264104500 ) ) ;
#219 = DATE_AND_TIME ( #22, #179 ) ;
#220 = ORIENTED_EDGE ( 'NONE', *, *, #13, .F. ) ;
#221 = ADVANCED_FACE ( 'NONE', ( #47 ), #278, .T. ) ;
#222 = CARTESIAN_POINT ( 'NONE',  ( -2.081668171172168800E-014, 4.396319859126467800, -0.6177739199387870500 ) ) ;
#223 = ADVANCED_BREP_SHAPE_REPRESENTATION ( '111-1210E UVFS bi-cx 25.4 F50', ( #16, #74 ), #99 ) ;
#224 = LOCAL_TIME ( 8, 56, 57.00000000000000000, #111 ) ;
#225 = EDGE_CURVE ( 'NONE', #157, #23, #136, .T. ) ;
#226 = PRODUCT_RELATED_PRODUCT_CATEGORY ( 'detail', '', ( #239 ) ) ;
#227 = CARTESIAN_POINT ( 'NONE',  ( -8.726828295026555400, -4.396319859126476700, 6.011250417106141200 ) ) ;
#228 = DIRECTION ( 'NONE',  ( 1.000000000000000000, 0.0000000000000000000, 0.0000000000000000000 ) ) ;
#229 = CARTESIAN_POINT ( 'NONE',  ( 4.996003610813200500E-016, 2.442490654175340100E-015, 1.763178891053810000 ) ) ;
#230 = DIRECTION ( 'NONE',  ( 1.000000000000000000, 0.0000000000000000000, 0.0000000000000000000 ) ) ;
#231 = CARTESIAN_POINT ( 'NONE',  ( 4.159571552350191900, 12.84844335195477100, 4.194527816675798900 ) ) ;
#232 = CARTESIAN_POINT ( 'NONE',  ( -8.726828295026553700, 4.396319859126470500, 6.011250417106132300 ) ) ;
#233 = LOCAL_TIME ( 8, 56, 57.00000000000000000, #174 ) ;
#234 = CARTESIAN_POINT ( 'NONE',  ( 12.94351399285130800, -4.396319859126477600, 4.809866062185487400 ) ) ;
#235 = LINE ( 'NONE', #251, #181 ) ;
#236 = EDGE_CURVE ( 'NONE', #23, #81, #68, .T. ) ;
#237 = PERSON ( 'UNSPECIFIED', 'UNSPECIFIED', 'UNSPECIFIED', ('UNSPECIFIED'), ('UNSPECIFIED'), ('UNSPECIFIED') ) ;
#238 = DATE_TIME_ROLE ( 'creation_date' ) ;
#239 = PRODUCT ( '111-1210E UVFS bi-cx 25.4 F50', '111-1210E UVFS bi-cx 25.4 F50', '', ( #177 ) ) ;
#240 = APPROVAL_ROLE ( '' ) ;
#241 = CARTESIAN_POINT ( 'NONE',  ( 12.94351399285128100, 4.396319859126468700, 1.190133937814523500 ) ) ;
#242 = VERTEX_POINT ( 'NONE', #52 ) ;
#243 = APPLICATION_PROTOCOL_DEFINITION ( 'international standard', 'config_control_design', 1994, #35 ) ;
#244 = CARTESIAN_POINT ( 'NONE',  ( 12.27952589089570300, -12.84844335195475800, 3.520636346618393200 ) ) ;
#245 = PERSON_AND_ORGANIZATION_ROLE ( 'design_owner' ) ;
#246 = PERSON_AND_ORGANIZATION ( #237, #155 ) ;
#247 = DIRECTION ( 'NONE',  ( 1.000000000000000000, 8.881784197001252300E-016, 0.0000000000000000000 ) ) ;
#248 = APPROVAL_PERSON_ORGANIZATION ( #164, #172, #28 ) ;
#249 = CIRCLE ( 'NONE', #88, 46.62000000000000500 ) ;
#250 = AXIS2_PLACEMENT_3D ( 'NONE', #124, #146, #30 ) ;
#251 = CARTESIAN_POINT ( 'NONE',  ( 12.69999999999999900, 2.442490654175340100E-015, 1.763178891053810000 ) ) ;
#252 = CC_DESIGN_PERSON_AND_ORGANIZATION_ASSIGNMENT ( #205, #279, ( #92 ) ) ;
#253 = CARTESIAN_POINT ( 'NONE',  ( 7.105427357600997100E-015, -4.396319859126475800, 6.617773919938797700 ) ) ;
#254 = ORIENTED_EDGE ( 'NONE', *, *, #225, .T. ) ;
#255 = AXIS2_PLACEMENT_3D ( 'NONE', #141, #209, #20 ) ;
#256 = APPROVAL_STATUS ( 'not_yet_approved' ) ;
#257 = CALENDAR_DATE ( 2019, 7, 1 ) ;
#258 = VERTEX_POINT ( 'NONE', #82 ) ;
#259 = APPLICATION_PROTOCOL_DEFINITION ( 'international standard', 'config_control_design', 1994, #130 ) ;
#260 = CARTESIAN_POINT ( 'NONE',  ( -4.384491149778718000, -4.396319859126469600, -0.6177739199387917200 ) ) ;
#261 = AXIS2_PLACEMENT_3D ( 'NONE', #229, #120, #48 ) ;
#262 = CARTESIAN_POINT ( 'NONE',  ( 4.159571552350191000, -12.84844335195477600, 4.194527816675805100 ) ) ;
#263 = EDGE_LOOP ( 'NONE', ( #14, #39, #288, #93, #91, #210 ) ) ;
#264 = CARTESIAN_POINT ( 'NONE',  ( 4.996003610813200500E-016, 2.442490654175340100E-015, 4.236821108946189800 ) ) ;
#265 = ORIENTED_EDGE ( 'NONE', *, *, #217, .F. ) ;
#266 = CC_DESIGN_PERSON_AND_ORGANIZATION_ASSIGNMENT ( #144, #106, ( #292 ) ) ;
#267 = DATE_AND_TIME ( #166, #95 ) ;
#268 = ORIENTED_EDGE ( 'NONE', *, *, #169, .T. ) ;
#269 = ORIENTED_EDGE ( 'NONE', *, *, #156, .F. ) ;
#270 =( BOUNDED_SURFACE ( )  B_SPLINE_SURFACE ( 3, 3, ( 
 ( #3, #4, #76, #244 ),
 ( #173, #29, #196, #215 ),
 ( #77, #105, #280, #241 ),
 ( #152, #54, #218, #175 ) ),
 .UNSPECIFIED., .F., .F., .F. ) 
 B_SPLINE_SURFACE_WITH_KNOTS ( ( 4, 4 ),
 ( 4, 4 ),
 ( 0.0000000000000000000, 1.000000000000000000 ),
 ( 0.0000000000000000000, 1.000000000000000000 ),
 .UNSPECIFIED. ) 
 GEOMETRIC_REPRESENTATION_ITEM ( )  RATIONAL_B_SPLINE_SURFACE ( (
 ( 1.000000000000000000, 0.9935904375839271800, 0.9935904375839271800, 1.000000000000000000),
 ( 0.9741817219601858200, 0.9679376434086847100, 0.9679376434086847100, 0.9741817219601858200),
 ( 0.9741817219601858200, 0.9679376434086847100, 0.9679376434086847100, 0.9741817219601858200),
 ( 1.000000000000000000, 0.9935904375839271800, 0.9935904375839271800, 1.000000000000000000) ) ) 
 REPRESENTATION_ITEM ( '' )  SURFACE ( )  );
#271 = APPROVAL ( #78, 'UNSPECIFIED' ) ;
#272 = CARTESIAN_POINT ( 'NONE',  ( -7.105427357601000300E-015, 12.69999999999999200, 1.763178891053817500 ) ) ;
#273 = DIRECTION ( 'NONE',  ( 0.0000000000000000000, 0.0000000000000000000, 1.000000000000000000 ) ) ;
#274 = CALENDAR_DATE ( 2019, 7, 1 ) ;
#275 = CARTESIAN_POINT ( 'NONE',  ( -12.27952589089570700, -12.84844335195477800, 2.479363653381605000 ) ) ;
#276 = EDGE_LOOP ( 'NONE', ( #86, #207, #79 ) ) ;
#277 = CARTESIAN_POINT ( 'NONE',  ( -4.159571552350168000, 12.84844335195477100, 4.194527816675799800 ) ) ;
#278 = CYLINDRICAL_SURFACE ( 'NONE', #255, 12.69999999999999900 ) ;
#279 = PERSON_AND_ORGANIZATION_ROLE ( 'creator' ) ;
#280 = CARTESIAN_POINT ( 'NONE',  ( 8.726828295026548300, 4.396319859126470500, -0.01125041710612760900 ) ) ;
#281 = SECURITY_CLASSIFICATION ( '', '', #214 ) ;
#282 = CARTESIAN_POINT ( 'NONE',  ( -4.384491149778720700, 4.396319859126469600, -0.6177739199387858300 ) ) ;
#283 = CYLINDRICAL_SURFACE ( 'NONE', #62, 12.69999999999999900 ) ;
#284 = LINE ( 'NONE', #70, #199 ) ;
#285 = CARTESIAN_POINT ( 'NONE',  ( -8.726828295026582100, 4.396319859126469600, -0.01125041710612825800 ) ) ;
#286 = CC_DESIGN_PERSON_AND_ORGANIZATION_ASSIGNMENT ( #58, #104, ( #292 ) ) ;
#287 = ADVANCED_FACE ( 'NONE', ( #33 ), #283, .T. ) ;
#288 = ORIENTED_EDGE ( 'NONE', *, *, #41, .T. ) ;
#289 = AXIS2_PLACEMENT_3D ( 'NONE', #264, #129, #247 ) ;
#290 = CARTESIAN_POINT ( 'NONE',  ( 4.996003610813200500E-016, 2.442490654175340100E-015, 4.236821108946189800 ) ) ;
#291 = PERSON_AND_ORGANIZATION ( #237, #155 ) ;
#292 = PRODUCT_DEFINITION_FORMATION_WITH_SPECIFIED_SOURCE ( 'ANY', '', #239, .NOT_KNOWN. ) ;
#293 = CARTESIAN_POINT ( 'NONE',  ( -8.279151554466979600, 12.84844335195477100, 3.619118305735893800 ) ) ;
#294 = CARTESIAN_POINT ( 'NONE',  ( 8.726828295026578500, -4.396319859126476700, 6.011250417106140300 ) ) ;
#295 = APPROVAL_STATUS ( 'not_yet_approved' ) ;
ENDSEC;
END-ISO-10303-21;
