ISO-10303-21;
HEADER;
FILE_DESCRIPTION (( 'STEP AP203' ),
    '1' );
FILE_NAME ('111-1207E UVFS bi-cx 25.4 F40.STEP',
    '2019-01-04T13:57:52',
    ( '' ),
    ( '' ),
    'SwSTEP 2.0',
    'SolidWorks 2017',
    '' );
FILE_SCHEMA (( 'CONFIG_CONTROL_DESIGN' ));
ENDSEC;

DATA;
#1 = CARTESIAN_POINT ( 'NONE',  ( -1.462278779227407400E-014, 4.468327026349028200, -0.8028890039371385800 ) ) ;
#2 = AXIS2_PLACEMENT_3D ( 'NONE', #154, #26, #177 ) ;
#3 = CARTESIAN_POINT ( 'NONE',  ( 12.69999999999999900, 2.442490654175340100E-015, 4.845634645651969700 ) ) ;
#4 = CARTESIAN_POINT ( 'NONE',  ( -8.130260686778905600, 12.84596305821130400, 4.071460364988328500 ) ) ;
#5 = DIRECTION ( 'NONE',  ( -0.0000000000000000000, -0.0000000000000000000, -1.000000000000000000 ) ) ;
#6 = APPROVAL_PERSON_ORGANIZATION ( #136, #55, #143 ) ;
#7 = ORIENTED_EDGE ( 'NONE', *, *, #293, .F. ) ;
#8 = CARTESIAN_POINT ( 'NONE',  ( 4.465518330146141000, 4.468327026349026500, -0.8028890039371400200 ) ) ;
#9 = CARTESIAN_POINT ( 'NONE',  ( 4.097039539092502700, 12.84596305821130200, 2.308220151211201700 ) ) ;
#10 = AXIS2_PLACEMENT_3D ( 'NONE', #260, #128, #38 ) ;
#11 = APPROVAL_ROLE ( '' ) ;
#12 = ORIENTED_EDGE ( 'NONE', *, *, #283, .F. ) ;
#13 = EDGE_CURVE ( 'NONE', #286, #245, #34, .T. ) ;
#14 = CIRCLE ( 'NONE', #205, 12.69999999999999900 ) ;
#15 =( LENGTH_UNIT ( ) NAMED_UNIT ( * ) SI_UNIT ( .MILLI., .METRE. ) );
#16 = ORIENTED_EDGE ( 'NONE', *, *, #293, .T. ) ;
#17 = CARTESIAN_POINT ( 'NONE',  ( -8.861478582098229100, 4.468327026349031800, -0.01778555844174205300 ) ) ;
#18 =( BOUNDED_SURFACE ( )  B_SPLINE_SURFACE ( 3, 3, ( 
 ( #244, #198, #24, #27 ),
 ( #114, #223, #243, #264 ),
 ( #225, #203, #115, #270 ),
 ( #97, #134, #4, #172 ) ),
 .UNSPECIFIED., .F., .F., .T. ) 
 B_SPLINE_SURFACE_WITH_KNOTS ( ( 4, 4 ),
 ( 4, 4 ),
 ( 0.0000000000000000000, 1.000000000000000000 ),
 ( 0.0000000000000000000, 1.000000000000000000 ),
 .UNSPECIFIED. ) 
 GEOMETRIC_REPRESENTATION_ITEM ( )  RATIONAL_B_SPLINE_SURFACE ( (
 ( 1.000000000000000000, 0.9896155275376804500, 0.9896155275376804500, 1.000000000000000000),
 ( 0.9582977389121732900, 0.9483463224317367800, 0.9483463224317367800, 0.9582977389121732900),
 ( 0.9582977389121732900, 0.9483463224317367800, 0.9483463224317367800, 0.9582977389121732900),
 ( 1.000000000000000000, 0.9896155275376804500, 0.9896155275376804500, 1.000000000000000000) ) ) 
 REPRESENTATION_ITEM ( '' )  SURFACE ( )  );
#19 = AXIS2_PLACEMENT_3D ( 'NONE', #110, #109, #288 ) ;
#20 = ORIENTED_EDGE ( 'NONE', *, *, #168, .F. ) ;
#21 = CARTESIAN_POINT ( 'NONE',  ( -13.05093157131067000, 4.468327026349035300, 1.527962677219587300 ) ) ;
#22 = CARTESIAN_POINT ( 'NONE',  ( 11.97401482123140300, -12.84596305821132100, 4.446738189081814100 ) ) ;
#23 = ORIENTED_EDGE ( 'NONE', *, *, #168, .T. ) ;
#24 = CARTESIAN_POINT ( 'NONE',  ( -8.130260686778889600, -12.84596305821131400, 4.071460364988328500 ) ) ;
#25 = EDGE_CURVE ( 'NONE', #75, #42, #251, .T. ) ;
#26 = DIRECTION ( 'NONE',  ( -0.0000000000000000000, -0.0000000000000000000, -1.000000000000000000 ) ) ;
#27 = CARTESIAN_POINT ( 'NONE',  ( -11.97401482123140000, -12.84596305821131600, 2.653261810918189100 ) ) ;
#28 = PERSON_AND_ORGANIZATION ( #179, #227 ) ;
#29 = CARTESIAN_POINT ( 'NONE',  ( 2.949029909160572100E-014, -4.468327026349037100, 7.902889003937137800 ) ) ;
#30 = VERTEX_POINT ( 'NONE', #240 ) ;
#31 = CARTESIAN_POINT ( 'NONE',  ( -12.69999999999999900, 3.997792089092478900E-015, 4.845634645651969700 ) ) ;
#32 = CARTESIAN_POINT ( 'NONE',  ( 0.0000000000000000000, 0.0000000000000000000, 0.0000000000000000000 ) ) ;
#33 = AXIS2_PLACEMENT_3D ( 'NONE', #120, #231, #99 ) ;
#34 = LINE ( 'NONE', #193, #189 ) ;
#35 = CARTESIAN_POINT ( 'NONE',  ( 4.097039539092516900, 12.84596305821130900, 4.791779848788793000 ) ) ;
#36 = PERSON_AND_ORGANIZATION ( #179, #227 ) ;
#37 =( BOUNDED_SURFACE ( )  B_SPLINE_SURFACE ( 3, 3, ( 
 ( #292, #152, #129, #153 ),
 ( #90, #195, #94, #67 ),
 ( #21, #17, #170, #294 ),
 ( #166, #63, #238, #242 ) ),
 .UNSPECIFIED., .F., .F., .F. ) 
 B_SPLINE_SURFACE_WITH_KNOTS ( ( 4, 4 ),
 ( 4, 4 ),
 ( 0.0000000000000000000, 1.000000000000000000 ),
 ( 0.0000000000000000000, 1.000000000000000000 ),
 .UNSPECIFIED. ) 
 GEOMETRIC_REPRESENTATION_ITEM ( )  RATIONAL_B_SPLINE_SURFACE ( (
 ( 1.000000000000000000, 0.9896155275376804500, 0.9896155275376804500, 1.000000000000000000),
 ( 0.9582977389121732900, 0.9483463224317367800, 0.9483463224317367800, 0.9582977389121732900),
 ( 0.9582977389121732900, 0.9483463224317367800, 0.9483463224317367800, 0.9582977389121732900),
 ( 1.000000000000000000, 0.9896155275376804500, 0.9896155275376804500, 1.000000000000000000) ) ) 
 REPRESENTATION_ITEM ( '' )  SURFACE ( )  );
#38 = DIRECTION ( 'NONE',  ( 1.000000000000000000, 0.0000000000000000000, 0.0000000000000000000 ) ) ;
#39 = CALENDAR_DATE ( 2019, 4, 1 ) ;
#40 = DIRECTION ( 'NONE',  ( 1.000000000000000000, 0.0000000000000000000, 0.0000000000000000000 ) ) ;
#41 = LOCAL_TIME ( 15, 57, 52.00000000000000000, #221 ) ;
#42 = VERTEX_POINT ( 'NONE', #192 ) ;
#43 = AXIS2_PLACEMENT_3D ( 'NONE', #175, #269, #73 ) ;
#44 = PRODUCT ( '111-1207E UVFS bi-cx 25.4 F40', '111-1207E UVFS bi-cx 25.4 F40', '', ( #254 ) ) ;
#45 = CARTESIAN_POINT ( 'NONE',  ( -2.038160638316536300E-014, -12.84596305821131600, 2.308220151211210200 ) ) ;
#46 = PERSON_AND_ORGANIZATION ( #179, #227 ) ;
#47 = CARTESIAN_POINT ( 'NONE',  ( 8.861478582098218500, -4.468327026349046000, -0.01778555844173901300 ) ) ;
#48 = AXIS2_PLACEMENT_3D ( 'NONE', #72, #135, #98 ) ;
#49 =( GEOMETRIC_REPRESENTATION_CONTEXT ( 3 ) GLOBAL_UNCERTAINTY_ASSIGNED_CONTEXT ( ( #202 ) ) GLOBAL_UNIT_ASSIGNED_CONTEXT ( ( #15, #232, #212 ) ) REPRESENTATION_CONTEXT ( 'NONE', 'WORKASPACE' ) );
#50 = CARTESIAN_POINT ( 'NONE',  ( 13.05093157131067700, 4.468327026349022900, 1.527962677219590700 ) ) ;
#51 = ORIENTED_EDGE ( 'NONE', *, *, #201, .F. ) ;
#52 = DIRECTION ( 'NONE',  ( -0.0000000000000000000, -0.0000000000000000000, -1.000000000000000000 ) ) ;
#53 = EDGE_CURVE ( 'NONE', #286, #30, #176, .T. ) ;
#54 = APPROVAL_STATUS ( 'not_yet_approved' ) ;
#55 = APPROVAL ( #163, 'UNSPECIFIED' ) ;
#56 = PERSON_AND_ORGANIZATION_ROLE ( 'design_owner' ) ;
#57 = APPROVAL_DATE_TIME ( #295, #55 ) ;
#58 = CLOSED_SHELL ( 'NONE', ( #239, #151, #69, #62, #262, #287 ) ) ;
#59 = APPROVAL_DATE_TIME ( #289, #139 ) ;
#60 = ORIENTED_EDGE ( 'NONE', *, *, #25, .F. ) ;
#61 = DIRECTION ( 'NONE',  ( -0.0000000000000000000, -0.0000000000000000000, -1.000000000000000000 ) ) ;
#62 = ADVANCED_FACE ( 'NONE', ( #241 ), #37, .T. ) ;
#63 = CARTESIAN_POINT ( 'NONE',  ( -8.130260686778909100, 12.84596305821130700, 3.028539635011670200 ) ) ;
#64 = VECTOR ( 'NONE', #82, 1000.000000000000000 ) ;
#65 = FACE_OUTER_BOUND ( 'NONE', #186, .T. ) ;
#66 = CC_DESIGN_DATE_AND_TIME_ASSIGNMENT ( #102, #284, ( #236 ) ) ;
#67 = CARTESIAN_POINT ( 'NONE',  ( -2.775557561562891400E-014, -4.468327026349042400, -0.8028890039371333600 ) ) ;
#68 = DIRECTION ( 'NONE',  ( 1.000000000000000000, 0.0000000000000000000, 0.0000000000000000000 ) ) ;
#69 = ADVANCED_FACE ( 'NONE', ( #121 ), #237, .T. ) ;
#70 = CARTESIAN_POINT ( 'NONE',  ( -3.552713678800500100E-015, -3.552713678800500100E-015, 36.90000000000000600 ) ) ;
#71 = EDGE_LOOP ( 'NONE', ( #51, #89, #266 ) ) ;
#72 = CARTESIAN_POINT ( 'NONE',  ( 3.552713678800500100E-015, -3.552713678800500100E-015, -29.80000000000000100 ) ) ;
#73 = DIRECTION ( 'NONE',  ( 1.000000000000000000, 0.0000000000000000000, 0.0000000000000000000 ) ) ;
#74 = CARTESIAN_POINT ( 'NONE',  ( 8.861478582098225600, 4.468327026349035300, 7.117785558441740400 ) ) ;
#75 = VERTEX_POINT ( 'NONE', #261 ) ;
#76 = CARTESIAN_POINT ( 'NONE',  ( 2.034245938098250200E-014, -12.69999999999999900, 4.845634645651974100 ) ) ;
#77 = DESIGN_CONTEXT ( 'detailed design', #87, 'design' ) ;
#78 = DIRECTION ( 'NONE',  ( 1.000000000000000000, 0.0000000000000000000, 0.0000000000000000000 ) ) ;
#79 = CARTESIAN_POINT ( 'NONE',  ( 8.130260686778914400, -12.84596305821130700, 4.071460364988327600 ) ) ;
#80 = CC_DESIGN_PERSON_AND_ORGANIZATION_ASSIGNMENT ( #282, #122, ( #220 ) ) ;
#81 = CIRCLE ( 'NONE', #191, 12.69999999999999900 ) ;
#82 = DIRECTION ( 'NONE',  ( 0.0000000000000000000, 0.0000000000000000000, 1.000000000000000000 ) ) ;
#83 = AXIS2_PLACEMENT_3D ( 'NONE', #70, #199, #113 ) ;
#84 = CARTESIAN_POINT ( 'NONE',  ( 8.130260686778907300, 12.84596305821131100, 4.071460364988328500 ) ) ;
#85 = CALENDAR_DATE ( 2019, 4, 1 ) ;
#86 = ORIENTED_EDGE ( 'NONE', *, *, #53, .T. ) ;
#87 = APPLICATION_CONTEXT ( 'configuration controlled 3d designs of mechanical parts and assemblies' ) ;
#88 = CC_DESIGN_APPROVAL ( #55, ( #236 ) ) ;
#89 = ORIENTED_EDGE ( 'NONE', *, *, #144, .T. ) ;
#90 = CARTESIAN_POINT ( 'NONE',  ( -13.05093157131067000, -4.468327026349037100, 1.527962677219592900 ) ) ;
#91 = APPROVAL_DATE_TIME ( #162, #259 ) ;
#92 = ORIENTED_EDGE ( 'NONE', *, *, #209, .F. ) ;
#93 = CARTESIAN_POINT ( 'NONE',  ( 4.996003610813200500E-016, 2.442490654175340100E-015, 2.254365354348030000 ) ) ;
#94 = CARTESIAN_POINT ( 'NONE',  ( -4.465518330146168500, -4.468327026349039800, -0.8028890039371305900 ) ) ;
#95 = CARTESIAN_POINT ( 'NONE',  ( 1.034126927134923800E-014, 12.69999999999999600, 4.845634645651970600 ) ) ;
#96 = ORIENTED_EDGE ( 'NONE', *, *, #174, .F. ) ;
#97 = CARTESIAN_POINT ( 'NONE',  ( 1.026547105351990700E-014, 12.84596305821130700, 4.791779848788792200 ) ) ;
#98 = DIRECTION ( 'NONE',  ( 3.937476421115460700E-016, -1.000000000000000000, 5.641377157648151900E-016 ) ) ;
#99 = DIRECTION ( 'NONE',  ( 1.000000000000000000, 0.0000000000000000000, 0.0000000000000000000 ) ) ;
#100 = CARTESIAN_POINT ( 'NONE',  ( 8.861478582098218500, 4.468327026349024700, -0.01778555844174465100 ) ) ;
#101 = CARTESIAN_POINT ( 'NONE',  ( -1.026547105351991000E-014, 12.84596305821130400, 2.308220151211203100 ) ) ;
#102 = DATE_AND_TIME ( #85, #248 ) ;
#103 = ORIENTED_EDGE ( 'NONE', *, *, #13, .F. ) ;
#104 = CARTESIAN_POINT ( 'NONE',  ( 2.949029909160572100E-014, -12.84596305821131100, 4.791779848788796600 ) ) ;
#105 = DIRECTION ( 'NONE',  ( 1.000000000000000000, 0.0000000000000000000, 0.0000000000000000000 ) ) ;
#106 = CALENDAR_DATE ( 2019, 4, 1 ) ;
#107 = ORIENTED_EDGE ( 'NONE', *, *, #13, .T. ) ;
#108 = DIRECTION ( 'NONE',  ( 0.0000000000000000000, 0.0000000000000000000, 1.000000000000000000 ) ) ;
#109 = DIRECTION ( 'NONE',  ( -0.0000000000000000000, -0.0000000000000000000, -1.000000000000000000 ) ) ;
#110 = CARTESIAN_POINT ( 'NONE',  ( 4.996003610813200500E-016, 2.442490654175340100E-015, 2.254365354348030000 ) ) ;
#111 = ORIENTED_EDGE ( 'NONE', *, *, #283, .T. ) ;
#112 = CARTESIAN_POINT ( 'NONE',  ( 13.05093157131067000, -4.468327026349046900, 1.527962677219596400 ) ) ;
#113 = DIRECTION ( 'NONE',  ( -3.937476421115459300E-016, -1.000000000000000000, 0.0000000000000000000 ) ) ;
#114 = CARTESIAN_POINT ( 'NONE',  ( 1.814157425389052700E-014, -4.468327026349037100, 7.902889003937133300 ) ) ;
#115 = CARTESIAN_POINT ( 'NONE',  ( -8.861478582098218500, 4.468327026349030000, 7.117785558441742200 ) ) ;
#116 = CARTESIAN_POINT ( 'NONE',  ( 8.861478582098229100, -4.468327026349034400, 7.117785558441739500 ) ) ;
#117 = AXIS2_PLACEMENT_3D ( 'NONE', #180, #250, #78 ) ;
#118 = LOCAL_TIME ( 15, 57, 52.00000000000000000, #155 ) ;
#119 = CIRCLE ( 'NONE', #43, 12.69999999999999900 ) ;
#120 = CARTESIAN_POINT ( 'NONE',  ( 4.996003610813200500E-016, 2.442490654175340100E-015, 2.254365354348030000 ) ) ;
#121 = FACE_OUTER_BOUND ( 'NONE', #160, .T. ) ;
#122 = PERSON_AND_ORGANIZATION_ROLE ( 'classification_officer' ) ;
#123 = CARTESIAN_POINT ( 'NONE',  ( -12.69999999999999900, 3.997792089092478900E-015, 2.254365354348030000 ) ) ;
#124 = APPROVAL_STATUS ( 'not_yet_approved' ) ;
#125 = CARTESIAN_POINT ( 'NONE',  ( 11.97401482123140300, 12.84596305821131100, 2.653261810918194000 ) ) ;
#126 = SHAPE_DEFINITION_REPRESENTATION ( #258, #226 ) ;
#127 = ORIENTED_EDGE ( 'NONE', *, *, #275, .T. ) ;
#128 = DIRECTION ( 'NONE',  ( 0.0000000000000000000, 0.0000000000000000000, 1.000000000000000000 ) ) ;
#129 = CARTESIAN_POINT ( 'NONE',  ( -4.097039539092525800, -12.84596305821131400, 2.308220151211211000 ) ) ;
#130 = LINE ( 'NONE', #123, #64 ) ;
#131 = CARTESIAN_POINT ( 'NONE',  ( 4.097039539092493000, -12.84596305821131800, 2.308220151211208800 ) ) ;
#132 = CC_DESIGN_PERSON_AND_ORGANIZATION_ASSIGNMENT ( #36, #56, ( #44 ) ) ;
#133 = EDGE_LOOP ( 'NONE', ( #194, #12, #96 ) ) ;
#134 = CARTESIAN_POINT ( 'NONE',  ( -4.097039539092503600, 12.84596305821130500, 4.791779848788793000 ) ) ;
#135 = DIRECTION ( 'NONE',  ( -1.000000000000000000, -3.937476421115459800E-016, 3.402780975999499800E-016 ) ) ;
#136 = PERSON_AND_ORGANIZATION ( #179, #227 ) ;
#137 = ORIENTED_EDGE ( 'NONE', *, *, #53, .F. ) ;
#138 = CARTESIAN_POINT ( 'NONE',  ( 2.428612866367530200E-014, 4.468327026349035300, 7.902889003937142200 ) ) ;
#139 = APPROVAL ( #124, 'UNSPECIFIED' ) ;
#140 = CARTESIAN_POINT ( 'NONE',  ( 8.130260686778909100, 12.84596305821130000, 3.028539635011668000 ) ) ;
#141 = PERSON_AND_ORGANIZATION ( #179, #227 ) ;
#142 = ORIENTED_EDGE ( 'NONE', *, *, #188, .T. ) ;
#143 = APPROVAL_ROLE ( '' ) ;
#144 = EDGE_CURVE ( 'NONE', #277, #218, #181, .T. ) ;
#145 = APPROVAL_ROLE ( '' ) ;
#146 = CIRCLE ( 'NONE', #33, 12.69999999999999900 ) ;
#147 = ORIENTED_EDGE ( 'NONE', *, *, #201, .T. ) ;
#148 = CC_DESIGN_PERSON_AND_ORGANIZATION_ASSIGNMENT ( #46, #213, ( #185 ) ) ;
#149 = DIRECTION ( 'NONE',  ( 0.0000000000000000000, 0.0000000000000000000, 1.000000000000000000 ) ) ;
#150 = ORIENTED_EDGE ( 'NONE', *, *, #25, .T. ) ;
#151 = ADVANCED_FACE ( 'NONE', ( #208 ), #18, .T. ) ;
#152 = CARTESIAN_POINT ( 'NONE',  ( -8.130260686778916200, -12.84596305821131200, 3.028539635011678200 ) ) ;
#153 = CARTESIAN_POINT ( 'NONE',  ( -2.775557561562891400E-014, -12.84596305821131600, 2.308220151211209300 ) ) ;
#154 = CARTESIAN_POINT ( 'NONE',  ( 4.996003610813200500E-016, 2.442490654175340100E-015, 4.845634645651969700 ) ) ;
#155 = COORDINATED_UNIVERSAL_TIME_OFFSET ( 2, 0, .AHEAD. ) ;
#156 = LOCAL_TIME ( 15, 57, 52.00000000000000000, #219 ) ;
#157 = DIRECTION ( 'NONE',  ( 1.000000000000000000, 8.881784197001252300E-016, 0.0000000000000000000 ) ) ;
#158 = CC_DESIGN_APPROVAL ( #139, ( #220 ) ) ;
#159 = CARTESIAN_POINT ( 'NONE',  ( 11.97401482123141600, 12.84596305821129800, 4.446738189081807800 ) ) ;
#160 = EDGE_LOOP ( 'NONE', ( #60, #16, #142, #222, #103, #234 ) ) ;
#161 = SECURITY_CLASSIFICATION_LEVEL ( 'unclassified' ) ;
#162 = DATE_AND_TIME ( #276, #41 ) ;
#163 = APPROVAL_STATUS ( 'not_yet_approved' ) ;
#164 = EDGE_LOOP ( 'NONE', ( #7, #92, #137, #107, #111, #147 ) ) ;
#165 =( BOUNDED_SURFACE ( )  B_SPLINE_SURFACE ( 3, 3, ( 
 ( #45, #131, #200, #22 ),
 ( #246, #173, #47, #112 ),
 ( #1, #8, #100, #50 ),
 ( #101, #9, #140, #159 ) ),
 .UNSPECIFIED., .F., .F., .T. ) 
 B_SPLINE_SURFACE_WITH_KNOTS ( ( 4, 4 ),
 ( 4, 4 ),
 ( 0.0000000000000000000, 1.000000000000000000 ),
 ( 0.0000000000000000000, 1.000000000000000000 ),
 .UNSPECIFIED. ) 
 GEOMETRIC_REPRESENTATION_ITEM ( )  RATIONAL_B_SPLINE_SURFACE ( (
 ( 1.000000000000000000, 0.9896155275376804500, 0.9896155275376804500, 1.000000000000000000),
 ( 0.9582977389121732900, 0.9483463224317367800, 0.9483463224317367800, 0.9582977389121732900),
 ( 0.9582977389121732900, 0.9483463224317367800, 0.9483463224317367800, 0.9582977389121732900),
 ( 1.000000000000000000, 0.9896155275376804500, 0.9896155275376804500, 1.000000000000000000) ) ) 
 REPRESENTATION_ITEM ( '' )  SURFACE ( )  );
#166 = CARTESIAN_POINT ( 'NONE',  ( -11.97401482123140300, 12.84596305821130900, 4.446738189081804300 ) ) ;
#167 = ORIENTED_EDGE ( 'NONE', *, *, #209, .T. ) ;
#168 = EDGE_CURVE ( 'NONE', #30, #42, #197, .T. ) ;
#169 = PRODUCT_RELATED_PRODUCT_CATEGORY ( 'detail', '', ( #44 ) ) ;
#170 = CARTESIAN_POINT ( 'NONE',  ( -4.465518330146167600, 4.468327026349030900, -0.8028890039371379100 ) ) ;
#171 = CIRCLE ( 'NONE', #183, 12.69999999999999900 ) ;
#172 = CARTESIAN_POINT ( 'NONE',  ( -11.97401482123141600, 12.84596305821130200, 2.653261810918188200 ) ) ;
#173 = CARTESIAN_POINT ( 'NONE',  ( 4.465518330146138300, -4.468327026349043300, -0.8028890039371346900 ) ) ;
#174 = EDGE_CURVE ( 'NONE', #218, #245, #171, .T. ) ;
#175 = CARTESIAN_POINT ( 'NONE',  ( 4.996003610813200500E-016, 2.442490654175340100E-015, 4.845634645651969700 ) ) ;
#176 = CIRCLE ( 'NONE', #19, 12.69999999999999900 ) ;
#177 = DIRECTION ( 'NONE',  ( 1.000000000000000000, 0.0000000000000000000, 0.0000000000000000000 ) ) ;
#178 =( BOUNDED_SURFACE ( )  B_SPLINE_SURFACE ( 3, 3, ( 
 ( #207, #79, #210, #104 ),
 ( #247, #116, #273, #29 ),
 ( #204, #74, #274, #138 ),
 ( #125, #84, #35, #235 ) ),
 .UNSPECIFIED., .F., .F., .T. ) 
 B_SPLINE_SURFACE_WITH_KNOTS ( ( 4, 4 ),
 ( 4, 4 ),
 ( 0.0000000000000000000, 1.000000000000000000 ),
 ( 0.0000000000000000000, 1.000000000000000000 ),
 .UNSPECIFIED. ) 
 GEOMETRIC_REPRESENTATION_ITEM ( )  RATIONAL_B_SPLINE_SURFACE ( (
 ( 1.000000000000000000, 0.9896155275376804500, 0.9896155275376804500, 1.000000000000000000),
 ( 0.9582977389121732900, 0.9483463224317367800, 0.9483463224317367800, 0.9582977389121732900),
 ( 0.9582977389121732900, 0.9483463224317367800, 0.9483463224317367800, 0.9582977389121732900),
 ( 1.000000000000000000, 0.9896155275376804500, 0.9896155275376804500, 1.000000000000000000) ) ) 
 REPRESENTATION_ITEM ( '' )  SURFACE ( )  );
#179 = PERSON ( 'UNSPECIFIED', 'UNSPECIFIED', 'UNSPECIFIED', ('UNSPECIFIED'), ('UNSPECIFIED'), ('UNSPECIFIED') ) ;
#180 = CARTESIAN_POINT ( 'NONE',  ( 4.996003610813200500E-016, 2.442490654175340100E-015, 2.254365354348030000 ) ) ;
#181 = CIRCLE ( 'NONE', #48, 36.90000000000000600 ) ;
#182 = CARTESIAN_POINT ( 'NONE',  ( 4.996003610813200500E-016, 2.442490654175340100E-015, 4.845634645651969700 ) ) ;
#183 = AXIS2_PLACEMENT_3D ( 'NONE', #228, #5, #157 ) ;
#184 = CYLINDRICAL_SURFACE ( 'NONE', #117, 12.69999999999999900 ) ;
#185 = PRODUCT_DEFINITION_FORMATION_WITH_SPECIFIED_SOURCE ( 'ANY', '', #44, .NOT_KNOWN. ) ;
#186 = EDGE_LOOP ( 'NONE', ( #86, #23, #127 ) ) ;
#187 = LOCAL_TIME ( 15, 57, 52.00000000000000000, #281 ) ;
#188 = EDGE_CURVE ( 'NONE', #249, #218, #119, .T. ) ;
#189 = VECTOR ( 'NONE', #108, 1000.000000000000000 ) ;
#190 = MANIFOLD_SOLID_BREP ( 'Imported1', #58 ) ;
#191 = AXIS2_PLACEMENT_3D ( 'NONE', #182, #52, #278 ) ;
#192 = CARTESIAN_POINT ( 'NONE',  ( -1.034126927134923800E-014, 12.69999999999999600, 2.254365354348026900 ) ) ;
#193 = CARTESIAN_POINT ( 'NONE',  ( 12.69999999999999900, 2.442490654175340100E-015, 2.254365354348030000 ) ) ;
#194 = ORIENTED_EDGE ( 'NONE', *, *, #144, .F. ) ;
#195 = CARTESIAN_POINT ( 'NONE',  ( -8.861478582098229100, -4.468327026349038000, -0.01778555844173597800 ) ) ;
#196 = CARTESIAN_POINT ( 'NONE',  ( 4.996003610813200500E-016, 2.442490654175340100E-015, 2.254365354348030000 ) ) ;
#197 = CIRCLE ( 'NONE', #83, 36.90000000000000600 ) ;
#198 = CARTESIAN_POINT ( 'NONE',  ( -4.097039539092493000, -12.84596305821131200, 4.791779848788793000 ) ) ;
#199 = DIRECTION ( 'NONE',  ( 1.000000000000000000, -3.937476421115459800E-016, -3.402780975999499800E-016 ) ) ;
#200 = CARTESIAN_POINT ( 'NONE',  ( 8.130260686778893100, -12.84596305821132000, 3.028539635011674700 ) ) ;
#201 = EDGE_CURVE ( 'NONE', #277, #249, #230, .T. ) ;
#202 = UNCERTAINTY_MEASURE_WITH_UNIT (LENGTH_MEASURE( 1.000000000000000100E-005 ), #15, 'distance_accuracy_value', 'NONE');
#203 = CARTESIAN_POINT ( 'NONE',  ( -4.465518330146141900, 4.468327026349031800, 7.902889003937136900 ) ) ;
#204 = CARTESIAN_POINT ( 'NONE',  ( 13.05093157131066800, 4.468327026349037100, 5.572037322780412100 ) ) ;
#205 = AXIS2_PLACEMENT_3D ( 'NONE', #196, #267, #68 ) ;
#206 = CARTESIAN_POINT ( 'NONE',  ( 12.69999999999999900, 2.442490654175340100E-015, 2.254365354348030000 ) ) ;
#207 = CARTESIAN_POINT ( 'NONE',  ( 11.97401482123140900, -12.84596305821130700, 2.653261810918194000 ) ) ;
#208 = FACE_OUTER_BOUND ( 'NONE', #71, .T. ) ;
#209 = EDGE_CURVE ( 'NONE', #30, #75, #14, .T. ) ;
#210 = CARTESIAN_POINT ( 'NONE',  ( 4.097039539092527600, -12.84596305821130900, 4.791779848788793000 ) ) ;
#211 = CC_DESIGN_APPROVAL ( #259, ( #185 ) ) ;
#212 =( NAMED_UNIT ( * ) SI_UNIT ( $, .STERADIAN. ) SOLID_ANGLE_UNIT ( ) );
#213 = PERSON_AND_ORGANIZATION_ROLE ( 'creator' ) ;
#214 = CALENDAR_DATE ( 2019, 4, 1 ) ;
#215 = PERSON_AND_ORGANIZATION_ROLE ( 'design_supplier' ) ;
#216 = PERSON_AND_ORGANIZATION ( #179, #227 ) ;
#217 = AXIS2_PLACEMENT_3D ( 'NONE', #32, #149, #105 ) ;
#218 = VERTEX_POINT ( 'NONE', #95 ) ;
#219 = COORDINATED_UNIVERSAL_TIME_OFFSET ( 2, 0, .AHEAD. ) ;
#220 = SECURITY_CLASSIFICATION ( '', '', #161 ) ;
#221 = COORDINATED_UNIVERSAL_TIME_OFFSET ( 2, 0, .AHEAD. ) ;
#222 = ORIENTED_EDGE ( 'NONE', *, *, #174, .T. ) ;
#223 = CARTESIAN_POINT ( 'NONE',  ( -4.465518330146139200, -4.468327026349038000, 7.902889003937135100 ) ) ;
#224 = CC_DESIGN_PERSON_AND_ORGANIZATION_ASSIGNMENT ( #216, #215, ( #185 ) ) ;
#225 = CARTESIAN_POINT ( 'NONE',  ( 1.462278779227407100E-014, 4.468327026349035300, 7.902889003937135100 ) ) ;
#226 = ADVANCED_BREP_SHAPE_REPRESENTATION ( '111-1207E UVFS bi-cx 25.4 F40', ( #190, #217 ), #49 ) ;
#227 = ORGANIZATION ( 'UNSPECIFIED', 'UNSPECIFIED', '' ) ;
#228 = CARTESIAN_POINT ( 'NONE',  ( 4.996003610813200500E-016, 2.442490654175340100E-015, 4.845634645651969700 ) ) ;
#229 = FACE_OUTER_BOUND ( 'NONE', #164, .T. ) ;
#230 = CIRCLE ( 'NONE', #2, 12.69999999999999900 ) ;
#231 = DIRECTION ( 'NONE',  ( -0.0000000000000000000, -0.0000000000000000000, -1.000000000000000000 ) ) ;
#232 =( NAMED_UNIT ( * ) PLANE_ANGLE_UNIT ( ) SI_UNIT ( $, .RADIAN. ) );
#233 = PERSON_AND_ORGANIZATION_ROLE ( 'creator' ) ;
#234 = ORIENTED_EDGE ( 'NONE', *, *, #275, .F. ) ;
#235 = CARTESIAN_POINT ( 'NONE',  ( 1.734723475976807100E-014, 12.84596305821130700, 4.791779848788796600 ) ) ;
#236 = PRODUCT_DEFINITION ( 'UNKNOWN', '', #185, #77 ) ;
#237 = CYLINDRICAL_SURFACE ( 'NONE', #10, 12.69999999999999900 ) ;
#238 = CARTESIAN_POINT ( 'NONE',  ( -4.097039539092517800, 12.84596305821130500, 2.308220151211203900 ) ) ;
#239 = ADVANCED_FACE ( 'NONE', ( #65 ), #165, .T. ) ;
#240 = CARTESIAN_POINT ( 'NONE',  ( -2.034245938098250200E-014, -12.69999999999999900, 2.254365354348026900 ) ) ;
#241 = FACE_OUTER_BOUND ( 'NONE', #257, .T. ) ;
#242 = CARTESIAN_POINT ( 'NONE',  ( -1.908195823574487800E-014, 12.84596305821130400, 2.308220151211201300 ) ) ;
#243 = CARTESIAN_POINT ( 'NONE',  ( -8.861478582098213200, -4.468327026349040700, 7.117785558441740400 ) ) ;
#244 = CARTESIAN_POINT ( 'NONE',  ( 2.038160638316536300E-014, -12.84596305821131100, 4.791779848788792200 ) ) ;
#245 = VERTEX_POINT ( 'NONE', #3 ) ;
#246 = CARTESIAN_POINT ( 'NONE',  ( -1.814157425389053100E-014, -4.468327026349042400, -0.8028890039371329200 ) ) ;
#247 = CARTESIAN_POINT ( 'NONE',  ( 13.05093157131067000, -4.468327026349035300, 5.572037322780411200 ) ) ;
#248 = LOCAL_TIME ( 15, 57, 52.00000000000000000, #285 ) ;
#249 = VERTEX_POINT ( 'NONE', #31 ) ;
#250 = DIRECTION ( 'NONE',  ( 0.0000000000000000000, 0.0000000000000000000, 1.000000000000000000 ) ) ;
#251 = CIRCLE ( 'NONE', #252, 12.69999999999999900 ) ;
#252 = AXIS2_PLACEMENT_3D ( 'NONE', #93, #61, #40 ) ;
#253 = APPLICATION_CONTEXT ( 'configuration controlled 3d designs of mechanical parts and assemblies' ) ;
#254 = MECHANICAL_CONTEXT ( 'NONE', #253, 'mechanical' ) ;
#255 = CC_DESIGN_PERSON_AND_ORGANIZATION_ASSIGNMENT ( #141, #233, ( #236 ) ) ;
#256 = DATE_TIME_ROLE ( 'classification_date' ) ;
#257 = EDGE_LOOP ( 'NONE', ( #20, #167, #150 ) ) ;
#258 = PRODUCT_DEFINITION_SHAPE ( 'NONE', 'NONE',  #236 ) ;
#259 = APPROVAL ( #54, 'UNSPECIFIED' ) ;
#260 = CARTESIAN_POINT ( 'NONE',  ( 4.996003610813200500E-016, 2.442490654175340100E-015, 2.254365354348030000 ) ) ;
#261 = CARTESIAN_POINT ( 'NONE',  ( -12.69999999999999900, 3.997792089092478900E-015, 2.254365354348030000 ) ) ;
#262 = ADVANCED_FACE ( 'NONE', ( #229 ), #184, .T. ) ;
#263 = FACE_OUTER_BOUND ( 'NONE', #133, .T. ) ;
#264 = CARTESIAN_POINT ( 'NONE',  ( -13.05093157131066800, -4.468327026349044200, 5.572037322780405000 ) ) ;
#265 = APPROVAL_PERSON_ORGANIZATION ( #290, #259, #145 ) ;
#266 = ORIENTED_EDGE ( 'NONE', *, *, #188, .F. ) ;
#267 = DIRECTION ( 'NONE',  ( -0.0000000000000000000, -0.0000000000000000000, -1.000000000000000000 ) ) ;
#268 = CC_DESIGN_DATE_AND_TIME_ASSIGNMENT ( #272, #256, ( #220 ) ) ;
#269 = DIRECTION ( 'NONE',  ( -0.0000000000000000000, -0.0000000000000000000, -1.000000000000000000 ) ) ;
#270 = CARTESIAN_POINT ( 'NONE',  ( -13.05093157131067700, 4.468327026349026500, 5.572037322780405900 ) ) ;
#271 = APPROVAL_PERSON_ORGANIZATION ( #28, #139, #11 ) ;
#272 = DATE_AND_TIME ( #106, #156 ) ;
#273 = CARTESIAN_POINT ( 'NONE',  ( 4.465518330146169400, -4.468327026349034400, 7.902889003937135100 ) ) ;
#274 = CARTESIAN_POINT ( 'NONE',  ( 4.465518330146164900, 4.468327026349034400, 7.902889003937138700 ) ) ;
#275 = EDGE_CURVE ( 'NONE', #42, #286, #146, .T. ) ;
#276 = CALENDAR_DATE ( 2019, 4, 1 ) ;
#277 = VERTEX_POINT ( 'NONE', #76 ) ;
#278 = DIRECTION ( 'NONE',  ( 1.000000000000000000, 0.0000000000000000000, 0.0000000000000000000 ) ) ;
#279 = APPLICATION_PROTOCOL_DEFINITION ( 'international standard', 'config_control_design', 1994, #253 ) ;
#280 = APPLICATION_PROTOCOL_DEFINITION ( 'international standard', 'config_control_design', 1994, #87 ) ;
#281 = COORDINATED_UNIVERSAL_TIME_OFFSET ( 2, 0, .AHEAD. ) ;
#282 = PERSON_AND_ORGANIZATION ( #179, #227 ) ;
#283 = EDGE_CURVE ( 'NONE', #245, #277, #81, .T. ) ;
#284 = DATE_TIME_ROLE ( 'creation_date' ) ;
#285 = COORDINATED_UNIVERSAL_TIME_OFFSET ( 2, 0, .AHEAD. ) ;
#286 = VERTEX_POINT ( 'NONE', #206 ) ;
#287 = ADVANCED_FACE ( 'NONE', ( #263 ), #178, .T. ) ;
#288 = DIRECTION ( 'NONE',  ( 1.000000000000000000, 0.0000000000000000000, 0.0000000000000000000 ) ) ;
#289 = DATE_AND_TIME ( #39, #187 ) ;
#290 = PERSON_AND_ORGANIZATION ( #179, #227 ) ;
#291 = CC_DESIGN_SECURITY_CLASSIFICATION ( #220, ( #185 ) ) ;
#292 = CARTESIAN_POINT ( 'NONE',  ( -11.97401482123141000, -12.84596305821131100, 4.446738189081811400 ) ) ;
#293 = EDGE_CURVE ( 'NONE', #75, #249, #130, .T. ) ;
#294 = CARTESIAN_POINT ( 'NONE',  ( -2.602085213965210600E-014, 4.468327026349028200, -0.8028890039371406900 ) ) ;
#295 = DATE_AND_TIME ( #214, #118 ) ;
ENDSEC;
END-ISO-10303-21;
