ISO-10303-21;
HEADER;
FILE_DESCRIPTION (( 'STEP AP203' ),
    '1' );
FILE_NAME ('111-1204E UVFS bi-cx 25.4 F25.STEP',
    '2019-01-04T13:07:14',
    ( '' ),
    ( '' ),
    'SwSTEP 2.0',
    'SolidWorks 2017',
    '' );
FILE_SCHEMA (( 'CONFIG_CONTROL_DESIGN' ));
ENDSEC;

DATA;
#1 = CARTESIAN_POINT ( 'NONE',  ( -3.552713678800500100E-015, -12.69999999999999900, 4.022439189291700000 ) ) ;
#2 = CC_DESIGN_DATE_AND_TIME_ASSIGNMENT ( #38, #59, ( #100 ) ) ;
#3 = CARTESIAN_POINT ( 'NONE',  ( 13.67319198434859700, -4.885202289657843100, 2.791294148496121800 ) ) ;
#4 = CARTESIAN_POINT ( 'NONE',  ( -3.751070915867799300, -12.83243923825443600, 5.883581114050441500 ) ) ;
#5 = CARTESIAN_POINT ( 'NONE',  ( 10.38410013651777700, 12.83243923825443900, 7.426389114395609800 ) ) ;
#6 = ORIENTED_EDGE ( 'NONE', *, *, #290, .F. ) ;
#7 = EDGE_CURVE ( 'NONE', #63, #12, #192, .T. ) ;
#8 = CARTESIAN_POINT ( 'NONE',  ( 4.996003610813200500E-016, 2.442490654175340100E-015, 4.022439189291700900 ) ) ;
#9 = CARTESIAN_POINT ( 'NONE',  ( -9.645106305877673600, 4.885202289657842200, -0.06706018186693282800 ) ) ;
#10 = CARTESIAN_POINT ( 'NONE',  ( -4.939196666565106100, -4.885202289657842200, -1.567086240851506100 ) ) ;
#11 = LINE ( 'NONE', #217, #209 ) ;
#12 = VERTEX_POINT ( 'NONE', #120 ) ;
#13 = APPROVAL_ROLE ( '' ) ;
#14 = PERSON ( 'UNSPECIFIED', 'UNSPECIFIED', 'UNSPECIFIED', ('UNSPECIFIED'), ('UNSPECIFIED'), ('UNSPECIFIED') ) ;
#15 = APPROVAL_ROLE ( '' ) ;
#16 = APPROVAL_PERSON_ORGANIZATION ( #74, #227, #15 ) ;
#17 = COORDINATED_UNIVERSAL_TIME_OFFSET ( 2, 0, .AHEAD. ) ;
#18 = ORIENTED_EDGE ( 'NONE', *, *, #131, .T. ) ;
#19 = ORIENTED_EDGE ( 'NONE', *, *, #141, .T. ) ;
#20 = PRODUCT_RELATED_PRODUCT_CATEGORY ( 'detail', '', ( #79 ) ) ;
#21 = CARTESIAN_POINT ( 'NONE',  ( 9.645106305877673600, -4.885202289657838600, 10.06706018186693000 ) ) ;
#22 = AXIS2_PLACEMENT_3D ( 'NONE', #215, #284, #173 ) ;
#23 = CARTESIAN_POINT ( 'NONE',  ( 4.939196666565106100, -4.885202289657838600, 11.56708624085150600 ) ) ;
#24 = LOCAL_TIME ( 15, 7, 14.00000000000000000, #162 ) ;
#25 = DIRECTION ( 'NONE',  ( 1.000000000000000000, -8.881784197001252300E-016, 0.0000000000000000000 ) ) ;
#26 = ORIENTED_EDGE ( 'NONE', *, *, #7, .T. ) ;
#27 = CARTESIAN_POINT ( 'NONE',  ( 3.552713678800500100E-015, -12.83243923825443400, 5.883581114050441500 ) ) ;
#28 = DIRECTION ( 'NONE',  ( 1.000000000000000000, 0.0000000000000000000, 0.0000000000000000000 ) ) ;
#29 = CARTESIAN_POINT ( 'NONE',  ( -13.67319198434859800, 4.885202289657845800, 7.208705851503879100 ) ) ;
#30 = UNCERTAINTY_MEASURE_WITH_UNIT (LENGTH_MEASURE( 1.000000000000000100E-005 ), #56, 'distance_accuracy_value', 'NONE');
#31 = CARTESIAN_POINT ( 'NONE',  ( -3.751070915867800200, 12.83243923825444600, 5.883581114050441500 ) ) ;
#32 = DIRECTION ( 'NONE',  ( 1.000000000000000000, 0.0000000000000000000, 0.0000000000000000000 ) ) ;
#33 = CARTESIAN_POINT ( 'NONE',  ( -7.324972093000591900, 12.83243923825444300, 5.255613071309630500 ) ) ;
#34 = EDGE_LOOP ( 'NONE', ( #222, #291, #273, #149, #282, #62 ) ) ;
#35 = EDGE_CURVE ( 'NONE', #160, #176, #224, .T. ) ;
#36 = CARTESIAN_POINT ( 'NONE',  ( -13.67319198434859800, 4.885202289657843100, 2.791294148496118700 ) ) ;
#37 = CARTESIAN_POINT ( 'NONE',  ( -1.040834085586084600E-014, -4.885202289657843100, -1.567086240851508000 ) ) ;
#38 = DATE_AND_TIME ( #243, #195 ) ;
#39 = CARTESIAN_POINT ( 'NONE',  ( -8.673617379884035500E-015, -12.83243923825443700, 4.116418885949555900 ) ) ;
#40 = APPROVAL ( #151, 'UNSPECIFIED' ) ;
#41 = CIRCLE ( 'NONE', #146, 12.69999999999999900 ) ;
#42 = APPROVAL_DATE_TIME ( #152, #40 ) ;
#43 = CIRCLE ( 'NONE', #264, 22.05999999999999900 ) ;
#44 = ADVANCED_FACE ( 'NONE', ( #93 ), #114, .T. ) ;
#45 = CARTESIAN_POINT ( 'NONE',  ( 3.552713678800500100E-015, 3.552713678800500100E-015, -12.06000000000000000 ) ) ;
#46 = VERTEX_POINT ( 'NONE', #67 ) ;
#47 = CARTESIAN_POINT ( 'NONE',  ( 1.127570259384924600E-014, -4.885202289657840400, 11.56708624085150700 ) ) ;
#48 = EDGE_CURVE ( 'NONE', #160, #90, #139, .T. ) ;
#49 = CARTESIAN_POINT ( 'NONE',  ( -10.38410013651777000, -12.83243923825443400, 2.573610885604386200 ) ) ;
#50 = ORIENTED_EDGE ( 'NONE', *, *, #48, .T. ) ;
#51 = CARTESIAN_POINT ( 'NONE',  ( 4.996003610813200500E-016, 2.442490654175340100E-015, 4.022439189291700900 ) ) ;
#52 = CARTESIAN_POINT ( 'NONE',  ( 9.645106305877671800, 4.885202289657843100, -0.06706018186693500600 ) ) ;
#53 = CARTESIAN_POINT ( 'NONE',  ( -4.939196666565097300, 4.885202289657846600, 11.56708624085150700 ) ) ;
#54 = DIRECTION ( 'NONE',  ( -0.0000000000000000000, -0.0000000000000000000, -1.000000000000000000 ) ) ;
#55 = CC_DESIGN_DATE_AND_TIME_ASSIGNMENT ( #221, #220, ( #204 ) ) ;
#56 =( LENGTH_UNIT ( ) NAMED_UNIT ( * ) SI_UNIT ( .MILLI., .METRE. ) );
#57 = CARTESIAN_POINT ( 'NONE',  ( -8.673617379884035500E-015, 12.83243923825443900, 4.116418885949554100 ) ) ;
#58 = ORIENTED_EDGE ( 'NONE', *, *, #35, .T. ) ;
#59 = DATE_TIME_ROLE ( 'creation_date' ) ;
#60 = CARTESIAN_POINT ( 'NONE',  ( -10.38410013651777900, 12.83243923825443900, 7.426389114395608000 ) ) ;
#61 = PERSON_AND_ORGANIZATION ( #14, #234 ) ;
#62 = ORIENTED_EDGE ( 'NONE', *, *, #98, .T. ) ;
#63 = VERTEX_POINT ( 'NONE', #295 ) ;
#64 = FACE_OUTER_BOUND ( 'NONE', #111, .T. ) ;
#65 = CALENDAR_DATE ( 2019, 4, 1 ) ;
#66 = CARTESIAN_POINT ( 'NONE',  ( 4.939196666565106100, 4.885202289657849300, 11.56708624085150600 ) ) ;
#67 = CARTESIAN_POINT ( 'NONE',  ( 3.552713678800500100E-015, -12.69999999999999900, 5.977560810708297400 ) ) ;
#68 = COORDINATED_UNIVERSAL_TIME_OFFSET ( 2, 0, .AHEAD. ) ;
#69 = CIRCLE ( 'NONE', #187, 12.69999999999999900 ) ;
#70 = ORIENTED_EDGE ( 'NONE', *, *, #290, .T. ) ;
#71 = CARTESIAN_POINT ( 'NONE',  ( 10.38410013651777900, 12.83243923825444500, 2.573610885604387100 ) ) ;
#72 = CARTESIAN_POINT ( 'NONE',  ( 4.996003610813200500E-016, 2.442490654175340100E-015, 5.977560810708300000 ) ) ;
#73 = CARTESIAN_POINT ( 'NONE',  ( 9.645106305877671800, -4.885202289657843100, -0.06706018186693282800 ) ) ;
#74 = PERSON_AND_ORGANIZATION ( #14, #234 ) ;
#75 = EDGE_CURVE ( 'NONE', #46, #63, #43, .T. ) ;
#76 = DIRECTION ( 'NONE',  ( 1.000000000000000000, 1.776356839400250500E-015, 0.0000000000000000000 ) ) ;
#77 = EDGE_CURVE ( 'NONE', #176, #63, #241, .T. ) ;
#78 =( NAMED_UNIT ( * ) SI_UNIT ( $, .STERADIAN. ) SOLID_ANGLE_UNIT ( ) );
#79 = PRODUCT ( '111-1204E UVFS bi-cx 25.4 F25', '111-1204E UVFS bi-cx 25.4 F25', '', ( #171 ) ) ;
#80 = CARTESIAN_POINT ( 'NONE',  ( -13.67319198434859800, -4.885202289657843100, 2.791294148496116900 ) ) ;
#81 = CC_DESIGN_PERSON_AND_ORGANIZATION_ASSIGNMENT ( #138, #287, ( #79 ) ) ;
#82 = CIRCLE ( 'NONE', #92, 12.69999999999999900 ) ;
#83 =( BOUNDED_SURFACE ( )  B_SPLINE_SURFACE ( 3, 3, ( 
 ( #212, #257, #123, #230 ),
 ( #279, #280, #73, #3 ),
 ( #185, #101, #52, #183 ),
 ( #144, #255, #102, #5 ) ),
 .UNSPECIFIED., .F., .F., .F. ) 
 B_SPLINE_SURFACE_WITH_KNOTS ( ( 4, 4 ),
 ( 4, 4 ),
 ( 0.0000000000000000000, 1.000000000000000000 ),
 ( 0.0000000000000000000, 1.000000000000000000 ),
 .UNSPECIFIED. ) 
 GEOMETRIC_REPRESENTATION_ITEM ( )  RATIONAL_B_SPLINE_SURFACE ( (
 ( 1.000000000000000000, 0.9685121497818034400, 0.9685121497818034400, 1.000000000000000000),
 ( 0.8755993083726335600, 0.8480285684994395300, 0.8480285684994395300, 0.8755993083726335600),
 ( 0.8755993083726335600, 0.8480285684994395300, 0.8480285684994395300, 0.8755993083726335600),
 ( 1.000000000000000000, 0.9685121497818034400, 0.9685121497818034400, 1.000000000000000000) ) ) 
 REPRESENTATION_ITEM ( '' )  SURFACE ( )  );
#84 = APPLICATION_PROTOCOL_DEFINITION ( 'international standard', 'config_control_design', 1994, #288 ) ;
#85 = VERTEX_POINT ( 'NONE', #1 ) ;
#86 = VECTOR ( 'NONE', #201, 1000.000000000000000 ) ;
#87 = APPROVAL_STATUS ( 'not_yet_approved' ) ;
#88 = APPROVAL_ROLE ( '' ) ;
#89 = PERSON_AND_ORGANIZATION ( #14, #234 ) ;
#90 = VERTEX_POINT ( 'NONE', #116 ) ;
#91 = CC_DESIGN_PERSON_AND_ORGANIZATION_ASSIGNMENT ( #289, #109, ( #204 ) ) ;
#92 = AXIS2_PLACEMENT_3D ( 'NONE', #186, #54, #28 ) ;
#93 = FACE_OUTER_BOUND ( 'NONE', #113, .T. ) ;
#94 = CARTESIAN_POINT ( 'NONE',  ( 7.324972093000591900, 12.83243923825444800, 4.744386928690364200 ) ) ;
#95 = DIRECTION ( 'NONE',  ( -1.000000000000000000, 0.0000000000000000000, 0.0000000000000000000 ) ) ;
#96 = CIRCLE ( 'NONE', #150, 22.05999999999999900 ) ;
#97 = CARTESIAN_POINT ( 'NONE',  ( 13.67319198434859700, -4.885202289657841300, 7.208705851503881800 ) ) ;
#98 = EDGE_CURVE ( 'NONE', #46, #176, #216, .T. ) ;
#99 = DIRECTION ( 'NONE',  ( 1.000000000000000000, 0.0000000000000000000, 0.0000000000000000000 ) ) ;
#100 = PRODUCT_DEFINITION ( 'UNKNOWN', '', #164, #247 ) ;
#101 = CARTESIAN_POINT ( 'NONE',  ( 4.939196666565096400, 4.885202289657843100, -1.567086240851508300 ) ) ;
#102 = CARTESIAN_POINT ( 'NONE',  ( 7.324972093000586600, 12.83243923825444100, 5.255613071309630500 ) ) ;
#103 = CARTESIAN_POINT ( 'NONE',  ( -4.939196666565096400, -4.885202289657836900, 11.56708624085150700 ) ) ;
#104 = CARTESIAN_POINT ( 'NONE',  ( -10.38410013651777700, -12.83243923825443700, 7.426389114395609800 ) ) ;
#105 = APPLICATION_PROTOCOL_DEFINITION ( 'international standard', 'config_control_design', 1994, #232 ) ;
#106 = CARTESIAN_POINT ( 'NONE',  ( -3.751070915867809100, 12.83243923825444300, 4.116418885949555900 ) ) ;
#107 = CARTESIAN_POINT ( 'NONE',  ( 4.996003610813200500E-016, 2.442490654175340100E-015, 4.022439189291700900 ) ) ;
#108 = CC_DESIGN_SECURITY_CLASSIFICATION ( #204, ( #164 ) ) ;
#109 = PERSON_AND_ORGANIZATION_ROLE ( 'classification_officer' ) ;
#110 = CALENDAR_DATE ( 2019, 4, 1 ) ;
#111 = EDGE_LOOP ( 'NONE', ( #6, #19, #50 ) ) ;
#112 = CC_DESIGN_PERSON_AND_ORGANIZATION_ASSIGNMENT ( #89, #193, ( #100 ) ) ;
#113 = EDGE_LOOP ( 'NONE', ( #236, #266, #155 ) ) ;
#114 =( BOUNDED_SURFACE ( )  B_SPLINE_SURFACE ( 3, 3, ( 
 ( #272, #158, #271, #136 ),
 ( #97, #21, #23, #47 ),
 ( #181, #179, #66, #245 ),
 ( #71, #94, #119, #223 ) ),
 .UNSPECIFIED., .F., .F., .F. ) 
 B_SPLINE_SURFACE_WITH_KNOTS ( ( 4, 4 ),
 ( 4, 4 ),
 ( 0.0000000000000000000, 1.000000000000000000 ),
 ( 0.0000000000000000000, 1.000000000000000000 ),
 .UNSPECIFIED. ) 
 GEOMETRIC_REPRESENTATION_ITEM ( )  RATIONAL_B_SPLINE_SURFACE ( (
 ( 1.000000000000000000, 0.9685121497818035600, 0.9685121497818035600, 1.000000000000000000),
 ( 0.8755993083726334400, 0.8480285684994395300, 0.8480285684994395300, 0.8755993083726334400),
 ( 0.8755993083726334400, 0.8480285684994395300, 0.8480285684994395300, 0.8755993083726334400),
 ( 1.000000000000000000, 0.9685121497818035600, 0.9685121497818035600, 1.000000000000000000) ) ) 
 REPRESENTATION_ITEM ( '' )  SURFACE ( )  );
#115 = CARTESIAN_POINT ( 'NONE',  ( 4.996003610813200500E-016, 2.442490654175340100E-015, 4.022439189291700900 ) ) ;
#116 = CARTESIAN_POINT ( 'NONE',  ( -3.552713678800500100E-015, 12.70000000000000500, 4.022439189291700000 ) ) ;
#117 = EDGE_LOOP ( 'NONE', ( #157, #231, #172 ) ) ;
#118 = ADVANCED_FACE ( 'NONE', ( #294 ), #244, .T. ) ;
#119 = CARTESIAN_POINT ( 'NONE',  ( 3.751070915867810800, 12.83243923825445000, 5.883581114050440600 ) ) ;
#120 = CARTESIAN_POINT ( 'NONE',  ( 12.69999999999999900, 2.442490654175340100E-015, 5.977560810708300000 ) ) ;
#121 = ADVANCED_FACE ( 'NONE', ( #174 ), #83, .T. ) ;
#122 = CARTESIAN_POINT ( 'NONE',  ( -10.38410013651777500, 12.83243923825444500, 2.573610885604384400 ) ) ;
#123 = CARTESIAN_POINT ( 'NONE',  ( 7.324972093000583900, -12.83243923825443900, 5.255613071309633200 ) ) ;
#124 = DIRECTION ( 'NONE',  ( -0.0000000000000000000, -0.0000000000000000000, -1.000000000000000000 ) ) ;
#125 = PRODUCT_DEFINITION_SHAPE ( 'NONE', 'NONE',  #100 ) ;
#126 = CARTESIAN_POINT ( 'NONE',  ( 12.69999999999999900, 2.442490654175340100E-015, 4.022439189291700900 ) ) ;
#127 = PERSON_AND_ORGANIZATION ( #14, #234 ) ;
#128 = DIRECTION ( 'NONE',  ( 1.000000000000000000, 0.0000000000000000000, 0.0000000000000000000 ) ) ;
#129 = APPROVAL_STATUS ( 'not_yet_approved' ) ;
#130 = FACE_OUTER_BOUND ( 'NONE', #34, .T. ) ;
#131 = EDGE_CURVE ( 'NONE', #90, #268, #219, .T. ) ;
#132 = APPROVAL_PERSON_ORGANIZATION ( #127, #250, #88 ) ;
#133 = ORIENTED_EDGE ( 'NONE', *, *, #131, .F. ) ;
#134 = MANIFOLD_SOLID_BREP ( 'Imported1', #169 ) ;
#135 = LOCAL_TIME ( 15, 7, 14.00000000000000000, #200 ) ;
#136 = CARTESIAN_POINT ( 'NONE',  ( 6.938893903907228400E-015, -12.83243923825443600, 5.883581114050441500 ) ) ;
#137 = DIRECTION ( 'NONE',  ( -0.0000000000000000000, -0.0000000000000000000, -1.000000000000000000 ) ) ;
#138 = PERSON_AND_ORGANIZATION ( #14, #234 ) ;
#139 = CIRCLE ( 'NONE', #242, 12.69999999999999900 ) ;
#140 = DIRECTION ( 'NONE',  ( 1.000000000000000000, -8.881784197001252300E-016, 0.0000000000000000000 ) ) ;
#141 = EDGE_CURVE ( 'NONE', #85, #160, #41, .T. ) ;
#142 = CARTESIAN_POINT ( 'NONE',  ( 3.552713678800500500E-015, -4.885202289657837800, 11.56708624085150700 ) ) ;
#143 = DIRECTION ( 'NONE',  ( -0.0000000000000000000, -0.0000000000000000000, -1.000000000000000000 ) ) ;
#144 = CARTESIAN_POINT ( 'NONE',  ( -3.552713678800500100E-015, 12.83243923825443900, 4.116418885949553200 ) ) ;
#145 = CARTESIAN_POINT ( 'NONE',  ( -7.324972093000581300, -12.83243923825443600, 4.744386928690363300 ) ) ;
#146 = AXIS2_PLACEMENT_3D ( 'NONE', #51, #124, #225 ) ;
#147 = CARTESIAN_POINT ( 'NONE',  ( -9.645106305877673600, -4.885202289657842200, -0.06706018186693370200 ) ) ;
#148 = DIRECTION ( 'NONE',  ( 0.0000000000000000000, 0.0000000000000000000, 1.000000000000000000 ) ) ;
#149 = ORIENTED_EDGE ( 'NONE', *, *, #246, .T. ) ;
#150 = AXIS2_PLACEMENT_3D ( 'NONE', #263, #235, #188 ) ;
#151 = APPROVAL_STATUS ( 'not_yet_approved' ) ;
#152 = DATE_AND_TIME ( #286, #135 ) ;
#153 = DIRECTION ( 'NONE',  ( -0.0000000000000000000, -0.0000000000000000000, -1.000000000000000000 ) ) ;
#154 = CC_DESIGN_APPROVAL ( #227, ( #164 ) ) ;
#155 = ORIENTED_EDGE ( 'NONE', *, *, #7, .F. ) ;
#156 = APPROVAL_DATE_TIME ( #159, #250 ) ;
#157 = ORIENTED_EDGE ( 'NONE', *, *, #98, .F. ) ;
#158 = CARTESIAN_POINT ( 'NONE',  ( 7.324972093000587500, -12.83243923825444100, 4.744386928690364200 ) ) ;
#159 = DATE_AND_TIME ( #199, #167 ) ;
#160 = VERTEX_POINT ( 'NONE', #276 ) ;
#161 =( GEOMETRIC_REPRESENTATION_CONTEXT ( 3 ) GLOBAL_UNCERTAINTY_ASSIGNED_CONTEXT ( ( #30 ) ) GLOBAL_UNIT_ASSIGNED_CONTEXT ( ( #56, #218, #78 ) ) REPRESENTATION_CONTEXT ( 'NONE', 'WORKASPACE' ) );
#162 = COORDINATED_UNIVERSAL_TIME_OFFSET ( 2, 0, .AHEAD. ) ;
#163 = CARTESIAN_POINT ( 'NONE',  ( -9.645106305877673600, 4.885202289657846600, 10.06706018186693200 ) ) ;
#164 = PRODUCT_DEFINITION_FORMATION_WITH_SPECIFIED_SOURCE ( 'ANY', '', #79, .NOT_KNOWN. ) ;
#165 = EDGE_CURVE ( 'NONE', #12, #46, #82, .T. ) ;
#166 = CARTESIAN_POINT ( 'NONE',  ( 4.996003610813200500E-016, 2.442490654175340100E-015, 4.022439189291700900 ) ) ;
#167 = LOCAL_TIME ( 15, 7, 14.00000000000000000, #292 ) ;
#168 = CARTESIAN_POINT ( 'NONE',  ( 3.552713678800500100E-015, 12.83243923825444500, 5.883581114050441500 ) ) ;
#169 = CLOSED_SHELL ( 'NONE', ( #121, #118, #274, #205, #202, #44 ) ) ;
#170 = CARTESIAN_POINT ( 'NONE',  ( -3.751070915867808200, -12.83243923825444100, 4.116418885949556700 ) ) ;
#171 = MECHANICAL_CONTEXT ( 'NONE', #232, 'mechanical' ) ;
#172 = ORIENTED_EDGE ( 'NONE', *, *, #77, .F. ) ;
#173 = DIRECTION ( 'NONE',  ( 1.000000000000000000, 0.0000000000000000000, 0.0000000000000000000 ) ) ;
#174 = FACE_OUTER_BOUND ( 'NONE', #265, .T. ) ;
#175 =( BOUNDED_SURFACE ( )  B_SPLINE_SURFACE ( 3, 3, ( 
 ( #104, #260, #170, #39 ),
 ( #80, #147, #10, #37 ),
 ( #36, #9, #214, #233 ),
 ( #60, #33, #106, #57 ) ),
 .UNSPECIFIED., .F., .F., .F. ) 
 B_SPLINE_SURFACE_WITH_KNOTS ( ( 4, 4 ),
 ( 4, 4 ),
 ( 0.0000000000000000000, 1.000000000000000000 ),
 ( 0.0000000000000000000, 1.000000000000000000 ),
 .UNSPECIFIED. ) 
 GEOMETRIC_REPRESENTATION_ITEM ( )  RATIONAL_B_SPLINE_SURFACE ( (
 ( 1.000000000000000000, 0.9685121497818035600, 0.9685121497818035600, 1.000000000000000000),
 ( 0.8755993083726335600, 0.8480285684994396400, 0.8480285684994396400, 0.8755993083726335600),
 ( 0.8755993083726335600, 0.8480285684994396400, 0.8480285684994396400, 0.8755993083726335600),
 ( 1.000000000000000000, 0.9685121497818035600, 0.9685121497818035600, 1.000000000000000000) ) ) 
 REPRESENTATION_ITEM ( '' )  SURFACE ( )  );
#176 = VERTEX_POINT ( 'NONE', #254 ) ;
#177 = AXIS2_PLACEMENT_3D ( 'NONE', #166, #184, #237 ) ;
#178 = CC_DESIGN_APPROVAL ( #40, ( #100 ) ) ;
#179 = CARTESIAN_POINT ( 'NONE',  ( 9.645106305877673600, 4.885202289657849300, 10.06706018186693000 ) ) ;
#180 = AXIS2_PLACEMENT_3D ( 'NONE', #251, #249, #140 ) ;
#181 = CARTESIAN_POINT ( 'NONE',  ( 13.67319198434859800, 4.885202289657847500, 7.208705851503881800 ) ) ;
#182 = CARTESIAN_POINT ( 'NONE',  ( 4.996003610813200500E-016, 2.442490654175340100E-015, 5.977560810708300000 ) ) ;
#183 = CARTESIAN_POINT ( 'NONE',  ( 13.67319198434859800, 4.885202289657843100, 2.791294148496119600 ) ) ;
#184 = DIRECTION ( 'NONE',  ( 0.0000000000000000000, 0.0000000000000000000, 1.000000000000000000 ) ) ;
#185 = CARTESIAN_POINT ( 'NONE',  ( -3.552713678800500900E-015, 4.885202289657843100, -1.567086240851508500 ) ) ;
#186 = CARTESIAN_POINT ( 'NONE',  ( 4.996003610813200500E-016, 2.442490654175340100E-015, 5.977560810708300000 ) ) ;
#187 = AXIS2_PLACEMENT_3D ( 'NONE', #107, #153, #281 ) ;
#188 = DIRECTION ( 'NONE',  ( 0.0000000000000000000, -1.000000000000000000, 0.0000000000000000000 ) ) ;
#189 = FACE_OUTER_BOUND ( 'NONE', #203, .T. ) ;
#190 = DIRECTION ( 'NONE',  ( 0.0000000000000000000, 0.0000000000000000000, 1.000000000000000000 ) ) ;
#191 = AXIS2_PLACEMENT_3D ( 'NONE', #283, #148, #128 ) ;
#192 = CIRCLE ( 'NONE', #180, 12.69999999999999900 ) ;
#193 = PERSON_AND_ORGANIZATION_ROLE ( 'creator' ) ;
#194 = PERSON_AND_ORGANIZATION_ROLE ( 'creator' ) ;
#195 = LOCAL_TIME ( 15, 7, 14.00000000000000000, #17 ) ;
#196 = CC_DESIGN_PERSON_AND_ORGANIZATION_ASSIGNMENT ( #285, #239, ( #164 ) ) ;
#197 = ADVANCED_BREP_SHAPE_REPRESENTATION ( '111-1204E UVFS bi-cx 25.4 F25', ( #134, #22 ), #161 ) ;
#198 = DIRECTION ( 'NONE',  ( 0.0000000000000000000, -1.000000000000000000, 3.145464145016876200E-016 ) ) ;
#199 = CALENDAR_DATE ( 2019, 4, 1 ) ;
#200 = COORDINATED_UNIVERSAL_TIME_OFFSET ( 2, 0, .AHEAD. ) ;
#201 = DIRECTION ( 'NONE',  ( 0.0000000000000000000, 0.0000000000000000000, 1.000000000000000000 ) ) ;
#202 = ADVANCED_FACE ( 'NONE', ( #130 ), #229, .T. ) ;
#203 = EDGE_LOOP ( 'NONE', ( #226, #58, #262, #26, #261, #133 ) ) ;
#204 = SECURITY_CLASSIFICATION ( '', '', #267 ) ;
#205 = ADVANCED_FACE ( 'NONE', ( #64 ), #175, .T. ) ;
#206 = DIRECTION ( 'NONE',  ( -0.0000000000000000000, -0.0000000000000000000, -1.000000000000000000 ) ) ;
#207 = DIRECTION ( 'NONE',  ( -0.0000000000000000000, -0.0000000000000000000, -1.000000000000000000 ) ) ;
#208 = PERSON_AND_ORGANIZATION ( #14, #234 ) ;
#209 = VECTOR ( 'NONE', #190, 1000.000000000000000 ) ;
#210 = CC_DESIGN_APPROVAL ( #250, ( #204 ) ) ;
#211 = AXIS2_PLACEMENT_3D ( 'NONE', #182, #206, #99 ) ;
#212 = CARTESIAN_POINT ( 'NONE',  ( -3.552713678800500100E-015, -12.83243923825443700, 4.116418885949556700 ) ) ;
#213 = CARTESIAN_POINT ( 'NONE',  ( -13.67319198434858900, -4.885202289657837800, 7.208705851503877300 ) ) ;
#214 = CARTESIAN_POINT ( 'NONE',  ( -4.939196666565106100, 4.885202289657842200, -1.567086240851505600 ) ) ;
#215 = CARTESIAN_POINT ( 'NONE',  ( 0.0000000000000000000, 0.0000000000000000000, 0.0000000000000000000 ) ) ;
#216 = CIRCLE ( 'NONE', #256, 12.69999999999999900 ) ;
#217 = CARTESIAN_POINT ( 'NONE',  ( 12.69999999999999900, 2.442490654175340100E-015, 4.022439189291700900 ) ) ;
#218 =( NAMED_UNIT ( * ) PLANE_ANGLE_UNIT ( ) SI_UNIT ( $, .RADIAN. ) );
#219 = CIRCLE ( 'NONE', #277, 12.69999999999999900 ) ;
#220 = DATE_TIME_ROLE ( 'classification_date' ) ;
#221 = DATE_AND_TIME ( #110, #269 ) ;
#222 = ORIENTED_EDGE ( 'NONE', *, *, #35, .F. ) ;
#223 = CARTESIAN_POINT ( 'NONE',  ( 1.040834085586084300E-014, 12.83243923825444600, 5.883581114050441500 ) ) ;
#224 = LINE ( 'NONE', #275, #86 ) ;
#225 = DIRECTION ( 'NONE',  ( 1.000000000000000000, 0.0000000000000000000, 0.0000000000000000000 ) ) ;
#226 = ORIENTED_EDGE ( 'NONE', *, *, #48, .F. ) ;
#227 = APPROVAL ( #129, 'UNSPECIFIED' ) ;
#228 = CARTESIAN_POINT ( 'NONE',  ( 3.552713678800500500E-015, 4.885202289657847500, 11.56708624085150900 ) ) ;
#229 = CYLINDRICAL_SURFACE ( 'NONE', #177, 12.69999999999999900 ) ;
#230 = CARTESIAN_POINT ( 'NONE',  ( 10.38410013651777300, -12.83243923825443700, 7.426389114395611600 ) ) ;
#231 = ORIENTED_EDGE ( 'NONE', *, *, #75, .T. ) ;
#232 = APPLICATION_CONTEXT ( 'configuration controlled 3d designs of mechanical parts and assemblies' ) ;
#233 = CARTESIAN_POINT ( 'NONE',  ( -1.040834085586084600E-014, 4.885202289657843100, -1.567086240851506700 ) ) ;
#234 = ORGANIZATION ( 'UNSPECIFIED', 'UNSPECIFIED', '' ) ;
#235 = DIRECTION ( 'NONE',  ( 1.000000000000000000, 0.0000000000000000000, 0.0000000000000000000 ) ) ;
#236 = ORIENTED_EDGE ( 'NONE', *, *, #75, .F. ) ;
#237 = DIRECTION ( 'NONE',  ( 1.000000000000000000, 0.0000000000000000000, 0.0000000000000000000 ) ) ;
#238 = DATE_AND_TIME ( #65, #24 ) ;
#239 = PERSON_AND_ORGANIZATION_ROLE ( 'design_supplier' ) ;
#240 = EDGE_CURVE ( 'NONE', #268, #85, #69, .T. ) ;
#241 = CIRCLE ( 'NONE', #211, 12.69999999999999900 ) ;
#242 = AXIS2_PLACEMENT_3D ( 'NONE', #115, #137, #25 ) ;
#243 = CALENDAR_DATE ( 2019, 4, 1 ) ;
#244 =( BOUNDED_SURFACE ( )  B_SPLINE_SURFACE ( 3, 3, ( 
 ( #27, #4, #145, #49 ),
 ( #142, #103, #278, #213 ),
 ( #228, #53, #163, #29 ),
 ( #168, #31, #252, #122 ) ),
 .UNSPECIFIED., .F., .F., .F. ) 
 B_SPLINE_SURFACE_WITH_KNOTS ( ( 4, 4 ),
 ( 4, 4 ),
 ( 0.0000000000000000000, 1.000000000000000000 ),
 ( 0.0000000000000000000, 1.000000000000000000 ),
 .UNSPECIFIED. ) 
 GEOMETRIC_REPRESENTATION_ITEM ( )  RATIONAL_B_SPLINE_SURFACE ( (
 ( 1.000000000000000000, 0.9685121497818034400, 0.9685121497818034400, 1.000000000000000000),
 ( 0.8755993083726334400, 0.8480285684994394200, 0.8480285684994394200, 0.8755993083726334400),
 ( 0.8755993083726334400, 0.8480285684994394200, 0.8480285684994394200, 0.8755993083726334400),
 ( 1.000000000000000000, 0.9685121497818034400, 0.9685121497818034400, 1.000000000000000000) ) ) 
 REPRESENTATION_ITEM ( '' )  SURFACE ( )  );
#245 = CARTESIAN_POINT ( 'NONE',  ( 9.540979117872439000E-015, 4.885202289657848400, 11.56708624085150700 ) ) ;
#246 = EDGE_CURVE ( 'NONE', #268, #12, #11, .T. ) ;
#247 = DESIGN_CONTEXT ( 'detailed design', #288, 'design' ) ;
#248 = SHAPE_DEFINITION_REPRESENTATION ( #125, #197 ) ;
#249 = DIRECTION ( 'NONE',  ( -0.0000000000000000000, -0.0000000000000000000, -1.000000000000000000 ) ) ;
#250 = APPROVAL ( #87, 'UNSPECIFIED' ) ;
#251 = CARTESIAN_POINT ( 'NONE',  ( 4.996003610813200500E-016, 2.442490654175340100E-015, 5.977560810708300000 ) ) ;
#252 = CARTESIAN_POINT ( 'NONE',  ( -7.324972093000585700, 12.83243923825444600, 4.744386928690363300 ) ) ;
#253 = APPROVAL_PERSON_ORGANIZATION ( #208, #40, #13 ) ;
#254 = CARTESIAN_POINT ( 'NONE',  ( -12.69999999999999900, 3.997792089092478900E-015, 5.977560810708300000 ) ) ;
#255 = CARTESIAN_POINT ( 'NONE',  ( 3.751070915867800200, 12.83243923825444100, 4.116418885949553200 ) ) ;
#256 = AXIS2_PLACEMENT_3D ( 'NONE', #72, #143, #32 ) ;
#257 = CARTESIAN_POINT ( 'NONE',  ( 3.751070915867799700, -12.83243923825443900, 4.116418885949556700 ) ) ;
#258 = CC_DESIGN_PERSON_AND_ORGANIZATION_ASSIGNMENT ( #61, #194, ( #164 ) ) ;
#259 = APPROVAL_DATE_TIME ( #238, #227 ) ;
#260 = CARTESIAN_POINT ( 'NONE',  ( -7.324972093000591000, -12.83243923825444100, 5.255613071309633200 ) ) ;
#261 = ORIENTED_EDGE ( 'NONE', *, *, #246, .F. ) ;
#262 = ORIENTED_EDGE ( 'NONE', *, *, #77, .T. ) ;
#263 = CARTESIAN_POINT ( 'NONE',  ( -3.552713678800500100E-015, 3.552713678800500100E-015, 22.05999999999999900 ) ) ;
#264 = AXIS2_PLACEMENT_3D ( 'NONE', #45, #95, #198 ) ;
#265 = EDGE_LOOP ( 'NONE', ( #293, #70, #18 ) ) ;
#266 = ORIENTED_EDGE ( 'NONE', *, *, #165, .F. ) ;
#267 = SECURITY_CLASSIFICATION_LEVEL ( 'unclassified' ) ;
#268 = VERTEX_POINT ( 'NONE', #126 ) ;
#269 = LOCAL_TIME ( 15, 7, 14.00000000000000000, #68 ) ;
#270 = CYLINDRICAL_SURFACE ( 'NONE', #191, 12.69999999999999900 ) ;
#271 = CARTESIAN_POINT ( 'NONE',  ( 3.751070915867806800, -12.83243923825443900, 5.883581114050441500 ) ) ;
#272 = CARTESIAN_POINT ( 'NONE',  ( 10.38410013651777300, -12.83243923825443700, 2.573610885604388900 ) ) ;
#273 = ORIENTED_EDGE ( 'NONE', *, *, #240, .F. ) ;
#274 = ADVANCED_FACE ( 'NONE', ( #189 ), #270, .T. ) ;
#275 = CARTESIAN_POINT ( 'NONE',  ( -12.69999999999999900, 3.997792089092478900E-015, 4.022439189291700900 ) ) ;
#276 = CARTESIAN_POINT ( 'NONE',  ( -12.69999999999999900, 3.997792089092478900E-015, 4.022439189291700900 ) ) ;
#277 = AXIS2_PLACEMENT_3D ( 'NONE', #8, #207, #76 ) ;
#278 = CARTESIAN_POINT ( 'NONE',  ( -9.645106305877670000, -4.885202289657837800, 10.06706018186693200 ) ) ;
#279 = CARTESIAN_POINT ( 'NONE',  ( -3.552713678800500900E-015, -4.885202289657843100, -1.567086240851506700 ) ) ;
#280 = CARTESIAN_POINT ( 'NONE',  ( 4.939196666565096400, -4.885202289657843100, -1.567086240851506300 ) ) ;
#281 = DIRECTION ( 'NONE',  ( 1.000000000000000000, 0.0000000000000000000, 0.0000000000000000000 ) ) ;
#282 = ORIENTED_EDGE ( 'NONE', *, *, #165, .T. ) ;
#283 = CARTESIAN_POINT ( 'NONE',  ( 4.996003610813200500E-016, 2.442490654175340100E-015, 4.022439189291700900 ) ) ;
#284 = DIRECTION ( 'NONE',  ( 0.0000000000000000000, 0.0000000000000000000, 1.000000000000000000 ) ) ;
#285 = PERSON_AND_ORGANIZATION ( #14, #234 ) ;
#286 = CALENDAR_DATE ( 2019, 4, 1 ) ;
#287 = PERSON_AND_ORGANIZATION_ROLE ( 'design_owner' ) ;
#288 = APPLICATION_CONTEXT ( 'configuration controlled 3d designs of mechanical parts and assemblies' ) ;
#289 = PERSON_AND_ORGANIZATION ( #14, #234 ) ;
#290 = EDGE_CURVE ( 'NONE', #85, #90, #96, .T. ) ;
#291 = ORIENTED_EDGE ( 'NONE', *, *, #141, .F. ) ;
#292 = COORDINATED_UNIVERSAL_TIME_OFFSET ( 2, 0, .AHEAD. ) ;
#293 = ORIENTED_EDGE ( 'NONE', *, *, #240, .T. ) ;
#294 = FACE_OUTER_BOUND ( 'NONE', #117, .T. ) ;
#295 = CARTESIAN_POINT ( 'NONE',  ( 3.552713678800500100E-015, 12.70000000000000500, 5.977560810708299100 ) ) ;
ENDSEC;
END-ISO-10303-21;
