ISO-10303-21;
HEADER;
FILE_DESCRIPTION (( 'STEP AP203' ),
    '1' );
FILE_NAME ('111-1126E UVFS bi-cx 12.7 F150.STEP',
    '2019-01-04T12:35:18',
    ( '' ),
    ( '' ),
    'SwSTEP 2.0',
    'SolidWorks 2017',
    '' );
FILE_SCHEMA (( 'CONFIG_CONTROL_DESIGN' ));
ENDSEC;

DATA;
#1 = COORDINATED_UNIVERSAL_TIME_OFFSET ( 2, 0, .AHEAD. ) ;
#2 = PERSON_AND_ORGANIZATION ( #30, #102 ) ;
#3 = FACE_OUTER_BOUND ( 'NONE', #79, .T. ) ;
#4 = CARTESIAN_POINT ( 'NONE',  ( -4.261413036723372900, -2.143504316618430700, 2.200580004523243500 ) ) ;
#5 = CARTESIAN_POINT ( 'NONE',  ( 6.993317390231711600E-014, -6.349999999999930400, 0.1416024965497665900 ) ) ;
#6 = FACE_OUTER_BOUND ( 'NONE', #135, .T. ) ;
#7 = DIRECTION ( 'NONE',  ( 1.000000000000000000, 0.0000000000000000000, 0.0000000000000000000 ) ) ;
#8 = AXIS2_PLACEMENT_3D ( 'NONE', #200, #150, #103 ) ;
#9 = VERTEX_POINT ( 'NONE', #72 ) ;
#10 = CARTESIAN_POINT ( 'NONE',  ( -2.130974525552472800, -2.143504316618523900, -0.04837308638329154700 ) ) ;
#11 = AXIS2_PLACEMENT_3D ( 'NONE', #241, #116, #238 ) ;
#12 = CLOSED_SHELL ( 'NONE', ( #52, #254, #137, #49, #233, #160 ) ) ;
#13 = CARTESIAN_POINT ( 'NONE',  ( -4.255629594637284200, 6.426148574424202000, 0.1927489857637315100 ) ) ;
#14 = FACE_OUTER_BOUND ( 'NONE', #38, .T. ) ;
#15 = EDGE_CURVE ( 'NONE', #115, #9, #195, .T. ) ;
#16 = CARTESIAN_POINT ( 'NONE',  ( 2.128082440779418800, 6.426148574424203700, 0.1450207670180566600 ) ) ;
#17 = CARTESIAN_POINT ( 'NONE',  ( 2.498001805406600200E-016, 1.221245327087670000E-015, 0.1416024965497690000 ) ) ;
#18 = VERTEX_POINT ( 'NONE', #188 ) ;
#19 = DIRECTION ( 'NONE',  ( 0.0000000000000000000, 0.0000000000000000000, 1.000000000000000000 ) ) ;
#20 = COORDINATED_UNIVERSAL_TIME_OFFSET ( 2, 0, .AHEAD. ) ;
#21 = ORIENTED_EDGE ( 'NONE', *, *, #284, .T. ) ;
#22 = CARTESIAN_POINT ( 'NONE',  ( -4.358943483279370000E-014, -2.143504316618430200, 2.248373086383275200 ) ) ;
#23 = DIRECTION ( 'NONE',  ( 0.0000000000000000000, 0.0000000000000000000, 1.000000000000000000 ) ) ;
#24 = CARTESIAN_POINT ( 'NONE',  ( 6.349999999999999600, 1.221245327087670000E-015, 0.1416024965497690000 ) ) ;
#25 = APPLICATION_PROTOCOL_DEFINITION ( 'international standard', 'config_control_design', 1994, #183 ) ;
#26 = APPROVAL_STATUS ( 'not_yet_approved' ) ;
#27 = AXIS2_PLACEMENT_3D ( 'NONE', #43, #23, #7 ) ;
#28 = CIRCLE ( 'NONE', #91, 142.4499999999999900 ) ;
#29 = ORIENTED_EDGE ( 'NONE', *, *, #15, .T. ) ;
#30 = PERSON ( 'UNSPECIFIED', 'UNSPECIFIED', 'UNSPECIFIED', ('UNSPECIFIED'), ('UNSPECIFIED'), ('UNSPECIFIED') ) ;
#31 = DATE_AND_TIME ( #208, #126 ) ;
#32 = CARTESIAN_POINT ( 'NONE',  ( 3.469446951953614200E-014, -2.143504316618523000, -0.04837308638329124900 ) ) ;
#33 = CARTESIAN_POINT ( 'NONE',  ( 6.994740021257309400E-014, -6.426148574424178900, 0.1450207670180558800 ) ) ;
#34 = APPROVAL_DATE_TIME ( #70, #287 ) ;
#35 = CARTESIAN_POINT ( 'NONE',  ( -9.540979117872439000E-015, -6.426148574423918600, 2.054979232981961200 ) ) ;
#36 = CIRCLE ( 'NONE', #98, 6.349999999999999600 ) ;
#37 = CARTESIAN_POINT ( 'NONE',  ( 2.130974525552498100, 2.143504316618470600, 2.248373086383284000 ) ) ;
#38 = EDGE_LOOP ( 'NONE', ( #242, #118, #88, #148, #21, #203 ) ) ;
#39 = CARTESIAN_POINT ( 'NONE',  ( 2.498001805406600200E-016, 1.221245327087670000E-015, 0.1416024965497690000 ) ) ;
#40 = EDGE_CURVE ( 'NONE', #9, #248, #181, .T. ) ;
#41 = CARTESIAN_POINT ( 'NONE',  ( 4.261413036723392400, -2.143504316618430700, 2.200580004523258200 ) ) ;
#42 = PERSON_AND_ORGANIZATION ( #30, #102 ) ;
#43 = CARTESIAN_POINT ( 'NONE',  ( 0.0000000000000000000, 0.0000000000000000000, 0.0000000000000000000 ) ) ;
#44 = DIRECTION ( 'NONE',  ( 0.0000000000000000000, 0.0000000000000000000, 1.000000000000000000 ) ) ;
#45 = CARTESIAN_POINT ( 'NONE',  ( -2.128082440779401900, -6.426148574423917700, 2.054979232981950500 ) ) ;
#46 = CARTESIAN_POINT ( 'NONE',  ( 2.128082440779385500, 6.426148574423957700, 2.054979232981960700 ) ) ;
#47 = ORIENTED_EDGE ( 'NONE', *, *, #40, .T. ) ;
#48 = DATE_AND_TIME ( #110, #152 ) ;
#49 = ADVANCED_FACE ( 'NONE', ( #172 ), #119, .T. ) ;
#50 = APPROVAL_STATUS ( 'not_yet_approved' ) ;
#51 = EDGE_CURVE ( 'NONE', #67, #259, #219, .T. ) ;
#52 = ADVANCED_FACE ( 'NONE', ( #3 ), #63, .T. ) ;
#53 = VECTOR ( 'NONE', #44, 1000.000000000000000 ) ;
#54 = CARTESIAN_POINT ( 'NONE',  ( -6.381571157017435600, 6.426148574424202000, 0.2881814126333426300 ) ) ;
#55 = LOCAL_TIME ( 14, 35, 18.00000000000000000, #1 ) ;
#56 = CARTESIAN_POINT ( 'NONE',  ( -2.128082440779363300, 6.426148574424202000, 0.1450207670180469200 ) ) ;
#57 = VECTOR ( 'NONE', #145, 1000.000000000000000 ) ;
#58 = CARTESIAN_POINT ( 'NONE',  ( 2.128082440779385500, -6.426148574423917700, 2.054979232981960700 ) ) ;
#59 = CARTESIAN_POINT ( 'NONE',  ( 4.255629594637307300, -6.426148574423917700, 2.007251014236275800 ) ) ;
#60 = CIRCLE ( 'NONE', #136, 6.349999999999999600 ) ;
#61 = CARTESIAN_POINT ( 'NONE',  ( 4.261413036723384500, 2.143504316618548800, -0.0005800045232493944000 ) ) ;
#62 = DIRECTION ( 'NONE',  ( 1.000000000000000000, 0.0000000000000000000, 0.0000000000000000000 ) ) ;
#63 =( BOUNDED_SURFACE ( )  B_SPLINE_SURFACE ( 3, 3, ( 
 ( #33, #190, #96, #81 ),
 ( #170, #80, #223, #292 ),
 ( #295, #196, #61, #123 ),
 ( #198, #16, #222, #246 ) ),
 .UNSPECIFIED., .F., .F., .F. ) 
 B_SPLINE_SURFACE_WITH_KNOTS ( ( 4, 4 ),
 ( 4, 4 ),
 ( 0.0000000000000000000, 1.000000000000000000 ),
 ( 0.0000000000000000000, 1.000000000000000000 ),
 .UNSPECIFIED. ) 
 GEOMETRIC_REPRESENTATION_ITEM ( )  RATIONAL_B_SPLINE_SURFACE ( (
 ( 1.000000000000000000, 0.9998323100924994000, 0.9998323100924994000, 1.000000000000000000),
 ( 0.9993213021316576000, 0.9991537260349397900, 0.9991537260349397900, 0.9993213021316576000),
 ( 0.9993213021316576000, 0.9991537260349397900, 0.9991537260349397900, 0.9993213021316576000),
 ( 1.000000000000000000, 0.9998323100924994000, 0.9998323100924994000, 1.000000000000000000) ) ) 
 REPRESENTATION_ITEM ( '' )  SURFACE ( )  );
#64 = EDGE_LOOP ( 'NONE', ( #130, #71, #161 ) ) ;
#65 = CARTESIAN_POINT ( 'NONE',  ( 2.498001805406600200E-016, 1.221245327087670000E-015, 2.058397503450230200 ) ) ;
#66 = PRODUCT ( '111-1126E UVFS bi-cx 12.7 F150', '111-1126E UVFS bi-cx 12.7 F150', '', ( #253 ) ) ;
#67 = VERTEX_POINT ( 'NONE', #216 ) ;
#68 = SECURITY_CLASSIFICATION_LEVEL ( 'unclassified' ) ;
#69 = CC_DESIGN_PERSON_AND_ORGANIZATION_ASSIGNMENT ( #87, #182, ( #207 ) ) ;
#70 = DATE_AND_TIME ( #138, #193 ) ;
#71 = ORIENTED_EDGE ( 'NONE', *, *, #284, .F. ) ;
#72 = CARTESIAN_POINT ( 'NONE',  ( -4.355026797942757800E-014, 6.349999999999687900, 2.058397503450223100 ) ) ;
#73 = CARTESIAN_POINT ( 'NONE',  ( -2.128082440779359700, -6.426148574424179700, 0.1450207670180469500 ) ) ;
#74 = COORDINATED_UNIVERSAL_TIME_OFFSET ( 2, 0, .AHEAD. ) ;
#75 = ORIENTED_EDGE ( 'NONE', *, *, #156, .T. ) ;
#76 = AXIS2_PLACEMENT_3D ( 'NONE', #213, #239, #82 ) ;
#77 = CARTESIAN_POINT ( 'NONE',  ( 6.390243774402054400, -2.143504316618430200, 2.105017884055635500 ) ) ;
#78 = DIRECTION ( 'NONE',  ( 1.000000000000000000, 0.0000000000000000000, 0.0000000000000000000 ) ) ;
#79 = EDGE_LOOP ( 'NONE', ( #97, #168, #127 ) ) ;
#80 = CARTESIAN_POINT ( 'NONE',  ( 2.130974525552533600, -2.143504316618522600, -0.04837308638328181900 ) ) ;
#81 = CARTESIAN_POINT ( 'NONE',  ( 6.381571157017409000, -6.426148574424178000, 0.2881814126333559500 ) ) ;
#82 = DIRECTION ( 'NONE',  ( 1.000000000000000000, 8.881784197001252300E-016, 0.0000000000000000000 ) ) ;
#83 = EDGE_CURVE ( 'NONE', #18, #67, #60, .T. ) ;
#84 = CARTESIAN_POINT ( 'NONE',  ( 1.421085471520200100E-014, 2.842170943040400100E-014, 142.4499999999999900 ) ) ;
#85 = DIRECTION ( 'NONE',  ( 1.000000000000000000, 2.039914074259890000E-016, 3.824579202969420200E-016 ) ) ;
#86 = CARTESIAN_POINT ( 'NONE',  ( -4.261413036723372900, 2.143504316618470600, 2.200580004523243100 ) ) ;
#87 = PERSON_AND_ORGANIZATION ( #30, #102 ) ;
#88 = ORIENTED_EDGE ( 'NONE', *, *, #109, .F. ) ;
#89 = LINE ( 'NONE', #224, #53 ) ;
#90 = APPLICATION_CONTEXT ( 'configuration controlled 3d designs of mechanical parts and assemblies' ) ;
#91 = AXIS2_PLACEMENT_3D ( 'NONE', #84, #85, #106 ) ;
#92 = APPROVAL_PERSON_ORGANIZATION ( #166, #125, #250 ) ;
#93 = CARTESIAN_POINT ( 'NONE',  ( 3.469446951953614200E-014, -6.426148574424179700, 0.1450207670180472800 ) ) ;
#94 = CARTESIAN_POINT ( 'NONE',  ( -6.390243774402030400, 2.143504316618546100, 0.09498211594435757000 ) ) ;
#95 = DESIGN_CONTEXT ( 'detailed design', #183, 'design' ) ;
#96 = CARTESIAN_POINT ( 'NONE',  ( 4.255629594637300200, -6.426148574424177100, 0.1927489857637475800 ) ) ;
#97 = ORIENTED_EDGE ( 'NONE', *, *, #109, .T. ) ;
#98 = AXIS2_PLACEMENT_3D ( 'NONE', #105, #124, #62 ) ;
#99 = DIRECTION ( 'NONE',  ( 1.000000000000000000, 0.0000000000000000000, 0.0000000000000000000 ) ) ;
#100 = CARTESIAN_POINT ( 'NONE',  ( 2.130974525552498100, -2.143504316618430700, 2.248373086383284500 ) ) ;
#101 = CC_DESIGN_APPROVAL ( #125, ( #207 ) ) ;
#102 = ORGANIZATION ( 'UNSPECIFIED', 'UNSPECIFIED', '' ) ;
#103 = DIRECTION ( 'NONE',  ( 1.000000000000000000, 0.0000000000000000000, 0.0000000000000000000 ) ) ;
#104 =( LENGTH_UNIT ( ) NAMED_UNIT ( * ) SI_UNIT ( .MILLI., .METRE. ) );
#105 = CARTESIAN_POINT ( 'NONE',  ( 2.498001805406600200E-016, 1.221245327087670000E-015, 2.058397503450230200 ) ) ;
#106 = DIRECTION ( 'NONE',  ( 2.039914074259891000E-016, -1.000000000000000000, -3.896886713321013100E-016 ) ) ;
#107 = VERTEX_POINT ( 'NONE', #173 ) ;
#108 = CARTESIAN_POINT ( 'NONE',  ( -4.354956324202854400E-014, -6.426148574423918600, 2.054979232981951400 ) ) ;
#109 = EDGE_CURVE ( 'NONE', #259, #257, #143, .T. ) ;
#110 = CALENDAR_DATE ( 2019, 4, 1 ) ;
#111 = PERSON_AND_ORGANIZATION_ROLE ( 'design_owner' ) ;
#112 = APPROVAL_ROLE ( '' ) ;
#113 = DATE_AND_TIME ( #232, #55 ) ;
#114 = EDGE_LOOP ( 'NONE', ( #245, #29, #206 ) ) ;
#115 = VERTEX_POINT ( 'NONE', #244 ) ;
#116 = DIRECTION ( 'NONE',  ( -0.0000000000000000000, -0.0000000000000000000, -1.000000000000000000 ) ) ;
#117 = CARTESIAN_POINT ( 'NONE',  ( -1.421085471520200100E-014, 2.842170943040400100E-014, -140.2500000000000000 ) ) ;
#118 = ORIENTED_EDGE ( 'NONE', *, *, #156, .F. ) ;
#119 =( BOUNDED_SURFACE ( )  B_SPLINE_SURFACE ( 3, 3, ( 
 ( #286, #140, #73, #93 ),
 ( #162, #165, #10, #32 ),
 ( #94, #187, #192, #163 ),
 ( #54, #13, #56, #262 ) ),
 .UNSPECIFIED., .F., .F., .F. ) 
 B_SPLINE_SURFACE_WITH_KNOTS ( ( 4, 4 ),
 ( 4, 4 ),
 ( 0.0000000000000000000, 1.000000000000000000 ),
 ( 0.0000000000000000000, 1.000000000000000000 ),
 .UNSPECIFIED. ) 
 GEOMETRIC_REPRESENTATION_ITEM ( )  RATIONAL_B_SPLINE_SURFACE ( (
 ( 1.000000000000000000, 0.9998323100924994000, 0.9998323100924994000, 1.000000000000000000),
 ( 0.9993213021316576000, 0.9991537260349397900, 0.9991537260349397900, 0.9993213021316576000),
 ( 0.9993213021316576000, 0.9991537260349397900, 0.9991537260349397900, 0.9993213021316576000),
 ( 1.000000000000000000, 0.9998323100924994000, 0.9998323100924994000, 1.000000000000000000) ) ) 
 REPRESENTATION_ITEM ( '' )  SURFACE ( )  );
#120 = CARTESIAN_POINT ( 'NONE',  ( 6.390243774402054400, 2.143504316618470200, 2.105017884055635500 ) ) ;
#121 = ORIENTED_EDGE ( 'NONE', *, *, #83, .F. ) ;
#122 = EDGE_CURVE ( 'NONE', #259, #248, #177, .T. ) ;
#123 = CARTESIAN_POINT ( 'NONE',  ( 6.390243774402002000, 2.143504316618548800, 0.09498211594437099000 ) ) ;
#124 = DIRECTION ( 'NONE',  ( -0.0000000000000000000, -0.0000000000000000000, -1.000000000000000000 ) ) ;
#125 = APPROVAL ( #134, 'UNSPECIFIED' ) ;
#126 = LOCAL_TIME ( 14, 35, 18.00000000000000000, #74 ) ;
#127 = ORIENTED_EDGE ( 'NONE', *, *, #51, .T. ) ;
#128 = DIRECTION ( 'NONE',  ( -0.0000000000000000000, -0.0000000000000000000, -1.000000000000000000 ) ) ;
#129 = CARTESIAN_POINT ( 'NONE',  ( -6.381571157017402700, 6.426148574423958600, 1.911818587366652200 ) ) ;
#130 = ORIENTED_EDGE ( 'NONE', *, *, #15, .F. ) ;
#131 = APPROVAL_ROLE ( '' ) ;
#132 = CC_DESIGN_PERSON_AND_ORGANIZATION_ASSIGNMENT ( #42, #111, ( #66 ) ) ;
#133 = COORDINATED_UNIVERSAL_TIME_OFFSET ( 2, 0, .AHEAD. ) ;
#134 = APPROVAL_STATUS ( 'not_yet_approved' ) ;
#135 = EDGE_LOOP ( 'NONE', ( #121, #285, #235, #47, #186, #184 ) ) ;
#136 = AXIS2_PLACEMENT_3D ( 'NONE', #171, #169, #99 ) ;
#137 = ADVANCED_FACE ( 'NONE', ( #6 ), #278, .T. ) ;
#138 = CALENDAR_DATE ( 2019, 4, 1 ) ;
#139 = PRODUCT_DEFINITION_SHAPE ( 'NONE', 'NONE',  #194 ) ;
#140 = CARTESIAN_POINT ( 'NONE',  ( -4.255629594637280600, -6.426148574424178900, 0.1927489857637315300 ) ) ;
#141 = PERSON_AND_ORGANIZATION ( #30, #102 ) ;
#142 = AXIS2_PLACEMENT_3D ( 'NONE', #17, #268, #78 ) ;
#143 = CIRCLE ( 'NONE', #142, 6.349999999999999600 ) ;
#144 = CC_DESIGN_PERSON_AND_ORGANIZATION_ASSIGNMENT ( #283, #231, ( #207 ) ) ;
#145 = DIRECTION ( 'NONE',  ( 0.0000000000000000000, 0.0000000000000000000, 1.000000000000000000 ) ) ;
#146 = CARTESIAN_POINT ( 'NONE',  ( 4.261413036723392400, 2.143504316618470600, 2.200580004523257700 ) ) ;
#147 = APPROVAL_PERSON_ORGANIZATION ( #288, #185, #131 ) ;
#148 = ORIENTED_EDGE ( 'NONE', *, *, #122, .T. ) ;
#149 = DIRECTION ( 'NONE',  ( 1.000000000000000000, 0.0000000000000000000, 0.0000000000000000000 ) ) ;
#150 = DIRECTION ( 'NONE',  ( 0.0000000000000000000, 0.0000000000000000000, 1.000000000000000000 ) ) ;
#151 = CC_DESIGN_APPROVAL ( #185, ( #194 ) ) ;
#152 = LOCAL_TIME ( 14, 35, 18.00000000000000000, #20 ) ;
#153 = PRODUCT_RELATED_PRODUCT_CATEGORY ( 'detail', '', ( #66 ) ) ;
#154 = CARTESIAN_POINT ( 'NONE',  ( -4.255629594637286800, -6.426148574423917700, 2.007251014236260300 ) ) ;
#155 = CARTESIAN_POINT ( 'NONE',  ( -9.540979117872439000E-015, 6.426148574423958600, 2.054979232981961200 ) ) ;
#156 = EDGE_CURVE ( 'NONE', #257, #18, #237, .T. ) ;
#157 = EDGE_LOOP ( 'NONE', ( #251, #75, #199 ) ) ;
#158 = CARTESIAN_POINT ( 'NONE',  ( -2.130974525552516300, -2.143504316618430700, 2.248373086383274300 ) ) ;
#159 = DATE_TIME_ROLE ( 'creation_date' ) ;
#160 = ADVANCED_FACE ( 'NONE', ( #227 ), #289, .T. ) ;
#161 = ORIENTED_EDGE ( 'NONE', *, *, #40, .F. ) ;
#162 = CARTESIAN_POINT ( 'NONE',  ( -6.390243774402028600, -2.143504316618524400, 0.09498211594435662700 ) ) ;
#163 = CARTESIAN_POINT ( 'NONE',  ( 3.295974604355933500E-014, 2.143504316618547000, -0.04837308638329035300 ) ) ;
#164 = CC_DESIGN_PERSON_AND_ORGANIZATION_ASSIGNMENT ( #255, #252, ( #211 ) ) ;
#165 = CARTESIAN_POINT ( 'NONE',  ( -4.261413036723366700, -2.143504316618524400, -0.0005800045232664704800 ) ) ;
#166 = PERSON_AND_ORGANIZATION ( #30, #102 ) ;
#167 = CARTESIAN_POINT ( 'NONE',  ( 6.381571157017458700, -6.426148574423918600, 1.911818587366664900 ) ) ;
#168 = ORIENTED_EDGE ( 'NONE', *, *, #279, .T. ) ;
#169 = DIRECTION ( 'NONE',  ( -0.0000000000000000000, -0.0000000000000000000, -1.000000000000000000 ) ) ;
#170 = CARTESIAN_POINT ( 'NONE',  ( 6.914774259388857200E-014, -2.143504316618522600, -0.04837308638328261700 ) ) ;
#171 = CARTESIAN_POINT ( 'NONE',  ( 2.498001805406600200E-016, 1.221245327087670000E-015, 0.1416024965497690000 ) ) ;
#172 = FACE_OUTER_BOUND ( 'NONE', #157, .T. ) ;
#173 = CARTESIAN_POINT ( 'NONE',  ( -6.349999999999999600, 1.998896044546239400E-015, 2.058397503450230200 ) ) ;
#174 = CARTESIAN_POINT ( 'NONE',  ( -6.390243774401997500, -2.143504316618430200, 2.105017884055623500 ) ) ;
#175 = DIRECTION ( 'NONE',  ( -0.0000000000000000000, -0.0000000000000000000, -1.000000000000000000 ) ) ;
#176 = SHAPE_DEFINITION_REPRESENTATION ( #139, #234 ) ;
#177 = LINE ( 'NONE', #264, #57 ) ;
#178 =( NAMED_UNIT ( * ) PLANE_ANGLE_UNIT ( ) SI_UNIT ( $, .RADIAN. ) );
#179 = CARTESIAN_POINT ( 'NONE',  ( 4.255629594637307300, 6.426148574423957700, 2.007251014236275800 ) ) ;
#180 = AXIS2_PLACEMENT_3D ( 'NONE', #275, #128, #201 ) ;
#181 = CIRCLE ( 'NONE', #11, 6.349999999999999600 ) ;
#182 = PERSON_AND_ORGANIZATION_ROLE ( 'creator' ) ;
#183 = APPLICATION_CONTEXT ( 'configuration controlled 3d designs of mechanical parts and assemblies' ) ;
#184 = ORIENTED_EDGE ( 'NONE', *, *, #51, .F. ) ;
#185 = APPROVAL ( #50, 'UNSPECIFIED' ) ;
#186 = ORIENTED_EDGE ( 'NONE', *, *, #122, .F. ) ;
#187 = CARTESIAN_POINT ( 'NONE',  ( -4.261413036723368500, 2.143504316618547000, -0.0005800045232655354600 ) ) ;
#188 = CARTESIAN_POINT ( 'NONE',  ( -6.349999999999999600, 1.998896044546239400E-015, 0.1416024965497690000 ) ) ;
#189 = CC_DESIGN_DATE_AND_TIME_ASSIGNMENT ( #113, #159, ( #194 ) ) ;
#190 = CARTESIAN_POINT ( 'NONE',  ( 2.128082440779421400, -6.426148574424177100, 0.1450207670180566600 ) ) ;
#191 = AXIS2_PLACEMENT_3D ( 'NONE', #39, #19, #149 ) ;
#192 = CARTESIAN_POINT ( 'NONE',  ( -2.130974525552474600, 2.143504316618547500, -0.04837308638329063800 ) ) ;
#193 = LOCAL_TIME ( 14, 35, 18.00000000000000000, #266 ) ;
#194 = PRODUCT_DEFINITION ( 'UNKNOWN', '', #207, #95 ) ;
#195 = CIRCLE ( 'NONE', #294, 142.4499999999999900 ) ;
#196 = CARTESIAN_POINT ( 'NONE',  ( 2.130974525552532800, 2.143504316618548300, -0.04837308638328086100 ) ) ;
#197 =( GEOMETRIC_REPRESENTATION_CONTEXT ( 3 ) GLOBAL_UNCERTAINTY_ASSIGNED_CONTEXT ( ( #265 ) ) GLOBAL_UNIT_ASSIGNED_CONTEXT ( ( #104, #178, #205 ) ) REPRESENTATION_CONTEXT ( 'NONE', 'WORKASPACE' ) );
#198 = CARTESIAN_POINT ( 'NONE',  ( 6.732564202852248800E-014, 6.426148574424203700, 0.1450207670180558800 ) ) ;
#199 = ORIENTED_EDGE ( 'NONE', *, *, #83, .T. ) ;
#200 = CARTESIAN_POINT ( 'NONE',  ( 2.498001805406600200E-016, 1.221245327087670000E-015, 0.1416024965497690000 ) ) ;
#201 = DIRECTION ( 'NONE',  ( 1.000000000000000000, 0.0000000000000000000, 0.0000000000000000000 ) ) ;
#202 = CIRCLE ( 'NONE', #180, 6.349999999999999600 ) ;
#203 = ORIENTED_EDGE ( 'NONE', *, *, #236, .T. ) ;
#204 =( BOUNDED_SURFACE ( )  B_SPLINE_SURFACE ( 3, 3, ( 
 ( #108, #45, #154, #228 ),
 ( #22, #158, #4, #174 ),
 ( #271, #247, #86, #229 ),
 ( #225, #274, #226, #129 ) ),
 .UNSPECIFIED., .F., .F., .F. ) 
 B_SPLINE_SURFACE_WITH_KNOTS ( ( 4, 4 ),
 ( 4, 4 ),
 ( 0.0000000000000000000, 1.000000000000000000 ),
 ( 0.0000000000000000000, 1.000000000000000000 ),
 .UNSPECIFIED. ) 
 GEOMETRIC_REPRESENTATION_ITEM ( )  RATIONAL_B_SPLINE_SURFACE ( (
 ( 1.000000000000000000, 0.9998323100924994000, 0.9998323100924994000, 1.000000000000000000),
 ( 0.9993213021316577100, 0.9991537260349399000, 0.9991537260349399000, 0.9993213021316577100),
 ( 0.9993213021316577100, 0.9991537260349399000, 0.9991537260349399000, 0.9993213021316577100),
 ( 1.000000000000000000, 0.9998323100924994000, 0.9998323100924994000, 1.000000000000000000) ) ) 
 REPRESENTATION_ITEM ( '' )  SURFACE ( )  );
#205 =( NAMED_UNIT ( * ) SI_UNIT ( $, .STERADIAN. ) SOLID_ANGLE_UNIT ( ) );
#206 = ORIENTED_EDGE ( 'NONE', *, *, #260, .F. ) ;
#207 = PRODUCT_DEFINITION_FORMATION_WITH_SPECIFIED_SOURCE ( 'ANY', '', #66, .NOT_KNOWN. ) ;
#208 = CALENDAR_DATE ( 2019, 4, 1 ) ;
#209 = AXIS2_PLACEMENT_3D ( 'NONE', #270, #217, #293 ) ;
#210 = APPLICATION_PROTOCOL_DEFINITION ( 'international standard', 'config_control_design', 1994, #90 ) ;
#211 = SECURITY_CLASSIFICATION ( '', '', #68 ) ;
#212 = FACE_OUTER_BOUND ( 'NONE', #114, .T. ) ;
#213 = CARTESIAN_POINT ( 'NONE',  ( 2.498001805406600200E-016, 1.221245327087670000E-015, 0.1416024965497690000 ) ) ;
#214 = CC_DESIGN_SECURITY_CLASSIFICATION ( #211, ( #207 ) ) ;
#215 = APPROVAL_DATE_TIME ( #272, #185 ) ;
#216 = CARTESIAN_POINT ( 'NONE',  ( 6.734248302800708100E-014, 6.349999999999959700, 0.1416024965497665900 ) ) ;
#217 = DIRECTION ( 'NONE',  ( -0.0000000000000000000, -0.0000000000000000000, -1.000000000000000000 ) ) ;
#218 = APPROVAL_PERSON_ORGANIZATION ( #141, #287, #112 ) ;
#219 = CIRCLE ( 'NONE', #76, 6.349999999999999600 ) ;
#220 = CARTESIAN_POINT ( 'NONE',  ( -1.040834085586084400E-014, 2.143504316618470200, 2.248373086383284500 ) ) ;
#221 = CC_DESIGN_APPROVAL ( #287, ( #211 ) ) ;
#222 = CARTESIAN_POINT ( 'NONE',  ( 4.255629594637297500, 6.426148574424203700, 0.1927489857637476300 ) ) ;
#223 = CARTESIAN_POINT ( 'NONE',  ( 4.261413036723384500, -2.143504316618522100, -0.0005800045232503429700 ) ) ;
#224 = CARTESIAN_POINT ( 'NONE',  ( -6.349999999999999600, 1.998896044546239400E-015, 0.1416024965497690000 ) ) ;
#225 = CARTESIAN_POINT ( 'NONE',  ( -4.354956324202854400E-014, 6.426148574423958600, 2.054979232981951400 ) ) ;
#226 = CARTESIAN_POINT ( 'NONE',  ( -4.255629594637286800, 6.426148574423957700, 2.007251014236260300 ) ) ;
#227 = FACE_OUTER_BOUND ( 'NONE', #64, .T. ) ;
#228 = CARTESIAN_POINT ( 'NONE',  ( -6.381571157017402700, -6.426148574423918600, 1.911818587366652200 ) ) ;
#229 = CARTESIAN_POINT ( 'NONE',  ( -6.390243774401997500, 2.143504316618470200, 2.105017884055623100 ) ) ;
#230 = PERSON_AND_ORGANIZATION_ROLE ( 'creator' ) ;
#231 = PERSON_AND_ORGANIZATION_ROLE ( 'design_supplier' ) ;
#232 = CALENDAR_DATE ( 2019, 4, 1 ) ;
#233 = ADVANCED_FACE ( 'NONE', ( #14 ), #291, .T. ) ;
#234 = ADVANCED_BREP_SHAPE_REPRESENTATION ( '111-1126E UVFS bi-cx 12.7 F150', ( #258, #27 ), #197 ) ;
#235 = ORIENTED_EDGE ( 'NONE', *, *, #260, .T. ) ;
#236 = EDGE_CURVE ( 'NONE', #115, #107, #267, .T. ) ;
#237 = CIRCLE ( 'NONE', #209, 6.349999999999999600 ) ;
#238 = DIRECTION ( 'NONE',  ( 1.000000000000000000, -8.881784197001252300E-016, 0.0000000000000000000 ) ) ;
#239 = DIRECTION ( 'NONE',  ( -0.0000000000000000000, -0.0000000000000000000, -1.000000000000000000 ) ) ;
#240 = DIRECTION ( 'NONE',  ( 0.0000000000000000000, -1.000000000000000000, 0.0000000000000000000 ) ) ;
#241 = CARTESIAN_POINT ( 'NONE',  ( 2.498001805406600200E-016, 1.221245327087670000E-015, 2.058397503450230200 ) ) ;
#242 = ORIENTED_EDGE ( 'NONE', *, *, #263, .F. ) ;
#243 = CARTESIAN_POINT ( 'NONE',  ( -1.040834085586084400E-014, -2.143504316618430200, 2.248373086383284500 ) ) ;
#244 = CARTESIAN_POINT ( 'NONE',  ( -4.355026797942757800E-014, -6.349999999999657700, 2.058397503450223100 ) ) ;
#245 = ORIENTED_EDGE ( 'NONE', *, *, #236, .F. ) ;
#246 = CARTESIAN_POINT ( 'NONE',  ( 6.381571157017406300, 6.426148574424204600, 0.2881814126333560000 ) ) ;
#247 = CARTESIAN_POINT ( 'NONE',  ( -2.130974525552516300, 2.143504316618470600, 2.248373086383273800 ) ) ;
#248 = VERTEX_POINT ( 'NONE', #249 ) ;
#249 = CARTESIAN_POINT ( 'NONE',  ( 6.349999999999999600, 1.221245327087670000E-015, 2.058397503450230200 ) ) ;
#250 = APPROVAL_ROLE ( '' ) ;
#251 = ORIENTED_EDGE ( 'NONE', *, *, #279, .F. ) ;
#252 = PERSON_AND_ORGANIZATION_ROLE ( 'classification_officer' ) ;
#253 = MECHANICAL_CONTEXT ( 'NONE', #90, 'mechanical' ) ;
#254 = ADVANCED_FACE ( 'NONE', ( #212 ), #204, .T. ) ;
#255 = PERSON_AND_ORGANIZATION ( #30, #102 ) ;
#256 = AXIS2_PLACEMENT_3D ( 'NONE', #65, #175, #276 ) ;
#257 = VERTEX_POINT ( 'NONE', #5 ) ;
#258 = MANIFOLD_SOLID_BREP ( 'Imported1', #12 ) ;
#259 = VERTEX_POINT ( 'NONE', #24 ) ;
#260 = EDGE_CURVE ( 'NONE', #107, #9, #36, .T. ) ;
#261 = DIRECTION ( 'NONE',  ( -1.000000000000000000, 0.0000000000000000000, -2.061678283146590000E-016 ) ) ;
#262 = CARTESIAN_POINT ( 'NONE',  ( 3.122502256758252800E-014, 6.426148574424202800, 0.1450207670180472300 ) ) ;
#263 = EDGE_CURVE ( 'NONE', #18, #107, #89, .T. ) ;
#264 = CARTESIAN_POINT ( 'NONE',  ( 6.349999999999999600, 1.221245327087670000E-015, 0.1416024965497690000 ) ) ;
#265 = UNCERTAINTY_MEASURE_WITH_UNIT (LENGTH_MEASURE( 1.000000000000000100E-005 ), #104, 'distance_accuracy_value', 'NONE');
#266 = COORDINATED_UNIVERSAL_TIME_OFFSET ( 2, 0, .AHEAD. ) ;
#267 = CIRCLE ( 'NONE', #256, 6.349999999999999600 ) ;
#268 = DIRECTION ( 'NONE',  ( -0.0000000000000000000, -0.0000000000000000000, -1.000000000000000000 ) ) ;
#269 = CC_DESIGN_DATE_AND_TIME_ASSIGNMENT ( #31, #280, ( #211 ) ) ;
#270 = CARTESIAN_POINT ( 'NONE',  ( 2.498001805406600200E-016, 1.221245327087670000E-015, 0.1416024965497690000 ) ) ;
#271 = CARTESIAN_POINT ( 'NONE',  ( -4.358943483279370000E-014, 2.143504316618470200, 2.248373086383274700 ) ) ;
#272 = DATE_AND_TIME ( #281, #290 ) ;
#273 = CARTESIAN_POINT ( 'NONE',  ( 6.381571157017458700, 6.426148574423958600, 1.911818587366664900 ) ) ;
#274 = CARTESIAN_POINT ( 'NONE',  ( -2.128082440779401900, 6.426148574423957700, 2.054979232981950500 ) ) ;
#275 = CARTESIAN_POINT ( 'NONE',  ( 2.498001805406600200E-016, 1.221245327087670000E-015, 2.058397503450230200 ) ) ;
#276 = DIRECTION ( 'NONE',  ( 1.000000000000000000, 0.0000000000000000000, 0.0000000000000000000 ) ) ;
#277 = APPROVAL_DATE_TIME ( #48, #125 ) ;
#278 = CYLINDRICAL_SURFACE ( 'NONE', #191, 6.349999999999999600 ) ;
#279 = EDGE_CURVE ( 'NONE', #257, #67, #28, .T. ) ;
#280 = DATE_TIME_ROLE ( 'classification_date' ) ;
#281 = CALENDAR_DATE ( 2019, 4, 1 ) ;
#282 = CC_DESIGN_PERSON_AND_ORGANIZATION_ASSIGNMENT ( #2, #230, ( #194 ) ) ;
#283 = PERSON_AND_ORGANIZATION ( #30, #102 ) ;
#284 = EDGE_CURVE ( 'NONE', #248, #115, #202, .T. ) ;
#285 = ORIENTED_EDGE ( 'NONE', *, *, #263, .T. ) ;
#286 = CARTESIAN_POINT ( 'NONE',  ( -6.381571157017432000, -6.426148574424180600, 0.2881814126333426300 ) ) ;
#287 = APPROVAL ( #26, 'UNSPECIFIED' ) ;
#288 = PERSON_AND_ORGANIZATION ( #30, #102 ) ;
#289 =( BOUNDED_SURFACE ( )  B_SPLINE_SURFACE ( 3, 3, ( 
 ( #167, #59, #58, #35 ),
 ( #77, #41, #100, #243 ),
 ( #120, #146, #37, #220 ),
 ( #273, #179, #46, #155 ) ),
 .UNSPECIFIED., .F., .F., .F. ) 
 B_SPLINE_SURFACE_WITH_KNOTS ( ( 4, 4 ),
 ( 4, 4 ),
 ( 0.0000000000000000000, 1.000000000000000000 ),
 ( 0.0000000000000000000, 1.000000000000000000 ),
 .UNSPECIFIED. ) 
 GEOMETRIC_REPRESENTATION_ITEM ( )  RATIONAL_B_SPLINE_SURFACE ( (
 ( 1.000000000000000000, 0.9998323100924994000, 0.9998323100924994000, 1.000000000000000000),
 ( 0.9993213021316577100, 0.9991537260349399000, 0.9991537260349399000, 0.9993213021316577100),
 ( 0.9993213021316577100, 0.9991537260349399000, 0.9991537260349399000, 0.9993213021316577100),
 ( 1.000000000000000000, 0.9998323100924994000, 0.9998323100924994000, 1.000000000000000000) ) ) 
 REPRESENTATION_ITEM ( '' )  SURFACE ( )  );
#290 = LOCAL_TIME ( 14, 35, 18.00000000000000000, #133 ) ;
#291 = CYLINDRICAL_SURFACE ( 'NONE', #8, 6.349999999999999600 ) ;
#292 = CARTESIAN_POINT ( 'NONE',  ( 6.390243774402002900, -2.143504316618521300, 0.09498211594437003200 ) ) ;
#293 = DIRECTION ( 'NONE',  ( 1.000000000000000000, 0.0000000000000000000, 0.0000000000000000000 ) ) ;
#294 = AXIS2_PLACEMENT_3D ( 'NONE', #117, #261, #240 ) ;
#295 = CARTESIAN_POINT ( 'NONE',  ( 6.827322966914718700E-014, 2.143504316618547500, -0.04837308638328166600 ) ) ;
ENDSEC;
END-ISO-10303-21;
