ISO-10303-21;
HEADER;
FILE_DESCRIPTION (( 'STEP AP203' ),
    '1' );
FILE_NAME ('111-1122E UVFS bi-cx 12.7 F100.STEP',
    '2019-01-04T12:10:13',
    ( '' ),
    ( '' ),
    'SwSTEP 2.0',
    'SolidWorks 2017',
    '' );
FILE_SCHEMA (( 'CONFIG_CONTROL_DESIGN' ));
ENDSEC;

DATA;
#1 = CARTESIAN_POINT ( 'NONE',  ( 4.264787919425491400, -2.145314797472432900, -0.0008877973375882137400 ) ) ;
#2 = AXIS2_PLACEMENT_3D ( 'NONE', #272, #73, #104 ) ;
#3 = ORIENTED_EDGE ( 'NONE', *, *, #244, .T. ) ;
#4 = DIRECTION ( 'NONE',  ( 0.0000000000000000000, 0.0000000000000000000, 1.000000000000000000 ) ) ;
#5 = APPROVAL_STATUS ( 'not_yet_approved' ) ;
#6 = EDGE_LOOP ( 'NONE', ( #285, #3, #261 ) ) ;
#7 = DATE_TIME_ROLE ( 'classification_date' ) ;
#8 = APPROVAL_ROLE ( '' ) ;
#9 = LOCAL_TIME ( 14, 10, 13.00000000000000000, #192 ) ;
#10 = PERSON_AND_ORGANIZATION ( #260, #259 ) ;
#11 = ORIENTED_EDGE ( 'NONE', *, *, #289, .T. ) ;
#12 = EDGE_CURVE ( 'NONE', #23, #116, #154, .T. ) ;
#13 = CARTESIAN_POINT ( 'NONE',  ( -4.251724746152698100, -6.426083867363813000, 0.2896126856986562200 ) ) ;
#14 = CC_DESIGN_PERSON_AND_ORGANIZATION_ASSIGNMENT ( #273, #240, ( #158 ) ) ;
#15 = EDGE_CURVE ( 'NONE', #106, #64, #91, .T. ) ;
#16 = APPROVAL_PERSON_ORGANIZATION ( #262, #111, #212 ) ;
#17 = CARTESIAN_POINT ( 'NONE',  ( -2.126466193438203400, -6.426083867363797000, 2.082043130179803500 ) ) ;
#18 = VECTOR ( 'NONE', #292, 1000.000000000000000 ) ;
#19 = DIRECTION ( 'NONE',  ( -0.0000000000000000000, -0.0000000000000000000, -1.000000000000000000 ) ) ;
#20 = CARTESIAN_POINT ( 'NONE',  ( -6.392943526064597000, 2.145314797472424000, 2.157217487174942800 ) ) ;
#21 = CARTESIAN_POINT ( 'NONE',  ( 3.021598536190310500E-014, 6.350000000000011200, 0.2128205006616512600 ) ) ;
#22 = CARTESIAN_POINT ( 'NONE',  ( 6.373361748357976500, 6.426083867363791700, 1.867157070606542600 ) ) ;
#23 = VERTEX_POINT ( 'NONE', #201 ) ;
#24 = CARTESIAN_POINT ( 'NONE',  ( 2.132999635277000600, 2.145314797472422300, -0.07276377147998382100 ) ) ;
#25 = DIRECTION ( 'NONE',  ( -3.063957822420079500E-016, -1.000000000000000000, 0.0000000000000000000 ) ) ;
#26 = DIRECTION ( 'NONE',  ( -0.0000000000000000000, -0.0000000000000000000, -1.000000000000000000 ) ) ;
#27 = ADVANCED_FACE ( 'NONE', ( #151 ), #90, .T. ) ;
#28 = APPROVAL_ROLE ( '' ) ;
#29 = EDGE_CURVE ( 'NONE', #64, #116, #278, .T. ) ;
#30 = CYLINDRICAL_SURFACE ( 'NONE', #150, 6.349999999999999600 ) ;
#31 = CC_DESIGN_PERSON_AND_ORGANIZATION_ASSIGNMENT ( #238, #172, ( #129 ) ) ;
#32 = LINE ( 'NONE', #270, #217 ) ;
#33 = CARTESIAN_POINT ( 'NONE',  ( -4.264787919425471900, -2.145314797472435100, -0.0008877973375911953000 ) ) ;
#34 = CARTESIAN_POINT ( 'NONE',  ( -2.132999635276970900, -2.145314797472435100, -0.07276377147999210600 ) ) ;
#35 = COORDINATED_UNIVERSAL_TIME_OFFSET ( 2, 0, .AHEAD. ) ;
#36 = CC_DESIGN_APPROVAL ( #202, ( #158 ) ) ;
#37 = CARTESIAN_POINT ( 'NONE',  ( 4.251724746152701700, 6.426083867363792600, 2.010387314301340700 ) ) ;
#38 = CARTESIAN_POINT ( 'NONE',  ( 6.349999999999999600, 1.221245327087670000E-015, 2.087179499338350100 ) ) ;
#39 = CC_DESIGN_DATE_AND_TIME_ASSIGNMENT ( #280, #7, ( #129 ) ) ;
#40 = CARTESIAN_POINT ( 'NONE',  ( -4.251724746152718600, 6.426083867363794300, 2.010387314301337500 ) ) ;
#41 = ORIENTED_EDGE ( 'NONE', *, *, #199, .T. ) ;
#42 = ORIENTED_EDGE ( 'NONE', *, *, #281, .T. ) ;
#43 = CARTESIAN_POINT ( 'NONE',  ( -1.127570259384924600E-014, -6.426083867363797900, 2.082043130179810600 ) ) ;
#44 = PERSON_AND_ORGANIZATION_ROLE ( 'design_owner' ) ;
#45 = CARTESIAN_POINT ( 'NONE',  ( 6.392943526064598800, -2.145314797472432500, 0.1427825128250530800 ) ) ;
#46 = CARTESIAN_POINT ( 'NONE',  ( 2.498001805406600200E-016, 1.221245327087670000E-015, 0.2128205006616490100 ) ) ;
#47 = CARTESIAN_POINT ( 'NONE',  ( 3.019131353532186100E-014, 6.426083867363799700, 0.2179568698201933600 ) ) ;
#48 = DIRECTION ( 'NONE',  ( 0.0000000000000000000, 0.0000000000000000000, 1.000000000000000000 ) ) ;
#49 = AXIS2_PLACEMENT_3D ( 'NONE', #110, #263, #131 ) ;
#50 = CARTESIAN_POINT ( 'NONE',  ( 2.498001805406600200E-016, 1.221245327087670000E-015, 0.2128205006616490100 ) ) ;
#51 = ORIENTED_EDGE ( 'NONE', *, *, #29, .F. ) ;
#52 = FACE_OUTER_BOUND ( 'NONE', #71, .T. ) ;
#53 = AXIS2_PLACEMENT_3D ( 'NONE', #46, #4, #191 ) ;
#54 = ORIENTED_EDGE ( 'NONE', *, *, #214, .F. ) ;
#55 = CC_DESIGN_PERSON_AND_ORGANIZATION_ASSIGNMENT ( #10, #79, ( #158 ) ) ;
#56 = AXIS2_PLACEMENT_3D ( 'NONE', #163, #26, #119 ) ;
#57 = CIRCLE ( 'NONE', #251, 6.349999999999999600 ) ;
#58 = CARTESIAN_POINT ( 'NONE',  ( -6.392943526064589000, 2.145314797472419600, 0.1427825128250508900 ) ) ;
#59 = APPROVAL_DATE_TIME ( #209, #177 ) ;
#60 = CARTESIAN_POINT ( 'NONE',  ( 8.673617379884037000E-015, 2.145314797472421400, -0.07276377147999207900 ) ) ;
#61 = DIRECTION ( 'NONE',  ( 0.0000000000000000000, 0.0000000000000000000, 1.000000000000000000 ) ) ;
#62 = AXIS2_PLACEMENT_3D ( 'NONE', #84, #221, #134 ) ;
#63 = CARTESIAN_POINT ( 'NONE',  ( -4.264787919425491400, -2.145314797472425400, 2.300887797337583400 ) ) ;
#64 = VERTEX_POINT ( 'NONE', #136 ) ;
#65 = CARTESIAN_POINT ( 'NONE',  ( 3.410721179637661900E-014, -6.350000000000017400, 0.2128205006616512600 ) ) ;
#66 = DIRECTION ( 'NONE',  ( -0.0000000000000000000, -0.0000000000000000000, -1.000000000000000000 ) ) ;
#67 =( BOUNDED_SURFACE ( )  B_SPLINE_SURFACE ( 3, 3, ( 
 ( #68, #234, #255, #120 ),
 ( #99, #271, #1, #45 ),
 ( #169, #24, #237, #188 ),
 ( #47, #213, #70, #101 ) ),
 .UNSPECIFIED., .F., .F., .F. ) 
 B_SPLINE_SURFACE_WITH_KNOTS ( ( 4, 4 ),
 ( 4, 4 ),
 ( 0.0000000000000000000, 1.000000000000000000 ),
 ( 0.0000000000000000000, 1.000000000000000000 ),
 .UNSPECIFIED. ) 
 GEOMETRIC_REPRESENTATION_ITEM ( )  RATIONAL_B_SPLINE_SURFACE ( (
 ( 1.000000000000000000, 0.9996213935503646100, 0.9996213935503646100, 1.000000000000000000),
 ( 0.9984678977237437800, 0.9980898713379117200, 0.9980898713379117200, 0.9984678977237437800),
 ( 0.9984678977237437800, 0.9980898713379117200, 0.9980898713379117200, 0.9984678977237437800),
 ( 1.000000000000000000, 0.9996213935503646100, 0.9996213935503646100, 1.000000000000000000) ) ) 
 REPRESENTATION_ITEM ( '' )  SURFACE ( )  );
#68 = CARTESIAN_POINT ( 'NONE',  ( 3.412916352190922100E-014, -6.426083867363813000, 0.2179568698201933600 ) ) ;
#69 = DIRECTION ( 'NONE',  ( 1.000000000000000000, 0.0000000000000000000, 0.0000000000000000000 ) ) ;
#70 = CARTESIAN_POINT ( 'NONE',  ( 4.251724746152718600, 6.426083867363799700, 0.2896126856986592200 ) ) ;
#71 = EDGE_LOOP ( 'NONE', ( #51, #194, #76, #42, #87, #183 ) ) ;
#72 =( NAMED_UNIT ( * ) SI_UNIT ( $, .STERADIAN. ) SOLID_ANGLE_UNIT ( ) );
#73 = DIRECTION ( 'NONE',  ( 0.0000000000000000000, 0.0000000000000000000, 1.000000000000000000 ) ) ;
#74 = COORDINATED_UNIVERSAL_TIME_OFFSET ( 2, 0, .AHEAD. ) ;
#75 = ADVANCED_FACE ( 'NONE', ( #291 ), #174, .T. ) ;
#76 = ORIENTED_EDGE ( 'NONE', *, *, #235, .F. ) ;
#77 = ADVANCED_FACE ( 'NONE', ( #241 ), #30, .T. ) ;
#78 = PRODUCT ( '111-1122E UVFS bi-cx 12.7 F100', '111-1122E UVFS bi-cx 12.7 F100', '', ( #295 ) ) ;
#79 = PERSON_AND_ORGANIZATION_ROLE ( 'design_supplier' ) ;
#80 = FACE_OUTER_BOUND ( 'NONE', #204, .T. ) ;
#81 = CLOSED_SHELL ( 'NONE', ( #195, #146, #77, #27, #276, #75 ) ) ;
#82 = AXIS2_PLACEMENT_3D ( 'NONE', #239, #117, #25 ) ;
#83 = PERSON_AND_ORGANIZATION ( #260, #259 ) ;
#84 = CARTESIAN_POINT ( 'NONE',  ( 2.498001805406600200E-016, 1.221245327087670000E-015, 0.2128205006616490100 ) ) ;
#85 = LOCAL_TIME ( 14, 10, 13.00000000000000000, #35 ) ;
#86 = CARTESIAN_POINT ( 'NONE',  ( -4.264787919425472800, 2.145314797472420500, -0.0008877973375912224000 ) ) ;
#87 = ORIENTED_EDGE ( 'NONE', *, *, #223, .T. ) ;
#88 = CALENDAR_DATE ( 2019, 4, 1 ) ;
#89 = DIRECTION ( 'NONE',  ( 1.000000000000000000, 0.0000000000000000000, 0.0000000000000000000 ) ) ;
#90 =( BOUNDED_SURFACE ( )  B_SPLINE_SURFACE ( 3, 3, ( 
 ( #155, #13, #133, #157 ),
 ( #180, #33, #34, #203 ),
 ( #58, #86, #246, #60 ),
 ( #247, #207, #113, #93 ) ),
 .UNSPECIFIED., .F., .F., .F. ) 
 B_SPLINE_SURFACE_WITH_KNOTS ( ( 4, 4 ),
 ( 4, 4 ),
 ( 0.0000000000000000000, 1.000000000000000000 ),
 ( 0.0000000000000000000, 1.000000000000000000 ),
 .UNSPECIFIED. ) 
 GEOMETRIC_REPRESENTATION_ITEM ( )  RATIONAL_B_SPLINE_SURFACE ( (
 ( 1.000000000000000000, 0.9996213935503646100, 0.9996213935503646100, 1.000000000000000000),
 ( 0.9984678977237437800, 0.9980898713379117200, 0.9980898713379117200, 0.9984678977237437800),
 ( 0.9984678977237437800, 0.9980898713379117200, 0.9980898713379117200, 0.9984678977237437800),
 ( 1.000000000000000000, 0.9996213935503646100, 0.9996213935503646100, 1.000000000000000000) ) ) 
 REPRESENTATION_ITEM ( '' )  SURFACE ( )  );
#91 = CIRCLE ( 'NONE', #62, 6.349999999999999600 ) ;
#92 = CARTESIAN_POINT ( 'NONE',  ( 2.126466193438171400, 6.426083867363792600, 2.082043130179811500 ) ) ;
#93 = CARTESIAN_POINT ( 'NONE',  ( 8.673617379884035500E-015, 6.426083867363799700, 0.2179568698201856900 ) ) ;
#94 = AXIS2_PLACEMENT_3D ( 'NONE', #236, #66, #69 ) ;
#95 = CARTESIAN_POINT ( 'NONE',  ( -3.157990255124651000E-014, 2.145314797472422300, 2.372763771479980700 ) ) ;
#96 = DIRECTION ( 'NONE',  ( 3.063957822420081000E-016, -1.000000000000000000, -2.926568495954124000E-016 ) ) ;
#97 = CARTESIAN_POINT ( 'NONE',  ( -6.373361748357987200, -6.426083867363796100, 1.867157070606540600 ) ) ;
#98 = ORIENTED_EDGE ( 'NONE', *, *, #281, .F. ) ;
#99 = CARTESIAN_POINT ( 'NONE',  ( 3.289453336230034700E-014, -2.145314797472434300, -0.07276377147998434900 ) ) ;
#100 = DIRECTION ( 'NONE',  ( 1.000000000000000000, 8.881784197001252300E-016, 0.0000000000000000000 ) ) ;
#101 = CARTESIAN_POINT ( 'NONE',  ( 6.373361748357983600, 6.426083867363801400, 0.4328429293934559800 ) ) ;
#102 = CC_DESIGN_PERSON_AND_ORGANIZATION_ASSIGNMENT ( #138, #44, ( #78 ) ) ;
#103 = PERSON_AND_ORGANIZATION ( #260, #259 ) ;
#104 = DIRECTION ( 'NONE',  ( 1.000000000000000000, 0.0000000000000000000, 0.0000000000000000000 ) ) ;
#105 = DATE_TIME_ROLE ( 'creation_date' ) ;
#106 = VERTEX_POINT ( 'NONE', #65 ) ;
#107 = ORIENTED_EDGE ( 'NONE', *, *, #289, .F. ) ;
#108 = UNCERTAINTY_MEASURE_WITH_UNIT (LENGTH_MEASURE( 1.000000000000000100E-005 ), #233, 'distance_accuracy_value', 'NONE');
#109 = APPROVAL_DATE_TIME ( #254, #202 ) ;
#110 = CARTESIAN_POINT ( 'NONE',  ( 2.498001805406600200E-016, 1.221245327087670000E-015, 2.087179499338350100 ) ) ;
#111 = APPROVAL ( #123, 'UNSPECIFIED' ) ;
#112 = CARTESIAN_POINT ( 'NONE',  ( 6.373361748357973000, -6.426083867363799700, 1.867157070606542600 ) ) ;
#113 = CARTESIAN_POINT ( 'NONE',  ( -2.126466193438171400, 6.426083867363798800, 0.2179568698201856400 ) ) ;
#114 = ADVANCED_BREP_SHAPE_REPRESENTATION ( '111-1122E UVFS bi-cx 12.7 F100', ( #179, #2 ), #248 ) ;
#115 = CIRCLE ( 'NONE', #197, 6.349999999999999600 ) ;
#116 = VERTEX_POINT ( 'NONE', #182 ) ;
#117 = DIRECTION ( 'NONE',  ( -1.000000000000000000, 3.063957822420080000E-016, -2.647883129784510100E-016 ) ) ;
#118 = CARTESIAN_POINT ( 'NONE',  ( 4.251724746152698100, -6.426083867363798800, 2.010387314301340700 ) ) ;
#119 = DIRECTION ( 'NONE',  ( 1.000000000000000000, -8.881784197001252300E-016, 0.0000000000000000000 ) ) ;
#120 = CARTESIAN_POINT ( 'NONE',  ( 6.373361748357988100, -6.426083867363811200, 0.4328429293934559800 ) ) ;
#121 = CALENDAR_DATE ( 2019, 4, 1 ) ;
#122 = ORIENTED_EDGE ( 'NONE', *, *, #12, .F. ) ;
#123 = APPROVAL_STATUS ( 'not_yet_approved' ) ;
#124 =( BOUNDED_SURFACE ( )  B_SPLINE_SURFACE ( 3, 3, ( 
 ( #137, #17, #232, #97 ),
 ( #140, #181, #63, #252 ),
 ( #95, #161, #267, #20 ),
 ( #139, #184, #40, #208 ) ),
 .UNSPECIFIED., .F., .F., .T. ) 
 B_SPLINE_SURFACE_WITH_KNOTS ( ( 4, 4 ),
 ( 4, 4 ),
 ( 0.0000000000000000000, 1.000000000000000000 ),
 ( 0.0000000000000000000, 1.000000000000000000 ),
 .UNSPECIFIED. ) 
 GEOMETRIC_REPRESENTATION_ITEM ( )  RATIONAL_B_SPLINE_SURFACE ( (
 ( 1.000000000000000000, 0.9996213935503646100, 0.9996213935503646100, 1.000000000000000000),
 ( 0.9984678977237437800, 0.9980898713379117200, 0.9980898713379117200, 0.9984678977237437800),
 ( 0.9984678977237437800, 0.9980898713379117200, 0.9980898713379117200, 0.9984678977237437800),
 ( 1.000000000000000000, 0.9996213935503646100, 0.9996213935503646100, 1.000000000000000000) ) ) 
 REPRESENTATION_ITEM ( '' )  SURFACE ( )  );
#125 = VERTEX_POINT ( 'NONE', #21 ) ;
#126 = PRODUCT_DEFINITION ( 'UNKNOWN', '', #158, #128 ) ;
#127 = EDGE_CURVE ( 'NONE', #64, #125, #57, .T. ) ;
#128 = DESIGN_CONTEXT ( 'detailed design', #210, 'design' ) ;
#129 = SECURITY_CLASSIFICATION ( '', '', #153 ) ;
#130 = DATE_AND_TIME ( #200, #9 ) ;
#131 = DIRECTION ( 'NONE',  ( 1.000000000000000000, 0.0000000000000000000, 0.0000000000000000000 ) ) ;
#132 = CALENDAR_DATE ( 2019, 4, 1 ) ;
#133 = CARTESIAN_POINT ( 'NONE',  ( -2.126466193438168800, -6.426083867363813000, 0.2179568698201856100 ) ) ;
#134 = DIRECTION ( 'NONE',  ( 1.000000000000000000, 0.0000000000000000000, 0.0000000000000000000 ) ) ;
#135 = ORIENTED_EDGE ( 'NONE', *, *, #29, .T. ) ;
#136 = CARTESIAN_POINT ( 'NONE',  ( -6.349999999999999600, 1.998896044546239400E-015, 0.2128205006616490100 ) ) ;
#137 = CARTESIAN_POINT ( 'NONE',  ( -3.412916352190922100E-014, -6.426083867363797900, 2.082043130179803000 ) ) ;
#138 = PERSON_AND_ORGANIZATION ( #260, #259 ) ;
#139 = CARTESIAN_POINT ( 'NONE',  ( -3.019131353532186800E-014, 6.426083867363793400, 2.082043130179803000 ) ) ;
#140 = CARTESIAN_POINT ( 'NONE',  ( -3.289453336230034700E-014, -2.145314797472426300, 2.372763771479980300 ) ) ;
#141 = CARTESIAN_POINT ( 'NONE',  ( 6.392943526064589000, 2.145314797472420500, 2.157217487174945000 ) ) ;
#142 = CARTESIAN_POINT ( 'NONE',  ( 2.126466193438168800, -6.426083867363798800, 2.082043130179811000 ) ) ;
#143 = SHAPE_DEFINITION_REPRESENTATION ( #145, #114 ) ;
#144 = VERTEX_POINT ( 'NONE', #287 ) ;
#145 = PRODUCT_DEFINITION_SHAPE ( 'NONE', 'NONE',  #126 ) ;
#146 = ADVANCED_FACE ( 'NONE', ( #80 ), #124, .T. ) ;
#147 =( NAMED_UNIT ( * ) PLANE_ANGLE_UNIT ( ) SI_UNIT ( $, .RADIAN. ) );
#148 = DATE_AND_TIME ( #88, #249 ) ;
#149 = CARTESIAN_POINT ( 'NONE',  ( 2.498001805406600200E-016, 1.221245327087670000E-015, 2.087179499338350100 ) ) ;
#150 = AXIS2_PLACEMENT_3D ( 'NONE', #205, #61, #225 ) ;
#151 = FACE_OUTER_BOUND ( 'NONE', #211, .T. ) ;
#152 = APPROVAL_STATUS ( 'not_yet_approved' ) ;
#153 = SECURITY_CLASSIFICATION_LEVEL ( 'unclassified' ) ;
#154 = CIRCLE ( 'NONE', #49, 6.349999999999999600 ) ;
#155 = CARTESIAN_POINT ( 'NONE',  ( -6.373361748357973000, -6.426083867363814800, 0.4328429293934538100 ) ) ;
#156 = CC_DESIGN_APPROVAL ( #111, ( #126 ) ) ;
#157 = CARTESIAN_POINT ( 'NONE',  ( 1.127570259384924600E-014, -6.426083867363813000, 0.2179568698201856400 ) ) ;
#158 = PRODUCT_DEFINITION_FORMATION_WITH_SPECIFIED_SOURCE ( 'ANY', '', #78, .NOT_KNOWN. ) ;
#159 = VERTEX_POINT ( 'NONE', #38 ) ;
#160 = CARTESIAN_POINT ( 'NONE',  ( -1.040834085586084300E-014, -2.145314797472426300, 2.372763771479988300 ) ) ;
#161 = CARTESIAN_POINT ( 'NONE',  ( -2.132999635277000600, 2.145314797472423200, 2.372763771479979400 ) ) ;
#162 = ORIENTED_EDGE ( 'NONE', *, *, #223, .F. ) ;
#163 = CARTESIAN_POINT ( 'NONE',  ( 2.498001805406600200E-016, 1.221245327087670000E-015, 0.2128205006616490100 ) ) ;
#164 = CIRCLE ( 'NONE', #56, 6.349999999999999600 ) ;
#165 = ORIENTED_EDGE ( 'NONE', *, *, #199, .F. ) ;
#166 = CARTESIAN_POINT ( 'NONE',  ( 2.132999635276970000, -2.145314797472427100, 2.372763771479987400 ) ) ;
#167 = CC_DESIGN_APPROVAL ( #177, ( #129 ) ) ;
#168 = APPLICATION_CONTEXT ( 'configuration controlled 3d designs of mechanical parts and assemblies' ) ;
#169 = CARTESIAN_POINT ( 'NONE',  ( 3.157990255124651000E-014, 2.145314797472421400, -0.07276377147998440400 ) ) ;
#170 = PERSON_AND_ORGANIZATION ( #260, #259 ) ;
#171 = DIRECTION ( 'NONE',  ( -0.0000000000000000000, -0.0000000000000000000, -1.000000000000000000 ) ) ;
#172 = PERSON_AND_ORGANIZATION_ROLE ( 'classification_officer' ) ;
#173 = CC_DESIGN_SECURITY_CLASSIFICATION ( #129, ( #158 ) ) ;
#174 =( BOUNDED_SURFACE ( )  B_SPLINE_SURFACE ( 3, 3, ( 
 ( #112, #118, #142, #43 ),
 ( #266, #227, #166, #160 ),
 ( #141, #228, #288, #294 ),
 ( #22, #37, #92, #250 ) ),
 .UNSPECIFIED., .F., .F., .F. ) 
 B_SPLINE_SURFACE_WITH_KNOTS ( ( 4, 4 ),
 ( 4, 4 ),
 ( 0.0000000000000000000, 1.000000000000000000 ),
 ( 0.0000000000000000000, 1.000000000000000000 ),
 .UNSPECIFIED. ) 
 GEOMETRIC_REPRESENTATION_ITEM ( )  RATIONAL_B_SPLINE_SURFACE ( (
 ( 1.000000000000000000, 0.9996213935503646100, 0.9996213935503646100, 1.000000000000000000),
 ( 0.9984678977237437800, 0.9980898713379117200, 0.9980898713379117200, 0.9984678977237437800),
 ( 0.9984678977237437800, 0.9980898713379117200, 0.9980898713379117200, 0.9984678977237437800),
 ( 1.000000000000000000, 0.9996213935503646100, 0.9996213935503646100, 1.000000000000000000) ) ) 
 REPRESENTATION_ITEM ( '' )  SURFACE ( )  );
#175 = ORIENTED_EDGE ( 'NONE', *, *, #127, .T. ) ;
#176 = CIRCLE ( 'NONE', #193, 6.349999999999999600 ) ;
#177 = APPROVAL ( #5, 'UNSPECIFIED' ) ;
#178 = ORIENTED_EDGE ( 'NONE', *, *, #277, .F. ) ;
#179 = MANIFOLD_SOLID_BREP ( 'Imported1', #81 ) ;
#180 = CARTESIAN_POINT ( 'NONE',  ( -6.392943526064588200, -2.145314797472436000, 0.1427825128250509400 ) ) ;
#181 = CARTESIAN_POINT ( 'NONE',  ( -2.132999635277002000, -2.145314797472425400, 2.372763771479979000 ) ) ;
#182 = CARTESIAN_POINT ( 'NONE',  ( -6.349999999999999600, 1.998896044546239400E-015, 2.087179499338350100 ) ) ;
#183 = ORIENTED_EDGE ( 'NONE', *, *, #12, .T. ) ;
#184 = CARTESIAN_POINT ( 'NONE',  ( -2.126466193438199400, 6.426083867363794300, 2.082043130179803500 ) ) ;
#185 = PRODUCT_RELATED_PRODUCT_CATEGORY ( 'detail', '', ( #78 ) ) ;
#186 = CARTESIAN_POINT ( 'NONE',  ( 7.105427357601000300E-015, -7.105427357601000300E-015, 94.84000000000000300 ) ) ;
#187 = AXIS2_PLACEMENT_3D ( 'NONE', #149, #293, #100 ) ;
#188 = CARTESIAN_POINT ( 'NONE',  ( 6.392943526064597900, 2.145314797472423200, 0.1427825128250530300 ) ) ;
#189 = DIRECTION ( 'NONE',  ( -0.0000000000000000000, -0.0000000000000000000, -1.000000000000000000 ) ) ;
#190 = DIRECTION ( 'NONE',  ( 1.000000000000000000, 3.063957822420080000E-016, 2.647883129784510100E-016 ) ) ;
#191 = DIRECTION ( 'NONE',  ( 1.000000000000000000, 0.0000000000000000000, 0.0000000000000000000 ) ) ;
#192 = COORDINATED_UNIVERSAL_TIME_OFFSET ( 2, 0, .AHEAD. ) ;
#193 = AXIS2_PLACEMENT_3D ( 'NONE', #229, #189, #268 ) ;
#194 = ORIENTED_EDGE ( 'NONE', *, *, #15, .F. ) ;
#195 = ADVANCED_FACE ( 'NONE', ( #224 ), #67, .T. ) ;
#196 = APPROVAL_PERSON_ORGANIZATION ( #103, #177, #8 ) ;
#197 = AXIS2_PLACEMENT_3D ( 'NONE', #50, #171, #256 ) ;
#198 = PERSON_AND_ORGANIZATION_ROLE ( 'creator' ) ;
#199 = EDGE_CURVE ( 'NONE', #144, #159, #176, .T. ) ;
#200 = CALENDAR_DATE ( 2019, 4, 1 ) ;
#201 = CARTESIAN_POINT ( 'NONE',  ( -3.410721179637661900E-014, -6.350000000000017400, 2.087179499338346600 ) ) ;
#202 = APPROVAL ( #152, 'UNSPECIFIED' ) ;
#203 = CARTESIAN_POINT ( 'NONE',  ( 9.540979117872440600E-015, -2.145314797472434300, -0.07276377147999207900 ) ) ;
#204 = EDGE_LOOP ( 'NONE', ( #122, #11, #54 ) ) ;
#205 = CARTESIAN_POINT ( 'NONE',  ( 2.498001805406600200E-016, 1.221245327087670000E-015, 0.2128205006616490100 ) ) ;
#206 = LOCAL_TIME ( 14, 10, 13.00000000000000000, #219 ) ;
#207 = CARTESIAN_POINT ( 'NONE',  ( -4.251724746152701700, 6.426083867363798800, 0.2896126856986562200 ) ) ;
#208 = CARTESIAN_POINT ( 'NONE',  ( -6.373361748357983600, 6.426083867363795200, 1.867157070606540600 ) ) ;
#209 = DATE_AND_TIME ( #121, #265 ) ;
#210 = APPLICATION_CONTEXT ( 'configuration controlled 3d designs of mechanical parts and assemblies' ) ;
#211 = EDGE_LOOP ( 'NONE', ( #257, #282, #175 ) ) ;
#212 = APPROVAL_ROLE ( '' ) ;
#213 = CARTESIAN_POINT ( 'NONE',  ( 2.126466193438199400, 6.426083867363799700, 0.2179568698201939700 ) ) ;
#214 = EDGE_CURVE ( 'NONE', #116, #144, #264, .T. ) ;
#215 = APPROVAL_DATE_TIME ( #130, #111 ) ;
#216 = CALENDAR_DATE ( 2019, 4, 1 ) ;
#217 = VECTOR ( 'NONE', #48, 1000.000000000000000 ) ;
#218 = ORIENTED_EDGE ( 'NONE', *, *, #127, .F. ) ;
#219 = COORDINATED_UNIVERSAL_TIME_OFFSET ( 2, 0, .AHEAD. ) ;
#220 = CC_DESIGN_PERSON_AND_ORGANIZATION_ASSIGNMENT ( #83, #198, ( #126 ) ) ;
#221 = DIRECTION ( 'NONE',  ( -0.0000000000000000000, -0.0000000000000000000, -1.000000000000000000 ) ) ;
#222 = CIRCLE ( 'NONE', #283, 94.84000000000000300 ) ;
#223 = EDGE_CURVE ( 'NONE', #159, #23, #230, .T. ) ;
#224 = FACE_OUTER_BOUND ( 'NONE', #6, .T. ) ;
#225 = DIRECTION ( 'NONE',  ( 1.000000000000000000, 0.0000000000000000000, 0.0000000000000000000 ) ) ;
#226 = CARTESIAN_POINT ( 'NONE',  ( -6.349999999999999600, 1.998896044546239400E-015, 0.2128205006616490100 ) ) ;
#227 = CARTESIAN_POINT ( 'NONE',  ( 4.264787919425471900, -2.145314797472427100, 2.300887797337586100 ) ) ;
#228 = CARTESIAN_POINT ( 'NONE',  ( 4.264787919425472800, 2.145314797472421400, 2.300887797337586500 ) ) ;
#229 = CARTESIAN_POINT ( 'NONE',  ( 2.498001805406600200E-016, 1.221245327087670000E-015, 2.087179499338350100 ) ) ;
#230 = CIRCLE ( 'NONE', #94, 6.349999999999999600 ) ;
#231 = VERTEX_POINT ( 'NONE', #253 ) ;
#232 = CARTESIAN_POINT ( 'NONE',  ( -4.251724746152722100, -6.426083867363797000, 2.010387314301337500 ) ) ;
#233 =( LENGTH_UNIT ( ) NAMED_UNIT ( * ) SI_UNIT ( .MILLI., .METRE. ) );
#234 = CARTESIAN_POINT ( 'NONE',  ( 2.126466193438203400, -6.426083867363811200, 0.2179568698201939700 ) ) ;
#235 = EDGE_CURVE ( 'NONE', #231, #106, #115, .T. ) ;
#236 = CARTESIAN_POINT ( 'NONE',  ( 2.498001805406600200E-016, 1.221245327087670000E-015, 2.087179499338350100 ) ) ;
#237 = CARTESIAN_POINT ( 'NONE',  ( 4.264787919425491400, 2.145314797472422700, -0.0008877973375882950600 ) ) ;
#238 = PERSON_AND_ORGANIZATION ( #260, #259 ) ;
#239 = CARTESIAN_POINT ( 'NONE',  ( -7.105427357601000300E-015, -7.105427357601000300E-015, -92.54000000000000600 ) ) ;
#240 = PERSON_AND_ORGANIZATION_ROLE ( 'creator' ) ;
#241 = FACE_OUTER_BOUND ( 'NONE', #279, .T. ) ;
#242 = COORDINATED_UNIVERSAL_TIME_OFFSET ( 2, 0, .AHEAD. ) ;
#243 = ORIENTED_EDGE ( 'NONE', *, *, #214, .T. ) ;
#244 = EDGE_CURVE ( 'NONE', #106, #125, #222, .T. ) ;
#245 = EDGE_LOOP ( 'NONE', ( #107, #162, #165 ) ) ;
#246 = CARTESIAN_POINT ( 'NONE',  ( -2.132999635276971800, 2.145314797472420500, -0.07276377147999212000 ) ) ;
#247 = CARTESIAN_POINT ( 'NONE',  ( -6.373361748357976500, 6.426083867363797900, 0.4328429293934538100 ) ) ;
#248 =( GEOMETRIC_REPRESENTATION_CONTEXT ( 3 ) GLOBAL_UNCERTAINTY_ASSIGNED_CONTEXT ( ( #108 ) ) GLOBAL_UNIT_ASSIGNED_CONTEXT ( ( #233, #147, #72 ) ) REPRESENTATION_CONTEXT ( 'NONE', 'WORKASPACE' ) );
#249 = LOCAL_TIME ( 14, 10, 13.00000000000000000, #74 ) ;
#250 = CARTESIAN_POINT ( 'NONE',  ( -8.673617379884035500E-015, 6.426083867363793400, 2.082043130179811000 ) ) ;
#251 = AXIS2_PLACEMENT_3D ( 'NONE', #290, #19, #89 ) ;
#252 = CARTESIAN_POINT ( 'NONE',  ( -6.392943526064598800, -2.145314797472424500, 2.157217487174942300 ) ) ;
#253 = CARTESIAN_POINT ( 'NONE',  ( 6.349999999999999600, 1.221245327087670000E-015, 0.2128205006616490100 ) ) ;
#254 = DATE_AND_TIME ( #216, #206 ) ;
#255 = CARTESIAN_POINT ( 'NONE',  ( 4.251724746152723000, -6.426083867363811200, 0.2896126856986591700 ) ) ;
#256 = DIRECTION ( 'NONE',  ( 1.000000000000000000, 0.0000000000000000000, 0.0000000000000000000 ) ) ;
#257 = ORIENTED_EDGE ( 'NONE', *, *, #244, .F. ) ;
#258 = APPLICATION_PROTOCOL_DEFINITION ( 'international standard', 'config_control_design', 1994, #210 ) ;
#259 = ORGANIZATION ( 'UNSPECIFIED', 'UNSPECIFIED', '' ) ;
#260 = PERSON ( 'UNSPECIFIED', 'UNSPECIFIED', 'UNSPECIFIED', ('UNSPECIFIED'), ('UNSPECIFIED'), ('UNSPECIFIED') ) ;
#261 = ORIENTED_EDGE ( 'NONE', *, *, #277, .T. ) ;
#262 = PERSON_AND_ORGANIZATION ( #260, #259 ) ;
#263 = DIRECTION ( 'NONE',  ( -0.0000000000000000000, -0.0000000000000000000, -1.000000000000000000 ) ) ;
#264 = CIRCLE ( 'NONE', #187, 6.349999999999999600 ) ;
#265 = LOCAL_TIME ( 14, 10, 13.00000000000000000, #242 ) ;
#266 = CARTESIAN_POINT ( 'NONE',  ( 6.392943526064588200, -2.145314797472428000, 2.157217487174944500 ) ) ;
#267 = CARTESIAN_POINT ( 'NONE',  ( -4.264787919425489600, 2.145314797472423200, 2.300887797337583900 ) ) ;
#268 = DIRECTION ( 'NONE',  ( 1.000000000000000000, -1.776356839400250500E-015, 0.0000000000000000000 ) ) ;
#269 = CYLINDRICAL_SURFACE ( 'NONE', #53, 6.349999999999999600 ) ;
#270 = CARTESIAN_POINT ( 'NONE',  ( 6.349999999999999600, 1.221245327087670000E-015, 0.2128205006616490100 ) ) ;
#271 = CARTESIAN_POINT ( 'NONE',  ( 2.132999635277002000, -2.145314797472433400, -0.07276377147998376600 ) ) ;
#272 = CARTESIAN_POINT ( 'NONE',  ( 0.0000000000000000000, 0.0000000000000000000, 0.0000000000000000000 ) ) ;
#273 = PERSON_AND_ORGANIZATION ( #260, #259 ) ;
#274 = APPLICATION_PROTOCOL_DEFINITION ( 'international standard', 'config_control_design', 1994, #168 ) ;
#275 = CIRCLE ( 'NONE', #82, 94.84000000000000300 ) ;
#276 = ADVANCED_FACE ( 'NONE', ( #52 ), #269, .T. ) ;
#277 = EDGE_CURVE ( 'NONE', #125, #231, #164, .T. ) ;
#278 = LINE ( 'NONE', #226, #18 ) ;
#279 = EDGE_LOOP ( 'NONE', ( #218, #135, #243, #41, #98, #178 ) ) ;
#280 = DATE_AND_TIME ( #132, #85 ) ;
#281 = EDGE_CURVE ( 'NONE', #231, #159, #32, .T. ) ;
#282 = ORIENTED_EDGE ( 'NONE', *, *, #15, .T. ) ;
#283 = AXIS2_PLACEMENT_3D ( 'NONE', #186, #190, #96 ) ;
#284 = APPROVAL_PERSON_ORGANIZATION ( #170, #202, #28 ) ;
#285 = ORIENTED_EDGE ( 'NONE', *, *, #235, .T. ) ;
#286 = CC_DESIGN_DATE_AND_TIME_ASSIGNMENT ( #148, #105, ( #126 ) ) ;
#287 = CARTESIAN_POINT ( 'NONE',  ( -3.021598536190311100E-014, 6.350000000000010300, 2.087179499338346600 ) ) ;
#288 = CARTESIAN_POINT ( 'NONE',  ( 2.132999635276970900, 2.145314797472421400, 2.372763771479987800 ) ) ;
#289 = EDGE_CURVE ( 'NONE', #23, #144, #275, .T. ) ;
#290 = CARTESIAN_POINT ( 'NONE',  ( 2.498001805406600200E-016, 1.221245327087670000E-015, 0.2128205006616490100 ) ) ;
#291 = FACE_OUTER_BOUND ( 'NONE', #245, .T. ) ;
#292 = DIRECTION ( 'NONE',  ( 0.0000000000000000000, 0.0000000000000000000, 1.000000000000000000 ) ) ;
#293 = DIRECTION ( 'NONE',  ( -0.0000000000000000000, -0.0000000000000000000, -1.000000000000000000 ) ) ;
#294 = CARTESIAN_POINT ( 'NONE',  ( -9.540979117872440600E-015, 2.145314797472422300, 2.372763771479988700 ) ) ;
#295 = MECHANICAL_CONTEXT ( 'NONE', #168, 'mechanical' ) ;
ENDSEC;
END-ISO-10303-21;
