ISO-10303-21;
HEADER;
FILE_DESCRIPTION (( 'STEP AP203' ),
    '1' );
FILE_NAME ('111-1118E UVFS bi-cx 12.7 F75.STEP',
    '2019-01-04T12:06:34',
    ( '' ),
    ( '' ),
    'SwSTEP 2.0',
    'SolidWorks 2017',
    '' );
FILE_SCHEMA (( 'CONFIG_CONTROL_DESIGN' ));
ENDSEC;

DATA;
#1 = CARTESIAN_POINT ( 'NONE',  ( 2.498001805406600200E-016, 1.221245327087670000E-015, 0.2844911647855290500 ) ) ;
#2 = DIRECTION ( 'NONE',  ( 1.000000000000000000, 0.0000000000000000000, 0.0000000000000000000 ) ) ;
#3 = DIRECTION ( 'NONE',  ( -0.0000000000000000000, -0.0000000000000000000, -1.000000000000000000 ) ) ;
#4 = LOCAL_TIME ( 14, 6, 34.00000000000000000, #117 ) ;
#5 = FACE_OUTER_BOUND ( 'NONE', #235, .T. ) ;
#6 = VERTEX_POINT ( 'NONE', #213 ) ;
#7 =( NAMED_UNIT ( * ) PLANE_ANGLE_UNIT ( ) SI_UNIT ( $, .RADIAN. ) );
#8 = CARTESIAN_POINT ( 'NONE',  ( 2.092498677951590400E-014, -6.425992551768694700, 0.2913552185520723600 ) ) ;
#9 = DIRECTION ( 'NONE',  ( 1.000000000000000000, -8.881784197001252300E-016, 0.0000000000000000000 ) ) ;
#10 = EDGE_LOOP ( 'NONE', ( #249, #182, #245 ) ) ;
#11 = CARTESIAN_POINT ( 'NONE',  ( 0.0000000000000000000, 0.0000000000000000000, 0.0000000000000000000 ) ) ;
#12 = PERSON_AND_ORGANIZATION ( #225, #83 ) ;
#13 = CIRCLE ( 'NONE', #193, 71.01000000000000500 ) ;
#14 = CARTESIAN_POINT ( 'NONE',  ( 6.396757847702881300, 2.147872688985307000, 2.309076951779861300 ) ) ;
#15 = CALENDAR_DATE ( 2019, 4, 1 ) ;
#16 = ADVANCED_BREP_SHAPE_REPRESENTATION ( '111-1118E UVFS bi-cx 12.7 F75', ( #171, #184 ), #211 ) ;
#17 = APPROVAL_PERSON_ORGANIZATION ( #12, #114, #78 ) ;
#18 = EDGE_CURVE ( 'NONE', #59, #108, #66, .T. ) ;
#19 = CARTESIAN_POINT ( 'NONE',  ( 4.246215075021897400, 6.425992551768711500, 2.113002893693497700 ) ) ;
#20 = DIRECTION ( 'NONE',  ( 1.000000000000000000, 0.0000000000000000000, 0.0000000000000000000 ) ) ;
#21 = CIRCLE ( 'NONE', #44, 6.349999999999999600 ) ;
#22 = CARTESIAN_POINT ( 'NONE',  ( -6.396757847702881300, 2.147872688985307000, 0.1909230482201550700 ) ) ;
#23 = CLOSED_SHELL ( 'NONE', ( #185, #157, #129, #135, #104, #36 ) ) ;
#24 = DIRECTION ( 'NONE',  ( 0.0000000000000000000, 0.0000000000000000000, 1.000000000000000000 ) ) ;
#25 = DIRECTION ( 'NONE',  ( 1.000000000000000000, 0.0000000000000000000, 0.0000000000000000000 ) ) ;
#26 = DIRECTION ( 'NONE',  ( -0.0000000000000000000, -0.0000000000000000000, -1.000000000000000000 ) ) ;
#27 = CARTESIAN_POINT ( 'NONE',  ( -6.396757847702867000, 2.147872688985310100, 2.309076951779864400 ) ) ;
#28 = CARTESIAN_POINT ( 'NONE',  ( -4.246215075021893000, 6.425992551768714200, 2.113002893693498600 ) ) ;
#29 = CIRCLE ( 'NONE', #38, 6.349999999999999600 ) ;
#30 = ORIENTED_EDGE ( 'NONE', *, *, #218, .T. ) ;
#31 = DIRECTION ( 'NONE',  ( 1.000000000000000000, 0.0000000000000000000, 0.0000000000000000000 ) ) ;
#32 = AXIS2_PLACEMENT_3D ( 'NONE', #220, #26, #138 ) ;
#33 = DIRECTION ( 'NONE',  ( -1.000000000000000000, 2.046090408944660000E-016, -1.768238529987070000E-016 ) ) ;
#34 = CARTESIAN_POINT ( 'NONE',  ( -2.091065174481757200E-014, -6.349999999999973000, 2.215508835214471200 ) ) ;
#35 =( NAMED_UNIT ( * ) SI_UNIT ( $, .STERADIAN. ) SOLID_ANGLE_UNIT ( ) );
#36 = ADVANCED_FACE ( 'NONE', ( #202 ), #284, .T. ) ;
#37 = EDGE_CURVE ( 'NONE', #6, #155, #13, .T. ) ;
#38 = AXIS2_PLACEMENT_3D ( 'NONE', #152, #226, #251 ) ;
#39 = CARTESIAN_POINT ( 'NONE',  ( 2.135861289531081600, 2.147872688985307900, 2.597384787125073000 ) ) ;
#40 = LOCAL_TIME ( 14, 6, 34.00000000000000000, #287 ) ;
#41 = PERSON_AND_ORGANIZATION_ROLE ( 'creator' ) ;
#42 = ORIENTED_EDGE ( 'NONE', *, *, #218, .F. ) ;
#43 = CARTESIAN_POINT ( 'NONE',  ( -4.269556496191260200, 2.147872688985307500, -0.001217156433898710900 ) ) ;
#44 = AXIS2_PLACEMENT_3D ( 'NONE', #201, #255, #269 ) ;
#45 = CARTESIAN_POINT ( 'NONE',  ( 0.0000000000000000000, 2.147872688985308400, -0.09738478712505790900 ) ) ;
#46 = DIRECTION ( 'NONE',  ( 1.000000000000000000, 8.881784197001252300E-016, 0.0000000000000000000 ) ) ;
#47 = EDGE_CURVE ( 'NONE', #231, #80, #257, .T. ) ;
#48 = COORDINATED_UNIVERSAL_TIME_OFFSET ( 2, 0, .AHEAD. ) ;
#49 = ORIENTED_EDGE ( 'NONE', *, *, #97, .F. ) ;
#50 = DIRECTION ( 'NONE',  ( 1.000000000000000000, 0.0000000000000000000, 0.0000000000000000000 ) ) ;
#51 = CARTESIAN_POINT ( 'NONE',  ( 2.498001805406600200E-016, 1.221245327087670000E-015, 2.215508835214469800 ) ) ;
#52 = EDGE_CURVE ( 'NONE', #124, #108, #258, .T. ) ;
#53 = CARTESIAN_POINT ( 'NONE',  ( 4.246215075021895700, -6.425992551768691100, 0.3869971063065036900 ) ) ;
#54 = DATE_AND_TIME ( #194, #4 ) ;
#55 = CARTESIAN_POINT ( 'NONE',  ( 6.361787138409091800, -6.425992551768692900, 0.5780868914510822700 ) ) ;
#56 = APPROVAL_ROLE ( '' ) ;
#57 = APPLICATION_PROTOCOL_DEFINITION ( 'international standard', 'config_control_design', 1994, #289 ) ;
#58 = PERSON_AND_ORGANIZATION ( #225, #83 ) ;
#59 = VERTEX_POINT ( 'NONE', #244 ) ;
#60 = AXIS2_PLACEMENT_3D ( 'NONE', #240, #281, #2 ) ;
#61 = CARTESIAN_POINT ( 'NONE',  ( 2.124184658020813500, -6.425992551768694700, 2.208644781447931300 ) ) ;
#62 = PERSON_AND_ORGANIZATION_ROLE ( 'design_supplier' ) ;
#63 = CARTESIAN_POINT ( 'NONE',  ( -8.673617379884034500E-016, 2.147872688985308400, 2.597384787125073500 ) ) ;
#64 = CIRCLE ( 'NONE', #122, 6.349999999999999600 ) ;
#65 = CARTESIAN_POINT ( 'NONE',  ( 6.361787138409106000, 6.425992551768712400, 1.921913108548917200 ) ) ;
#66 = LINE ( 'NONE', #295, #260 ) ;
#67 = CARTESIAN_POINT ( 'NONE',  ( 7.105427357601000300E-015, 1.421085471520200100E-014, 71.01000000000000500 ) ) ;
#68 = DIRECTION ( 'NONE',  ( 2.046090408944659500E-016, -1.000000000000000000, 0.0000000000000000000 ) ) ;
#69 = CARTESIAN_POINT ( 'NONE',  ( 2.498001805406600200E-016, 1.221245327087670000E-015, 2.215508835214469800 ) ) ;
#70 = EDGE_CURVE ( 'NONE', #275, #80, #195, .T. ) ;
#71 =( BOUNDED_SURFACE ( )  B_SPLINE_SURFACE ( 3, 3, ( 
 ( #92, #280, #115, #169 ),
 ( #144, #73, #119, #246 ),
 ( #145, #167, #166, #27 ),
 ( #197, #120, #28, #74 ) ),
 .UNSPECIFIED., .F., .F., .F. ) 
 B_SPLINE_SURFACE_WITH_KNOTS ( ( 4, 4 ),
 ( 4, 4 ),
 ( 0.0000000000000000000, 1.000000000000000000 ),
 ( 0.0000000000000000000, 1.000000000000000000 ),
 .UNSPECIFIED. ) 
 GEOMETRIC_REPRESENTATION_ITEM ( )  RATIONAL_B_SPLINE_SURFACE ( (
 ( 1.000000000000000000, 0.9993239002671444600, 0.9993239002671444600, 1.000000000000000000),
 ( 0.9972646555081248200, 0.9965904051409495400, 0.9965904051409495400, 0.9972646555081248200),
 ( 0.9972646555081248200, 0.9965904051409495400, 0.9965904051409495400, 0.9972646555081248200),
 ( 1.000000000000000000, 0.9993239002671444600, 0.9993239002671444600, 1.000000000000000000) ) ) 
 REPRESENTATION_ITEM ( '' )  SURFACE ( )  );
#72 = VECTOR ( 'NONE', #239, 1000.000000000000000 ) ;
#73 = CARTESIAN_POINT ( 'NONE',  ( -2.135861289531090400, -2.147872688985289300, 2.597384787125072100 ) ) ;
#74 = CARTESIAN_POINT ( 'NONE',  ( -6.361787138409089200, 6.425992551768715100, 1.921913108548920100 ) ) ;
#75 = PRODUCT_DEFINITION_FORMATION_WITH_SPECIFIED_SOURCE ( 'ANY', '', #291, .NOT_KNOWN. ) ;
#76 = CARTESIAN_POINT ( 'NONE',  ( 2.135861289531089600, 2.147872688985309300, -0.09738478712506978800 ) ) ;
#77 = CARTESIAN_POINT ( 'NONE',  ( 1.923943494146539700E-014, 2.147872688985308800, -0.09738478712507013500 ) ) ;
#78 = APPROVAL_ROLE ( '' ) ;
#79 = APPROVAL_ROLE ( '' ) ;
#80 = VERTEX_POINT ( 'NONE', #217 ) ;
#81 = APPROVAL_STATUS ( 'not_yet_approved' ) ;
#82 = SECURITY_CLASSIFICATION_LEVEL ( 'unclassified' ) ;
#83 = ORGANIZATION ( 'UNSPECIFIED', 'UNSPECIFIED', '' ) ;
#84 = CARTESIAN_POINT ( 'NONE',  ( 0.0000000000000000000, 6.425992551768713300, 2.208644781447931700 ) ) ;
#85 = CALENDAR_DATE ( 2019, 4, 1 ) ;
#86 = CARTESIAN_POINT ( 'NONE',  ( -2.124184658020817500, 6.425992551768712400, 0.2913552185520847400 ) ) ;
#87 = ORIENTED_EDGE ( 'NONE', *, *, #37, .T. ) ;
#88 = CARTESIAN_POINT ( 'NONE',  ( -4.246215075021898300, 6.425992551768711500, 0.3869971063065184000 ) ) ;
#89 = DIRECTION ( 'NONE',  ( 1.000000000000000000, 2.046090408944660000E-016, 1.768238529987070000E-016 ) ) ;
#90 = AXIS2_PLACEMENT_3D ( 'NONE', #1, #3, #20 ) ;
#91 = CYLINDRICAL_SURFACE ( 'NONE', #207, 6.349999999999999600 ) ;
#92 = CARTESIAN_POINT ( 'NONE',  ( -2.092498677951590400E-014, -6.425992551768694700, 2.208644781447930000 ) ) ;
#93 = ORIENTED_EDGE ( 'NONE', *, *, #52, .T. ) ;
#94 = CARTESIAN_POINT ( 'NONE',  ( 2.498001805406600200E-016, 1.221245327087670000E-015, 0.2844911647855290500 ) ) ;
#95 = LOCAL_TIME ( 14, 6, 34.00000000000000000, #48 ) ;
#96 = CIRCLE ( 'NONE', #146, 71.01000000000000500 ) ;
#97 = EDGE_CURVE ( 'NONE', #59, #6, #132, .T. ) ;
#98 = ORIENTED_EDGE ( 'NONE', *, *, #232, .T. ) ;
#99 = DATE_TIME_ROLE ( 'classification_date' ) ;
#100 = PERSON_AND_ORGANIZATION_ROLE ( 'classification_officer' ) ;
#101 = CC_DESIGN_PERSON_AND_ORGANIZATION_ASSIGNMENT ( #58, #62, ( #75 ) ) ;
#102 = AXIS2_PLACEMENT_3D ( 'NONE', #51, #173, #31 ) ;
#103 = ORIENTED_EDGE ( 'NONE', *, *, #181, .F. ) ;
#104 = ADVANCED_FACE ( 'NONE', ( #5 ), #91, .T. ) ;
#105 = CALENDAR_DATE ( 2019, 4, 1 ) ;
#106 = FACE_OUTER_BOUND ( 'NONE', #126, .T. ) ;
#107 = EDGE_CURVE ( 'NONE', #231, #155, #209, .T. ) ;
#108 = VERTEX_POINT ( 'NONE', #243 ) ;
#109 = CARTESIAN_POINT ( 'NONE',  ( 4.246215075021893900, -6.425992551768694700, 2.113002893693497700 ) ) ;
#110 = CARTESIAN_POINT ( 'NONE',  ( -8.673617379884035500E-016, 6.425992551768714200, 0.2913552185520845200 ) ) ;
#111 = APPROVAL_PERSON_ORGANIZATION ( #229, #140, #79 ) ;
#112 = CARTESIAN_POINT ( 'NONE',  ( 1.831211692545786400E-014, 6.349999999999987200, 0.2844911647855296000 ) ) ;
#113 = ORIENTED_EDGE ( 'NONE', *, *, #70, .F. ) ;
#114 = APPROVAL ( #206, 'UNSPECIFIED' ) ;
#115 = CARTESIAN_POINT ( 'NONE',  ( -4.246215075021895700, -6.425992551768692000, 2.113002893693498600 ) ) ;
#116 = AXIS2_PLACEMENT_3D ( 'NONE', #259, #143, #25 ) ;
#117 = COORDINATED_UNIVERSAL_TIME_OFFSET ( 2, 0, .AHEAD. ) ;
#118 = DATE_AND_TIME ( #85, #154 ) ;
#119 = CARTESIAN_POINT ( 'NONE',  ( -4.269556496191256700, -2.147872688985288800, 2.501217156433917000 ) ) ;
#120 = CARTESIAN_POINT ( 'NONE',  ( -2.124184658020823700, 6.425992551768714200, 2.208644781447929500 ) ) ;
#121 =( BOUNDED_SURFACE ( )  B_SPLINE_SURFACE ( 3, 3, ( 
 ( #8, #200, #53, #55 ),
 ( #153, #150, #228, #125 ),
 ( #77, #76, #250, #227 ),
 ( #268, #286, #123, #175 ) ),
 .UNSPECIFIED., .F., .F., .F. ) 
 B_SPLINE_SURFACE_WITH_KNOTS ( ( 4, 4 ),
 ( 4, 4 ),
 ( 0.0000000000000000000, 1.000000000000000000 ),
 ( 0.0000000000000000000, 1.000000000000000000 ),
 .UNSPECIFIED. ) 
 GEOMETRIC_REPRESENTATION_ITEM ( )  RATIONAL_B_SPLINE_SURFACE ( (
 ( 1.000000000000000000, 0.9993239002671444600, 0.9993239002671444600, 1.000000000000000000),
 ( 0.9972646555081248200, 0.9965904051409495400, 0.9965904051409495400, 0.9972646555081248200),
 ( 0.9972646555081248200, 0.9965904051409495400, 0.9965904051409495400, 0.9972646555081248200),
 ( 1.000000000000000000, 0.9993239002671444600, 0.9993239002671444600, 1.000000000000000000) ) ) 
 REPRESENTATION_ITEM ( '' )  SURFACE ( )  );
#122 = AXIS2_PLACEMENT_3D ( 'NONE', #94, #253, #9 ) ;
#123 = CARTESIAN_POINT ( 'NONE',  ( 4.246215075021893000, 6.425992551768715100, 0.3869971063065036900 ) ) ;
#124 = VERTEX_POINT ( 'NONE', #190 ) ;
#125 = CARTESIAN_POINT ( 'NONE',  ( 6.396757847702867900, -2.147872688985287000, 0.1909230482201378600 ) ) ;
#126 = EDGE_LOOP ( 'NONE', ( #113, #187, #42 ) ) ;
#127 = DATE_TIME_ROLE ( 'creation_date' ) ;
#128 = MECHANICAL_CONTEXT ( 'NONE', #289, 'mechanical' ) ;
#129 = ADVANCED_FACE ( 'NONE', ( #282 ), #137, .T. ) ;
#130 = AXIS2_PLACEMENT_3D ( 'NONE', #69, #279, #46 ) ;
#131 = DATE_AND_TIME ( #105, #40 ) ;
#132 = CIRCLE ( 'NONE', #60, 6.349999999999999600 ) ;
#133 = CARTESIAN_POINT ( 'NONE',  ( -3.469446951953614200E-015, -6.425992551768695500, 2.208644781447931300 ) ) ;
#134 = CARTESIAN_POINT ( 'NONE',  ( -2.602085213965211000E-015, -2.147872688985288800, 2.597384787125074400 ) ) ;
#135 = ADVANCED_FACE ( 'NONE', ( #176 ), #196, .T. ) ;
#136 = PERSON_AND_ORGANIZATION ( #225, #83 ) ;
#137 = CYLINDRICAL_SURFACE ( 'NONE', #116, 6.349999999999999600 ) ;
#138 = DIRECTION ( 'NONE',  ( 1.000000000000000000, 8.881784197001252300E-016, 0.0000000000000000000 ) ) ;
#139 = CARTESIAN_POINT ( 'NONE',  ( -4.246215075021894800, -6.425992551768694700, 0.3869971063065184600 ) ) ;
#140 = APPROVAL ( #180, 'UNSPECIFIED' ) ;
#141 = ORIENTED_EDGE ( 'NONE', *, *, #47, .F. ) ;
#142 = CARTESIAN_POINT ( 'NONE',  ( -4.269556496191258400, -2.147872688985291000, -0.001217156433899172300 ) ) ;
#143 = DIRECTION ( 'NONE',  ( 0.0000000000000000000, 0.0000000000000000000, 1.000000000000000000 ) ) ;
#144 = CARTESIAN_POINT ( 'NONE',  ( -2.011838328317880100E-014, -2.147872688985288400, 2.597384787125073000 ) ) ;
#145 = CARTESIAN_POINT ( 'NONE',  ( -1.923943494146539700E-014, 2.147872688985308800, 2.597384787125072600 ) ) ;
#146 = AXIS2_PLACEMENT_3D ( 'NONE', #203, #33, #224 ) ;
#147 = ORIENTED_EDGE ( 'NONE', *, *, #18, .T. ) ;
#148 = DIRECTION ( 'NONE',  ( 0.0000000000000000000, 0.0000000000000000000, 1.000000000000000000 ) ) ;
#149 = CC_DESIGN_PERSON_AND_ORGANIZATION_ASSIGNMENT ( #136, #233, ( #75 ) ) ;
#150 = CARTESIAN_POINT ( 'NONE',  ( 2.135861289531090400, -2.147872688985289300, -0.09738478712507027400 ) ) ;
#151 = SHAPE_DEFINITION_REPRESENTATION ( #272, #16 ) ;
#152 = CARTESIAN_POINT ( 'NONE',  ( 2.498001805406600200E-016, 1.221245327087670000E-015, 2.215508835214469800 ) ) ;
#153 = CARTESIAN_POINT ( 'NONE',  ( 2.011838328317880100E-014, -2.147872688985288400, -0.09738478712507062100 ) ) ;
#154 = LOCAL_TIME ( 14, 6, 34.00000000000000000, #271 ) ;
#155 = VERTEX_POINT ( 'NONE', #112 ) ;
#156 = SECURITY_CLASSIFICATION ( '', '', #82 ) ;
#157 = ADVANCED_FACE ( 'NONE', ( #106 ), #71, .T. ) ;
#158 = APPLICATION_PROTOCOL_DEFINITION ( 'international standard', 'config_control_design', 1994, #276 ) ;
#159 = CALENDAR_DATE ( 2019, 4, 1 ) ;
#160 = CARTESIAN_POINT ( 'NONE',  ( -2.135861289531080200, -2.147872688985290600, -0.09738478712505817300 ) ) ;
#161 = DIRECTION ( 'NONE',  ( 1.000000000000000000, 0.0000000000000000000, 0.0000000000000000000 ) ) ;
#162 = CARTESIAN_POINT ( 'NONE',  ( 2.498001805406600200E-016, 1.221245327087670000E-015, 0.2844911647855290500 ) ) ;
#163 = CARTESIAN_POINT ( 'NONE',  ( -6.361787138409102500, -6.425992551768696400, 0.5780868914510989300 ) ) ;
#164 = PERSON_AND_ORGANIZATION ( #225, #83 ) ;
#165 = CC_DESIGN_DATE_AND_TIME_ASSIGNMENT ( #292, #99, ( #156 ) ) ;
#166 = CARTESIAN_POINT ( 'NONE',  ( -4.269556496191256700, 2.147872688985309700, 2.501217156433916500 ) ) ;
#167 = CARTESIAN_POINT ( 'NONE',  ( -2.135861289531089600, 2.147872688985309300, 2.597384787125071700 ) ) ;
#168 = EDGE_LOOP ( 'NONE', ( #103, #177, #191 ) ) ;
#169 = CARTESIAN_POINT ( 'NONE',  ( -6.361787138409091800, -6.425992551768693800, 1.921913108548920100 ) ) ;
#170 = CC_DESIGN_PERSON_AND_ORGANIZATION_ASSIGNMENT ( #164, #100, ( #156 ) ) ;
#171 = MANIFOLD_SOLID_BREP ( 'Imported1', #23 ) ;
#172 = ORIENTED_EDGE ( 'NONE', *, *, #232, .F. ) ;
#173 = DIRECTION ( 'NONE',  ( -0.0000000000000000000, -0.0000000000000000000, -1.000000000000000000 ) ) ;
#174 = EDGE_CURVE ( 'NONE', #108, #275, #230, .T. ) ;
#175 = CARTESIAN_POINT ( 'NONE',  ( 6.361787138409089200, 6.425992551768716000, 0.5780868914510822700 ) ) ;
#176 = FACE_OUTER_BOUND ( 'NONE', #10, .T. ) ;
#177 = ORIENTED_EDGE ( 'NONE', *, *, #174, .F. ) ;
#178 = PERSON_AND_ORGANIZATION_ROLE ( 'design_owner' ) ;
#179 = DESIGN_CONTEXT ( 'detailed design', #276, 'design' ) ;
#180 = APPROVAL_STATUS ( 'not_yet_approved' ) ;
#181 = EDGE_CURVE ( 'NONE', #275, #124, #96, .T. ) ;
#182 = ORIENTED_EDGE ( 'NONE', *, *, #198, .T. ) ;
#183 = CARTESIAN_POINT ( 'NONE',  ( 6.361787138409102500, -6.425992551768696400, 1.921913108548917200 ) ) ;
#184 = AXIS2_PLACEMENT_3D ( 'NONE', #11, #148, #50 ) ;
#185 = ADVANCED_FACE ( 'NONE', ( #237 ), #121, .T. ) ;
#186 = CARTESIAN_POINT ( 'NONE',  ( 6.396757847702879500, -2.147872688985290600, 2.309076951779862200 ) ) ;
#187 = ORIENTED_EDGE ( 'NONE', *, *, #181, .T. ) ;
#188 = CARTESIAN_POINT ( 'NONE',  ( 1.734723475976806900E-015, -2.147872688985288800, -0.09738478712505833900 ) ) ;
#189 = CARTESIAN_POINT ( 'NONE',  ( -6.361787138409106000, 6.425992551768712400, 0.5780868914510989300 ) ) ;
#190 = CARTESIAN_POINT ( 'NONE',  ( -1.831211692545786400E-014, 6.349999999999987200, 2.215508835214471200 ) ) ;
#191 = ORIENTED_EDGE ( 'NONE', *, *, #52, .F. ) ;
#192 = CARTESIAN_POINT ( 'NONE',  ( -2.124184658020813900, -6.425992551768693800, 0.2913552185520847900 ) ) ;
#193 = AXIS2_PLACEMENT_3D ( 'NONE', #67, #89, #68 ) ;
#194 = CALENDAR_DATE ( 2019, 4, 1 ) ;
#195 = CIRCLE ( 'NONE', #32, 6.349999999999999600 ) ;
#196 =( BOUNDED_SURFACE ( )  B_SPLINE_SURFACE ( 3, 3, ( 
 ( #163, #139, #192, #263 ),
 ( #214, #142, #160, #188 ),
 ( #22, #43, #219, #45 ),
 ( #189, #88, #86, #110 ) ),
 .UNSPECIFIED., .F., .F., .F. ) 
 B_SPLINE_SURFACE_WITH_KNOTS ( ( 4, 4 ),
 ( 4, 4 ),
 ( 0.0000000000000000000, 1.000000000000000000 ),
 ( 0.0000000000000000000, 1.000000000000000000 ),
 .UNSPECIFIED. ) 
 GEOMETRIC_REPRESENTATION_ITEM ( )  RATIONAL_B_SPLINE_SURFACE ( (
 ( 1.000000000000000000, 0.9993239002671444600, 0.9993239002671444600, 1.000000000000000000),
 ( 0.9972646555081248200, 0.9965904051409495400, 0.9965904051409495400, 0.9972646555081248200),
 ( 0.9972646555081248200, 0.9965904051409495400, 0.9965904051409495400, 0.9972646555081248200),
 ( 1.000000000000000000, 0.9993239002671444600, 0.9993239002671444600, 1.000000000000000000) ) ) 
 REPRESENTATION_ITEM ( '' )  SURFACE ( )  );
#197 = CARTESIAN_POINT ( 'NONE',  ( -1.829535443389114800E-014, 6.425992551768714200, 2.208644781447930000 ) ) ;
#198 = EDGE_CURVE ( 'NONE', #6, #231, #21, .T. ) ;
#199 = LOCAL_TIME ( 14, 6, 34.00000000000000000, #215 ) ;
#200 = CARTESIAN_POINT ( 'NONE',  ( 2.124184658020825900, -6.425992551768692000, 0.2913552185520727500 ) ) ;
#201 = CARTESIAN_POINT ( 'NONE',  ( 2.498001805406600200E-016, 1.221245327087670000E-015, 0.2844911647855290500 ) ) ;
#202 = FACE_OUTER_BOUND ( 'NONE', #168, .T. ) ;
#203 = CARTESIAN_POINT ( 'NONE',  ( -7.105427357601000300E-015, 1.421085471520200100E-014, -68.51000000000000500 ) ) ;
#204 = ORIENTED_EDGE ( 'NONE', *, *, #174, .T. ) ;
#205 = CC_DESIGN_PERSON_AND_ORGANIZATION_ASSIGNMENT ( #274, #41, ( #247 ) ) ;
#206 = APPROVAL_STATUS ( 'not_yet_approved' ) ;
#207 = AXIS2_PLACEMENT_3D ( 'NONE', #162, #24, #161 ) ;
#208 = PERSON_AND_ORGANIZATION ( #225, #83 ) ;
#209 = CIRCLE ( 'NONE', #90, 6.349999999999999600 ) ;
#210 = CARTESIAN_POINT ( 'NONE',  ( 2.135861289531079800, -2.147872688985290600, 2.597384787125073900 ) ) ;
#211 =( GEOMETRIC_REPRESENTATION_CONTEXT ( 3 ) GLOBAL_UNCERTAINTY_ASSIGNED_CONTEXT ( ( #262 ) ) GLOBAL_UNIT_ASSIGNED_CONTEXT ( ( #285, #7, #35 ) ) REPRESENTATION_CONTEXT ( 'NONE', 'WORKASPACE' ) );
#212 = CARTESIAN_POINT ( 'NONE',  ( 4.269556496191260200, 2.147872688985307500, 2.501217156433914700 ) ) ;
#213 = CARTESIAN_POINT ( 'NONE',  ( 2.091065174481757200E-014, -6.349999999999973000, 0.2844911647855296000 ) ) ;
#214 = CARTESIAN_POINT ( 'NONE',  ( -6.396757847702879500, -2.147872688985290600, 0.1909230482201545700 ) ) ;
#215 = COORDINATED_UNIVERSAL_TIME_OFFSET ( 2, 0, .AHEAD. ) ;
#216 = ORIENTED_EDGE ( 'NONE', *, *, #107, .F. ) ;
#217 = CARTESIAN_POINT ( 'NONE',  ( -6.349999999999999600, 1.998896044546239400E-015, 2.215508835214469800 ) ) ;
#218 = EDGE_CURVE ( 'NONE', #80, #124, #29, .T. ) ;
#219 = CARTESIAN_POINT ( 'NONE',  ( -2.135861289531082000, 2.147872688985307900, -0.09738478712505771500 ) ) ;
#220 = CARTESIAN_POINT ( 'NONE',  ( 2.498001805406600200E-016, 1.221245327087670000E-015, 2.215508835214469800 ) ) ;
#221 = CC_DESIGN_APPROVAL ( #114, ( #247 ) ) ;
#222 = PERSON_AND_ORGANIZATION ( #225, #83 ) ;
#223 = CC_DESIGN_APPROVAL ( #140, ( #75 ) ) ;
#224 = DIRECTION ( 'NONE',  ( -2.046090408944659500E-016, -1.000000000000000000, 0.0000000000000000000 ) ) ;
#225 = PERSON ( 'UNSPECIFIED', 'UNSPECIFIED', 'UNSPECIFIED', ('UNSPECIFIED'), ('UNSPECIFIED'), ('UNSPECIFIED') ) ;
#226 = DIRECTION ( 'NONE',  ( -0.0000000000000000000, -0.0000000000000000000, -1.000000000000000000 ) ) ;
#227 = CARTESIAN_POINT ( 'NONE',  ( 6.396757847702867000, 2.147872688985310100, 0.1909230482201383100 ) ) ;
#228 = CARTESIAN_POINT ( 'NONE',  ( 4.269556496191256700, -2.147872688985288800, -0.001217156433914052500 ) ) ;
#229 = PERSON_AND_ORGANIZATION ( #225, #83 ) ;
#230 = CIRCLE ( 'NONE', #102, 6.349999999999999600 ) ;
#231 = VERTEX_POINT ( 'NONE', #266 ) ;
#232 = EDGE_CURVE ( 'NONE', #155, #59, #64, .T. ) ;
#233 = PERSON_AND_ORGANIZATION_ROLE ( 'creator' ) ;
#234 = APPROVAL_DATE_TIME ( #54, #140 ) ;
#235 = EDGE_LOOP ( 'NONE', ( #141, #290, #49, #147, #204, #242 ) ) ;
#236 = APPROVAL ( #81, 'UNSPECIFIED' ) ;
#237 = FACE_OUTER_BOUND ( 'NONE', #254, .T. ) ;
#238 = DIRECTION ( 'NONE',  ( 0.0000000000000000000, 0.0000000000000000000, 1.000000000000000000 ) ) ;
#239 = DIRECTION ( 'NONE',  ( 0.0000000000000000000, 0.0000000000000000000, 1.000000000000000000 ) ) ;
#240 = CARTESIAN_POINT ( 'NONE',  ( 2.498001805406600200E-016, 1.221245327087670000E-015, 0.2844911647855290500 ) ) ;
#241 = APPROVAL_DATE_TIME ( #131, #236 ) ;
#242 = ORIENTED_EDGE ( 'NONE', *, *, #70, .T. ) ;
#243 = CARTESIAN_POINT ( 'NONE',  ( 6.349999999999999600, 1.221245327087670000E-015, 2.215508835214469800 ) ) ;
#244 = CARTESIAN_POINT ( 'NONE',  ( 6.349999999999999600, 1.221245327087670000E-015, 0.2844911647855290500 ) ) ;
#245 = ORIENTED_EDGE ( 'NONE', *, *, #107, .T. ) ;
#246 = CARTESIAN_POINT ( 'NONE',  ( -6.396757847702867900, -2.147872688985287000, 2.309076951779864800 ) ) ;
#247 = PRODUCT_DEFINITION ( 'UNKNOWN', '', #75, #179 ) ;
#248 = APPROVAL_PERSON_ORGANIZATION ( #208, #236, #56 ) ;
#249 = ORIENTED_EDGE ( 'NONE', *, *, #37, .F. ) ;
#250 = CARTESIAN_POINT ( 'NONE',  ( 4.269556496191256700, 2.147872688985309700, -0.001217156433913592000 ) ) ;
#251 = DIRECTION ( 'NONE',  ( 1.000000000000000000, 0.0000000000000000000, 0.0000000000000000000 ) ) ;
#252 = CC_DESIGN_APPROVAL ( #236, ( #156 ) ) ;
#253 = DIRECTION ( 'NONE',  ( -0.0000000000000000000, -0.0000000000000000000, -1.000000000000000000 ) ) ;
#254 = EDGE_LOOP ( 'NONE', ( #293, #87, #98 ) ) ;
#255 = DIRECTION ( 'NONE',  ( -0.0000000000000000000, -0.0000000000000000000, -1.000000000000000000 ) ) ;
#256 = CC_DESIGN_SECURITY_CLASSIFICATION ( #156, ( #75 ) ) ;
#257 = LINE ( 'NONE', #261, #72 ) ;
#258 = CIRCLE ( 'NONE', #130, 6.349999999999999600 ) ;
#259 = CARTESIAN_POINT ( 'NONE',  ( 2.498001805406600200E-016, 1.221245327087670000E-015, 0.2844911647855290500 ) ) ;
#260 = VECTOR ( 'NONE', #238, 1000.000000000000000 ) ;
#261 = CARTESIAN_POINT ( 'NONE',  ( -6.349999999999999600, 1.998896044546239400E-015, 0.2844911647855290500 ) ) ;
#262 = UNCERTAINTY_MEASURE_WITH_UNIT (LENGTH_MEASURE( 1.000000000000000100E-005 ), #285, 'distance_accuracy_value', 'NONE');
#263 = CARTESIAN_POINT ( 'NONE',  ( 2.602085213965210600E-015, -6.425992551768694700, 0.2913552185520846300 ) ) ;
#264 = APPROVAL_DATE_TIME ( #118, #114 ) ;
#265 = ORIENTED_EDGE ( 'NONE', *, *, #18, .F. ) ;
#266 = CARTESIAN_POINT ( 'NONE',  ( -6.349999999999999600, 1.998896044546239400E-015, 0.2844911647855290500 ) ) ;
#267 = PRODUCT_RELATED_PRODUCT_CATEGORY ( 'detail', '', ( #291 ) ) ;
#268 = CARTESIAN_POINT ( 'NONE',  ( 1.829535443389114800E-014, 6.425992551768714200, 0.2913552185520723600 ) ) ;
#269 = DIRECTION ( 'NONE',  ( 1.000000000000000000, 0.0000000000000000000, 0.0000000000000000000 ) ) ;
#270 = DATE_AND_TIME ( #159, #199 ) ;
#271 = COORDINATED_UNIVERSAL_TIME_OFFSET ( 2, 0, .AHEAD. ) ;
#272 = PRODUCT_DEFINITION_SHAPE ( 'NONE', 'NONE',  #247 ) ;
#273 = CC_DESIGN_DATE_AND_TIME_ASSIGNMENT ( #270, #127, ( #247 ) ) ;
#274 = PERSON_AND_ORGANIZATION ( #225, #83 ) ;
#275 = VERTEX_POINT ( 'NONE', #34 ) ;
#276 = APPLICATION_CONTEXT ( 'configuration controlled 3d designs of mechanical parts and assemblies' ) ;
#277 = CARTESIAN_POINT ( 'NONE',  ( 2.124184658020817000, 6.425992551768711500, 2.208644781447931700 ) ) ;
#278 = ORIENTED_EDGE ( 'NONE', *, *, #47, .T. ) ;
#279 = DIRECTION ( 'NONE',  ( -0.0000000000000000000, -0.0000000000000000000, -1.000000000000000000 ) ) ;
#280 = CARTESIAN_POINT ( 'NONE',  ( -2.124184658020825900, -6.425992551768692000, 2.208644781447929500 ) ) ;
#281 = DIRECTION ( 'NONE',  ( -0.0000000000000000000, -0.0000000000000000000, -1.000000000000000000 ) ) ;
#282 = FACE_OUTER_BOUND ( 'NONE', #283, .T. ) ;
#283 = EDGE_LOOP ( 'NONE', ( #216, #278, #30, #93, #265, #172 ) ) ;
#284 =( BOUNDED_SURFACE ( )  B_SPLINE_SURFACE ( 3, 3, ( 
 ( #183, #109, #61, #133 ),
 ( #186, #294, #210, #134 ),
 ( #14, #212, #39, #63 ),
 ( #65, #19, #277, #84 ) ),
 .UNSPECIFIED., .F., .F., .T. ) 
 B_SPLINE_SURFACE_WITH_KNOTS ( ( 4, 4 ),
 ( 4, 4 ),
 ( 0.0000000000000000000, 1.000000000000000000 ),
 ( 0.0000000000000000000, 1.000000000000000000 ),
 .UNSPECIFIED. ) 
 GEOMETRIC_REPRESENTATION_ITEM ( )  RATIONAL_B_SPLINE_SURFACE ( (
 ( 1.000000000000000000, 0.9993239002671444600, 0.9993239002671444600, 1.000000000000000000),
 ( 0.9972646555081248200, 0.9965904051409495400, 0.9965904051409495400, 0.9972646555081248200),
 ( 0.9972646555081248200, 0.9965904051409495400, 0.9965904051409495400, 0.9972646555081248200),
 ( 1.000000000000000000, 0.9993239002671444600, 0.9993239002671444600, 1.000000000000000000) ) ) 
 REPRESENTATION_ITEM ( '' )  SURFACE ( )  );
#285 =( LENGTH_UNIT ( ) NAMED_UNIT ( * ) SI_UNIT ( .MILLI., .METRE. ) );
#286 = CARTESIAN_POINT ( 'NONE',  ( 2.124184658020823700, 6.425992551768714200, 0.2913552185520727500 ) ) ;
#287 = COORDINATED_UNIVERSAL_TIME_OFFSET ( 2, 0, .AHEAD. ) ;
#288 = CC_DESIGN_PERSON_AND_ORGANIZATION_ASSIGNMENT ( #222, #178, ( #291 ) ) ;
#289 = APPLICATION_CONTEXT ( 'configuration controlled 3d designs of mechanical parts and assemblies' ) ;
#290 = ORIENTED_EDGE ( 'NONE', *, *, #198, .F. ) ;
#291 = PRODUCT ( '111-1118E UVFS bi-cx 12.7 F75', '111-1118E UVFS bi-cx 12.7 F75', '', ( #128 ) ) ;
#292 = DATE_AND_TIME ( #15, #95 ) ;
#293 = ORIENTED_EDGE ( 'NONE', *, *, #97, .T. ) ;
#294 = CARTESIAN_POINT ( 'NONE',  ( 4.269556496191258400, -2.147872688985291000, 2.501217156433916100 ) ) ;
#295 = CARTESIAN_POINT ( 'NONE',  ( 6.349999999999999600, 1.221245327087670000E-015, 0.2844911647855290500 ) ) ;
ENDSEC;
END-ISO-10303-21;
