ISO-10303-21;
HEADER;
FILE_DESCRIPTION (( 'STEP AP203' ),
    '1' );
FILE_NAME ('111-1114E UVFS bi-cx 12.7 F50.STEP',
    '2019-01-04T11:30:16',
    ( '' ),
    ( '' ),
    'SwSTEP 2.0',
    'SolidWorks 2017',
    '' );
FILE_SCHEMA (( 'CONFIG_CONTROL_DESIGN' ));
ENDSEC;

DATA;
#1 = CARTESIAN_POINT ( 'NONE',  ( -2.117543905715035400, -6.425726940380697800, 2.559807554098430400 ) ) ;
#2 = CARTESIAN_POINT ( 'NONE',  ( 4.230195042459644000, -6.425726940380697800, 0.5840582411503538700 ) ) ;
#3 = AXIS2_PLACEMENT_3D ( 'NONE', #226, #228, #84 ) ;
#4 = CARTESIAN_POINT ( 'NONE',  ( 4.230195042459656400, -6.425726940380697800, 2.415941758849634800 ) ) ;
#5 = CC_DESIGN_APPROVAL ( #287, ( #184 ) ) ;
#6 = CARTESIAN_POINT ( 'NONE',  ( 5.204170427930421300E-015, -6.425726940380698700, 2.559807554098427800 ) ) ;
#7 = ORIENTED_EDGE ( 'NONE', *, *, #204, .F. ) ;
#8 = PERSON_AND_ORGANIZATION_ROLE ( 'design_supplier' ) ;
#9 = ORIENTED_EDGE ( 'NONE', *, *, #260, .F. ) ;
#10 = PERSON_AND_ORGANIZATION_ROLE ( 'classification_officer' ) ;
#11 = CC_DESIGN_APPROVAL ( #216, ( #75 ) ) ;
#12 = VERTEX_POINT ( 'NONE', #250 ) ;
#13 = ORIENTED_EDGE ( 'NONE', *, *, #34, .T. ) ;
#14 = EDGE_CURVE ( 'NONE', #266, #85, #267, .T. ) ;
#15 = DIRECTION ( 'NONE',  ( 1.000000000000000000, 0.0000000000000000000, 0.0000000000000000000 ) ) ;
#16 = ORIENTED_EDGE ( 'NONE', *, *, #34, .F. ) ;
#17 = EDGE_CURVE ( 'NONE', #85, #82, #156, .T. ) ;
#18 = ADVANCED_BREP_SHAPE_REPRESENTATION ( '111-1114E UVFS bi-cx 12.7 F50', ( #254, #176 ), #107 ) ;
#19 = AXIS2_PLACEMENT_3D ( 'NONE', #269, #62, #246 ) ;
#20 = ORIENTED_EDGE ( 'NONE', *, *, #17, .F. ) ;
#21 = DIRECTION ( 'NONE',  ( 1.000000000000000000, 0.0000000000000000000, 0.0000000000000000000 ) ) ;
#22 = CARTESIAN_POINT ( 'NONE',  ( -6.349999999999999600, 1.998896044546239400E-015, 2.570169200807140200 ) ) ;
#23 = CARTESIAN_POINT ( 'NONE',  ( 7.105427357601000300E-015, 6.350000000000004100, 0.4298307991928563800 ) ) ;
#24 = EDGE_CURVE ( 'NONE', #59, #82, #274, .T. ) ;
#25 = APPROVAL_PERSON_ORGANIZATION ( #161, #105, #100 ) ;
#26 = CIRCLE ( 'NONE', #19, 6.349999999999999600 ) ;
#27 = CARTESIAN_POINT ( 'NONE',  ( -4.230195042459644800, -6.425726940380697800, 2.415941758849642400 ) ) ;
#28 = CARTESIAN_POINT ( 'NONE',  ( 7.105427357601000300E-015, 6.425726940380716500, 0.4401924459015577100 ) ) ;
#29 = CARTESIAN_POINT ( 'NONE',  ( 5.204170427930421300E-015, 6.425726940380716500, 2.559807554098434400 ) ) ;
#30 = FACE_OUTER_BOUND ( 'NONE', #252, .T. ) ;
#31 = CARTESIAN_POINT ( 'NONE',  ( 7.105427357601000300E-015, 1.421085471520200100E-014, 47.11999999999999700 ) ) ;
#32 = APPROVAL_PERSON_ORGANIZATION ( #91, #287, #101 ) ;
#33 = ORIENTED_EDGE ( 'NONE', *, *, #204, .T. ) ;
#34 = EDGE_CURVE ( 'NONE', #12, #141, #224, .T. ) ;
#35 = PERSON_AND_ORGANIZATION_ROLE ( 'creator' ) ;
#36 = AXIS2_PLACEMENT_3D ( 'NONE', #31, #264, #214 ) ;
#37 = FACE_OUTER_BOUND ( 'NONE', #129, .T. ) ;
#38 = AXIS2_PLACEMENT_3D ( 'NONE', #171, #169, #21 ) ;
#39 = PRODUCT ( '111-1114E UVFS bi-cx 12.7 F50', '111-1114E UVFS bi-cx 12.7 F50', '', ( #211 ) ) ;
#40 = PERSON_AND_ORGANIZATION ( #83, #286 ) ;
#41 = EDGE_LOOP ( 'NONE', ( #64, #282, #247 ) ) ;
#42 = DIRECTION ( 'NONE',  ( -0.0000000000000000000, -0.0000000000000000000, -1.000000000000000000 ) ) ;
#43 = COORDINATED_UNIVERSAL_TIME_OFFSET ( 2, 0, .AHEAD. ) ;
#44 = DIRECTION ( 'NONE',  ( 0.0000000000000000000, 0.0000000000000000000, 1.000000000000000000 ) ) ;
#45 = CARTESIAN_POINT ( 'NONE',  ( -6.407881928425147100, -2.155332310652598300, 0.2887089511788944500 ) ) ;
#46 = CARTESIAN_POINT ( 'NONE',  ( 2.144210317835422200, -2.155332310652597400, 3.147650376425823500 ) ) ;
#47 = CARTESIAN_POINT ( 'NONE',  ( 4.283466251640892800, -2.155332310652597900, -0.001972866871721473000 ) ) ;
#48 = EDGE_CURVE ( 'NONE', #82, #12, #26, .T. ) ;
#49 = COORDINATED_UNIVERSAL_TIME_OFFSET ( 2, 0, .AHEAD. ) ;
#50 = CARTESIAN_POINT ( 'NONE',  ( -7.105427357601000300E-015, 1.421085471520200100E-014, -44.11999999999999700 ) ) ;
#51 = CARTESIAN_POINT ( 'NONE',  ( 2.117543905715035400, 6.425726940380716500, 0.4401924459015576500 ) ) ;
#52 = DIRECTION ( 'NONE',  ( 0.0000000000000000000, 0.0000000000000000000, 1.000000000000000000 ) ) ;
#53 =( BOUNDED_SURFACE ( )  B_SPLINE_SURFACE ( 3, 3, ( 
 ( #99, #262, #2, #193 ),
 ( #210, #237, #47, #97 ),
 ( #127, #212, #261, #125 ),
 ( #28, #51, #76, #150 ) ),
 .UNSPECIFIED., .F., .F., .F. ) 
 B_SPLINE_SURFACE_WITH_KNOTS ( ( 4, 4 ),
 ( 4, 4 ),
 ( 0.0000000000000000000, 1.000000000000000000 ),
 ( 0.0000000000000000000, 1.000000000000000000 ),
 .UNSPECIFIED. ) 
 GEOMETRIC_REPRESENTATION_ITEM ( )  RATIONAL_B_SPLINE_SURFACE ( (
 ( 1.000000000000000000, 0.9984596088083576000, 0.9984596088083576000, 1.000000000000000000),
 ( 0.9937720367020151900, 0.9922412390101789100, 0.9922412390101789100, 0.9937720367020151900),
 ( 0.9937720367020151900, 0.9922412390101789100, 0.9922412390101789100, 0.9937720367020151900),
 ( 1.000000000000000000, 0.9984596088083576000, 0.9984596088083576000, 1.000000000000000000) ) ) 
 REPRESENTATION_ITEM ( '' )  SURFACE ( )  );
#54 = CARTESIAN_POINT ( 'NONE',  ( 6.328190482627689100, -6.425726940380698700, 2.128874997163389300 ) ) ;
#55 = APPROVAL_DATE_TIME ( #134, #287 ) ;
#56 = AXIS2_PLACEMENT_3D ( 'NONE', #189, #284, #217 ) ;
#57 = DESIGN_CONTEXT ( 'detailed design', #238, 'design' ) ;
#58 = PERSON_AND_ORGANIZATION ( #83, #286 ) ;
#59 = VERTEX_POINT ( 'NONE', #133 ) ;
#60 = CALENDAR_DATE ( 2019, 4, 1 ) ;
#61 = EDGE_CURVE ( 'NONE', #141, #59, #162, .T. ) ;
#62 = DIRECTION ( 'NONE',  ( -0.0000000000000000000, -0.0000000000000000000, -1.000000000000000000 ) ) ;
#63 = ADVANCED_FACE ( 'NONE', ( #144 ), #200, .T. ) ;
#64 = ORIENTED_EDGE ( 'NONE', *, *, #65, .T. ) ;
#65 = EDGE_CURVE ( 'NONE', #130, #266, #136, .T. ) ;
#66 = CARTESIAN_POINT ( 'NONE',  ( -2.117543905715040300, -6.425726940380697800, 0.4401924459015619200 ) ) ;
#67 = ORIENTED_EDGE ( 'NONE', *, *, #106, .F. ) ;
#68 = CARTESIAN_POINT ( 'NONE',  ( -4.230195042459646600, 6.425726940380716500, 2.415941758849649000 ) ) ;
#69 = CARTESIAN_POINT ( 'NONE',  ( -2.144210317835416800, -2.155332310652597900, 3.147650376425827500 ) ) ;
#70 = CARTESIAN_POINT ( 'NONE',  ( -6.328190482627671400, -6.425726940380698700, 2.128874997163399100 ) ) ;
#71 = AXIS2_PLACEMENT_3D ( 'NONE', #115, #207, #275 ) ;
#72 = CIRCLE ( 'NONE', #56, 6.349999999999999600 ) ;
#73 = CARTESIAN_POINT ( 'NONE',  ( 6.071532165918824000E-015, 2.155332310652617000, 3.147650376425831500 ) ) ;
#74 = CARTESIAN_POINT ( 'NONE',  ( 0.0000000000000000000, 0.0000000000000000000, 0.0000000000000000000 ) ) ;
#75 = SECURITY_CLASSIFICATION ( '', '', #218 ) ;
#76 = CARTESIAN_POINT ( 'NONE',  ( 4.230195042459644800, 6.425726940380716500, 0.5840582411503468800 ) ) ;
#77 =( LENGTH_UNIT ( ) NAMED_UNIT ( * ) SI_UNIT ( .MILLI., .METRE. ) );
#78 = ORIENTED_EDGE ( 'NONE', *, *, #227, .F. ) ;
#79 = LOCAL_TIME ( 13, 30, 16.00000000000000000, #280 ) ;
#80 = VERTEX_POINT ( 'NONE', #23 ) ;
#81 = CC_DESIGN_APPROVAL ( #105, ( #114 ) ) ;
#82 = VERTEX_POINT ( 'NONE', #22 ) ;
#83 = PERSON ( 'UNSPECIFIED', 'UNSPECIFIED', 'UNSPECIFIED', ('UNSPECIFIED'), ('UNSPECIFIED'), ('UNSPECIFIED') ) ;
#84 = DIRECTION ( 'NONE',  ( 1.000000000000000000, 0.0000000000000000000, 0.0000000000000000000 ) ) ;
#85 = VERTEX_POINT ( 'NONE', #259 ) ;
#86 = DIRECTION ( 'NONE',  ( 1.000000000000000000, 8.881784197001252300E-016, 0.0000000000000000000 ) ) ;
#87 = EDGE_LOOP ( 'NONE', ( #149, #92, #139 ) ) ;
#88 = SHAPE_DEFINITION_REPRESENTATION ( #135, #18 ) ;
#89 = CARTESIAN_POINT ( 'NONE',  ( 2.498001805406600200E-016, 1.221245327087670000E-015, 0.4298307991928559900 ) ) ;
#90 = DIRECTION ( 'NONE',  ( 1.000000000000000000, 0.0000000000000000000, 0.0000000000000000000 ) ) ;
#91 = PERSON_AND_ORGANIZATION ( #83, #286 ) ;
#92 = ORIENTED_EDGE ( 'NONE', *, *, #14, .T. ) ;
#93 = CARTESIAN_POINT ( 'NONE',  ( -6.407881928425130300, -2.155332310652598300, 2.711291048821104200 ) ) ;
#94 = CARTESIAN_POINT ( 'NONE',  ( 2.117543905715040700, 6.425726940380716500, 2.559807554098434000 ) ) ;
#95 = CARTESIAN_POINT ( 'NONE',  ( 6.349999999999999600, 1.221245327087670000E-015, 0.4298307991928559900 ) ) ;
#96 = CARTESIAN_POINT ( 'NONE',  ( 6.407881928425147100, -2.155332310652598300, 2.711291048821094000 ) ) ;
#97 = CARTESIAN_POINT ( 'NONE',  ( 6.407881928425128500, -2.155332310652598300, 0.2887089511788917300 ) ) ;
#98 = APPROVAL_STATUS ( 'not_yet_approved' ) ;
#99 = CARTESIAN_POINT ( 'NONE',  ( 7.105427357601000300E-015, -6.425726940380698700, 0.4401924459015646400 ) ) ;
#100 = APPROVAL_ROLE ( '' ) ;
#101 = APPROVAL_ROLE ( '' ) ;
#102 = COORDINATED_UNIVERSAL_TIME_OFFSET ( 2, 0, .AHEAD. ) ;
#103 = CC_DESIGN_SECURITY_CLASSIFICATION ( #75, ( #184 ) ) ;
#104 = CLOSED_SHELL ( 'NONE', ( #206, #138, #110, #63, #164, #288 ) ) ;
#105 = APPROVAL ( #98, 'UNSPECIFIED' ) ;
#106 = EDGE_CURVE ( 'NONE', #85, #80, #202, .T. ) ;
#107 =( GEOMETRIC_REPRESENTATION_CONTEXT ( 3 ) GLOBAL_UNCERTAINTY_ASSIGNED_CONTEXT ( ( #142 ) ) GLOBAL_UNIT_ASSIGNED_CONTEXT ( ( #77, #172, #177 ) ) REPRESENTATION_CONTEXT ( 'NONE', 'WORKASPACE' ) );
#108 = CARTESIAN_POINT ( 'NONE',  ( 2.498001805406600200E-016, 1.221245327087670000E-015, 2.570169200807140200 ) ) ;
#109 = LOCAL_TIME ( 13, 30, 16.00000000000000000, #43 ) ;
#110 = ADVANCED_FACE ( 'NONE', ( #37 ), #183, .T. ) ;
#111 = CARTESIAN_POINT ( 'NONE',  ( -6.328190482627689100, -6.425726940380698700, 0.8711250028365993300 ) ) ;
#112 = CIRCLE ( 'NONE', #271, 47.11999999999999700 ) ;
#113 = AXIS2_PLACEMENT_3D ( 'NONE', #249, #42, #15 ) ;
#114 = PRODUCT_DEFINITION ( 'UNKNOWN', '', #184, #57 ) ;
#115 = CARTESIAN_POINT ( 'NONE',  ( 2.498001805406600200E-016, 1.221245327087670000E-015, 0.4298307991928559900 ) ) ;
#116 = DATE_AND_TIME ( #243, #109 ) ;
#117 = CARTESIAN_POINT ( 'NONE',  ( 6.349999999999999600, 1.221245327087670000E-015, 2.570169200807140200 ) ) ;
#118 = CARTESIAN_POINT ( 'NONE',  ( -6.328190482627673100, 6.425726940380716500, 2.128874997163405800 ) ) ;
#119 = CARTESIAN_POINT ( 'NONE',  ( -6.407881928425130300, 2.155332310652616500, 2.711291048821109900 ) ) ;
#120 = CARTESIAN_POINT ( 'NONE',  ( 6.328190482627690000, 6.425726940380716500, 2.128874997163396500 ) ) ;
#121 = CARTESIAN_POINT ( 'NONE',  ( -2.144210317835421700, -2.155332310652597400, -0.1476503764258350600 ) ) ;
#122 = DATE_AND_TIME ( #229, #182 ) ;
#123 = CARTESIAN_POINT ( 'NONE',  ( 2.144210317835422600, 2.155332310652616100, 3.147650376425829700 ) ) ;
#124 = CYLINDRICAL_SURFACE ( 'NONE', #71, 6.349999999999999600 ) ;
#125 = CARTESIAN_POINT ( 'NONE',  ( 6.407881928425129400, 2.155332310652616500, 0.2887089511788856800 ) ) ;
#126 = PERSON_AND_ORGANIZATION_ROLE ( 'creator' ) ;
#127 = CARTESIAN_POINT ( 'NONE',  ( 7.105427357601003400E-015, 2.155332310652616500, -0.1476503764258384500 ) ) ;
#128 = CARTESIAN_POINT ( 'NONE',  ( 7.105427357601000300E-015, -6.349999999999989000, 0.4298307991928563800 ) ) ;
#129 = EDGE_LOOP ( 'NONE', ( #67, #245, #220, #13, #7, #78 ) ) ;
#130 = VERTEX_POINT ( 'NONE', #95 ) ;
#131 = ORIENTED_EDGE ( 'NONE', *, *, #14, .F. ) ;
#132 = CC_DESIGN_PERSON_AND_ORGANIZATION_ASSIGNMENT ( #40, #10, ( #75 ) ) ;
#133 = CARTESIAN_POINT ( 'NONE',  ( -7.105427357600998700E-015, -6.349999999999989000, 2.570169200807139700 ) ) ;
#134 = DATE_AND_TIME ( #60, #188 ) ;
#135 = PRODUCT_DEFINITION_SHAPE ( 'NONE', 'NONE',  #114 ) ;
#136 = CIRCLE ( 'NONE', #276, 6.349999999999999600 ) ;
#137 = CARTESIAN_POINT ( 'NONE',  ( -4.230195042459656400, -6.425726940380697800, 0.5840582411503542100 ) ) ;
#138 = ADVANCED_FACE ( 'NONE', ( #197 ), #153, .T. ) ;
#139 = ORIENTED_EDGE ( 'NONE', *, *, #106, .T. ) ;
#140 = CARTESIAN_POINT ( 'NONE',  ( -6.349999999999999600, 1.998896044546239400E-015, 0.4298307991928559900 ) ) ;
#141 = VERTEX_POINT ( 'NONE', #117 ) ;
#142 = UNCERTAINTY_MEASURE_WITH_UNIT (LENGTH_MEASURE( 1.000000000000000100E-005 ), #77, 'distance_accuracy_value', 'NONE');
#143 = DATE_AND_TIME ( #285, #79 ) ;
#144 = FACE_OUTER_BOUND ( 'NONE', #87, .T. ) ;
#145 = CARTESIAN_POINT ( 'NONE',  ( -2.117543905715035800, 6.425726940380716500, 2.559807554098438000 ) ) ;
#146 = DIRECTION ( 'NONE',  ( 0.0000000000000000000, -1.000000000000000000, 2.945201147668603200E-016 ) ) ;
#147 = DIRECTION ( 'NONE',  ( -0.0000000000000000000, -0.0000000000000000000, -1.000000000000000000 ) ) ;
#148 = APPROVAL_STATUS ( 'not_yet_approved' ) ;
#149 = ORIENTED_EDGE ( 'NONE', *, *, #219, .F. ) ;
#150 = CARTESIAN_POINT ( 'NONE',  ( 6.328190482627671400, 6.425726940380716500, 0.8711250028365898900 ) ) ;
#151 = FACE_OUTER_BOUND ( 'NONE', #190, .T. ) ;
#152 = CARTESIAN_POINT ( 'NONE',  ( 2.117543905715039800, -6.425726940380697800, 2.559807554098426400 ) ) ;
#153 =( BOUNDED_SURFACE ( )  B_SPLINE_SURFACE ( 3, 3, ( 
 ( #209, #1, #27, #70 ),
 ( #232, #69, #273, #93 ),
 ( #185, #233, #256, #119 ),
 ( #292, #145, #68, #118 ) ),
 .UNSPECIFIED., .F., .F., .F. ) 
 B_SPLINE_SURFACE_WITH_KNOTS ( ( 4, 4 ),
 ( 4, 4 ),
 ( 0.0000000000000000000, 1.000000000000000000 ),
 ( 0.0000000000000000000, 1.000000000000000000 ),
 .UNSPECIFIED. ) 
 GEOMETRIC_REPRESENTATION_ITEM ( )  RATIONAL_B_SPLINE_SURFACE ( (
 ( 1.000000000000000000, 0.9984596088083576000, 0.9984596088083576000, 1.000000000000000000),
 ( 0.9937720367020151900, 0.9922412390101789100, 0.9922412390101789100, 0.9937720367020151900),
 ( 0.9937720367020151900, 0.9922412390101789100, 0.9922412390101789100, 0.9937720367020151900),
 ( 1.000000000000000000, 0.9984596088083576000, 0.9984596088083576000, 1.000000000000000000) ) ) 
 REPRESENTATION_ITEM ( '' )  SURFACE ( )  );
#154 = CC_DESIGN_DATE_AND_TIME_ASSIGNMENT ( #116, #242, ( #75 ) ) ;
#155 = APPROVAL_DATE_TIME ( #122, #105 ) ;
#156 = LINE ( 'NONE', #140, #258 ) ;
#157 = AXIS2_PLACEMENT_3D ( 'NONE', #187, #44, #235 ) ;
#158 = APPROVAL_ROLE ( '' ) ;
#159 = CIRCLE ( 'NONE', #36, 47.11999999999999700 ) ;
#160 = AXIS2_PLACEMENT_3D ( 'NONE', #108, #163, #86 ) ;
#161 = PERSON_AND_ORGANIZATION ( #83, #286 ) ;
#162 = CIRCLE ( 'NONE', #38, 6.349999999999999600 ) ;
#163 = DIRECTION ( 'NONE',  ( -0.0000000000000000000, -0.0000000000000000000, -1.000000000000000000 ) ) ;
#164 = ADVANCED_FACE ( 'NONE', ( #151 ), #124, .T. ) ;
#165 = DIRECTION ( 'NONE',  ( -0.0000000000000000000, -0.0000000000000000000, -1.000000000000000000 ) ) ;
#166 = CARTESIAN_POINT ( 'NONE',  ( -6.407881928425148000, 2.155332310652616500, 0.2887089511788885100 ) ) ;
#167 = APPROVAL_PERSON_ORGANIZATION ( #201, #216, #158 ) ;
#168 = CARTESIAN_POINT ( 'NONE',  ( -5.204170427930422100E-015, -2.155332310652597900, -0.1476503764258356400 ) ) ;
#169 = DIRECTION ( 'NONE',  ( -0.0000000000000000000, -0.0000000000000000000, -1.000000000000000000 ) ) ;
#170 = CARTESIAN_POINT ( 'NONE',  ( 4.283466251640904300, -2.155332310652597900, 3.001972866871708500 ) ) ;
#171 = CARTESIAN_POINT ( 'NONE',  ( 2.498001805406600200E-016, 1.221245327087670000E-015, 2.570169200807140200 ) ) ;
#172 =( NAMED_UNIT ( * ) PLANE_ANGLE_UNIT ( ) SI_UNIT ( $, .RADIAN. ) );
#173 = LINE ( 'NONE', #239, #291 ) ;
#174 = DIRECTION ( 'NONE',  ( 0.0000000000000000000, 0.0000000000000000000, 1.000000000000000000 ) ) ;
#175 = CARTESIAN_POINT ( 'NONE',  ( 4.230195042459656400, 6.425726940380716500, 2.415941758849641900 ) ) ;
#176 = AXIS2_PLACEMENT_3D ( 'NONE', #74, #52, #194 ) ;
#177 =( NAMED_UNIT ( * ) SI_UNIT ( $, .STERADIAN. ) SOLID_ANGLE_UNIT ( ) );
#178 = DIRECTION ( 'NONE',  ( -1.000000000000000000, 0.0000000000000000000, 0.0000000000000000000 ) ) ;
#179 =( BOUNDED_SURFACE ( )  B_SPLINE_SURFACE ( 3, 3, ( 
 ( #54, #4, #152, #6 ),
 ( #96, #170, #46, #278 ),
 ( #257, #283, #123, #73 ),
 ( #120, #175, #94, #29 ) ),
 .UNSPECIFIED., .F., .F., .F. ) 
 B_SPLINE_SURFACE_WITH_KNOTS ( ( 4, 4 ),
 ( 4, 4 ),
 ( 0.0000000000000000000, 1.000000000000000000 ),
 ( 0.0000000000000000000, 1.000000000000000000 ),
 .UNSPECIFIED. ) 
 GEOMETRIC_REPRESENTATION_ITEM ( )  RATIONAL_B_SPLINE_SURFACE ( (
 ( 1.000000000000000000, 0.9984596088083576000, 0.9984596088083576000, 1.000000000000000000),
 ( 0.9937720367020151900, 0.9922412390101789100, 0.9922412390101789100, 0.9937720367020151900),
 ( 0.9937720367020151900, 0.9922412390101789100, 0.9922412390101789100, 0.9937720367020151900),
 ( 1.000000000000000000, 0.9984596088083576000, 0.9984596088083576000, 1.000000000000000000) ) ) 
 REPRESENTATION_ITEM ( '' )  SURFACE ( )  );
#180 = COORDINATED_UNIVERSAL_TIME_OFFSET ( 2, 0, .AHEAD. ) ;
#181 = PERSON_AND_ORGANIZATION ( #83, #286 ) ;
#182 = LOCAL_TIME ( 13, 30, 16.00000000000000000, #102 ) ;
#183 = CYLINDRICAL_SURFACE ( 'NONE', #157, 6.349999999999999600 ) ;
#184 = PRODUCT_DEFINITION_FORMATION_WITH_SPECIFIED_SOURCE ( 'ANY', '', #39, .NOT_KNOWN. ) ;
#185 = CARTESIAN_POINT ( 'NONE',  ( -7.105427357601001100E-015, 2.155332310652616500, 3.147650376425834100 ) ) ;
#186 = AXIS2_PLACEMENT_3D ( 'NONE', #295, #165, #293 ) ;
#187 = CARTESIAN_POINT ( 'NONE',  ( 2.498001805406600200E-016, 1.221245327087670000E-015, 0.4298307991928559900 ) ) ;
#188 = LOCAL_TIME ( 13, 30, 16.00000000000000000, #180 ) ;
#189 = CARTESIAN_POINT ( 'NONE',  ( 2.498001805406600200E-016, 1.221245327087670000E-015, 0.4298307991928559900 ) ) ;
#190 = EDGE_LOOP ( 'NONE', ( #20, #131, #213, #33, #251, #199 ) ) ;
#191 = CARTESIAN_POINT ( 'NONE',  ( -2.144210317835422200, 2.155332310652616100, -0.1476503764258413100 ) ) ;
#192 = APPLICATION_PROTOCOL_DEFINITION ( 'international standard', 'config_control_design', 1994, #281 ) ;
#193 = CARTESIAN_POINT ( 'NONE',  ( 6.328190482627669600, -6.425726940380698700, 0.8711250028365966600 ) ) ;
#194 = DIRECTION ( 'NONE',  ( 1.000000000000000000, 0.0000000000000000000, 0.0000000000000000000 ) ) ;
#195 = ORIENTED_EDGE ( 'NONE', *, *, #61, .F. ) ;
#196 = LOCAL_TIME ( 13, 30, 16.00000000000000000, #49 ) ;
#197 = FACE_OUTER_BOUND ( 'NONE', #270, .T. ) ;
#198 = CC_DESIGN_PERSON_AND_ORGANIZATION_ASSIGNMENT ( #236, #35, ( #184 ) ) ;
#199 = ORIENTED_EDGE ( 'NONE', *, *, #24, .T. ) ;
#200 =( BOUNDED_SURFACE ( )  B_SPLINE_SURFACE ( 3, 3, ( 
 ( #111, #137, #66, #294 ),
 ( #45, #277, #121, #168 ),
 ( #166, #255, #191, #203 ),
 ( #205, #234, #272, #253 ) ),
 .UNSPECIFIED., .F., .F., .T. ) 
 B_SPLINE_SURFACE_WITH_KNOTS ( ( 4, 4 ),
 ( 4, 4 ),
 ( 0.0000000000000000000, 1.000000000000000000 ),
 ( 0.0000000000000000000, 1.000000000000000000 ),
 .UNSPECIFIED. ) 
 GEOMETRIC_REPRESENTATION_ITEM ( )  RATIONAL_B_SPLINE_SURFACE ( (
 ( 1.000000000000000000, 0.9984596088083576000, 0.9984596088083576000, 1.000000000000000000),
 ( 0.9937720367020151900, 0.9922412390101789100, 0.9922412390101789100, 0.9937720367020151900),
 ( 0.9937720367020151900, 0.9922412390101789100, 0.9922412390101789100, 0.9937720367020151900),
 ( 1.000000000000000000, 0.9984596088083576000, 0.9984596088083576000, 1.000000000000000000) ) ) 
 REPRESENTATION_ITEM ( '' )  SURFACE ( )  );
#201 = PERSON_AND_ORGANIZATION ( #83, #286 ) ;
#202 = CIRCLE ( 'NONE', #186, 6.349999999999999600 ) ;
#203 = CARTESIAN_POINT ( 'NONE',  ( -5.204170427930422100E-015, 2.155332310652617000, -0.1476503764258419400 ) ) ;
#204 = EDGE_CURVE ( 'NONE', #130, #141, #173, .T. ) ;
#205 = CARTESIAN_POINT ( 'NONE',  ( -6.328190482627690000, 6.425726940380716500, 0.8711250028365924400 ) ) ;
#206 = ADVANCED_FACE ( 'NONE', ( #265 ), #53, .T. ) ;
#207 = DIRECTION ( 'NONE',  ( 0.0000000000000000000, 0.0000000000000000000, 1.000000000000000000 ) ) ;
#208 = ORIENTED_EDGE ( 'NONE', *, *, #260, .T. ) ;
#209 = CARTESIAN_POINT ( 'NONE',  ( -7.105427357600998700E-015, -6.425726940380698700, 2.559807554098431300 ) ) ;
#210 = CARTESIAN_POINT ( 'NONE',  ( 7.105427357601003400E-015, -2.155332310652598300, -0.1476503764258324000 ) ) ;
#211 = MECHANICAL_CONTEXT ( 'NONE', #281, 'mechanical' ) ;
#212 = CARTESIAN_POINT ( 'NONE',  ( 2.144210317835416800, 2.155332310652615700, -0.1476503764258384500 ) ) ;
#213 = ORIENTED_EDGE ( 'NONE', *, *, #65, .F. ) ;
#214 = DIRECTION ( 'NONE',  ( 0.0000000000000000000, -1.000000000000000000, -2.945201147668603200E-016 ) ) ;
#215 = ORIENTED_EDGE ( 'NONE', *, *, #48, .F. ) ;
#216 = APPROVAL ( #221, 'UNSPECIFIED' ) ;
#217 = DIRECTION ( 'NONE',  ( 1.000000000000000000, -8.881784197001252300E-016, 0.0000000000000000000 ) ) ;
#218 = SECURITY_CLASSIFICATION_LEVEL ( 'unclassified' ) ;
#219 = EDGE_CURVE ( 'NONE', #266, #80, #159, .T. ) ;
#220 = ORIENTED_EDGE ( 'NONE', *, *, #48, .T. ) ;
#221 = APPROVAL_STATUS ( 'not_yet_approved' ) ;
#222 = CC_DESIGN_PERSON_AND_ORGANIZATION_ASSIGNMENT ( #181, #8, ( #184 ) ) ;
#223 = APPROVAL_DATE_TIME ( #143, #216 ) ;
#224 = CIRCLE ( 'NONE', #160, 6.349999999999999600 ) ;
#225 = CC_DESIGN_PERSON_AND_ORGANIZATION_ASSIGNMENT ( #58, #241, ( #39 ) ) ;
#226 = CARTESIAN_POINT ( 'NONE',  ( 2.498001805406600200E-016, 1.221245327087670000E-015, 2.570169200807140200 ) ) ;
#227 = EDGE_CURVE ( 'NONE', #80, #130, #72, .T. ) ;
#228 = DIRECTION ( 'NONE',  ( -0.0000000000000000000, -0.0000000000000000000, -1.000000000000000000 ) ) ;
#229 = CALENDAR_DATE ( 2019, 4, 1 ) ;
#230 = ORIENTED_EDGE ( 'NONE', *, *, #24, .F. ) ;
#231 = PRODUCT_RELATED_PRODUCT_CATEGORY ( 'detail', '', ( #39 ) ) ;
#232 = CARTESIAN_POINT ( 'NONE',  ( -7.105427357601001100E-015, -2.155332310652598300, 3.147650376425828800 ) ) ;
#233 = CARTESIAN_POINT ( 'NONE',  ( -2.144210317835417300, 2.155332310652615700, 3.147650376425833700 ) ) ;
#234 = CARTESIAN_POINT ( 'NONE',  ( -4.230195042459656400, 6.425726940380716500, 0.5840582411503471000 ) ) ;
#235 = DIRECTION ( 'NONE',  ( 1.000000000000000000, 0.0000000000000000000, 0.0000000000000000000 ) ) ;
#236 = PERSON_AND_ORGANIZATION ( #83, #286 ) ;
#237 = CARTESIAN_POINT ( 'NONE',  ( 2.144210317835416400, -2.155332310652597900, -0.1476503764258324000 ) ) ;
#238 = APPLICATION_CONTEXT ( 'configuration controlled 3d designs of mechanical parts and assemblies' ) ;
#239 = CARTESIAN_POINT ( 'NONE',  ( 6.349999999999999600, 1.221245327087670000E-015, 0.4298307991928559900 ) ) ;
#240 = APPLICATION_PROTOCOL_DEFINITION ( 'international standard', 'config_control_design', 1994, #238 ) ;
#241 = PERSON_AND_ORGANIZATION_ROLE ( 'design_owner' ) ;
#242 = DATE_TIME_ROLE ( 'classification_date' ) ;
#243 = CALENDAR_DATE ( 2019, 4, 1 ) ;
#244 = CALENDAR_DATE ( 2019, 4, 1 ) ;
#245 = ORIENTED_EDGE ( 'NONE', *, *, #17, .T. ) ;
#246 = DIRECTION ( 'NONE',  ( 1.000000000000000000, 0.0000000000000000000, 0.0000000000000000000 ) ) ;
#247 = ORIENTED_EDGE ( 'NONE', *, *, #227, .T. ) ;
#248 = CC_DESIGN_DATE_AND_TIME_ASSIGNMENT ( #290, #263, ( #114 ) ) ;
#249 = CARTESIAN_POINT ( 'NONE',  ( 2.498001805406600200E-016, 1.221245327087670000E-015, 0.4298307991928559900 ) ) ;
#250 = CARTESIAN_POINT ( 'NONE',  ( -7.105427357600998700E-015, 6.350000000000004100, 2.570169200807139700 ) ) ;
#251 = ORIENTED_EDGE ( 'NONE', *, *, #61, .T. ) ;
#252 = EDGE_LOOP ( 'NONE', ( #9, #195, #16 ) ) ;
#253 = CARTESIAN_POINT ( 'NONE',  ( -4.336808689942017700E-015, 6.425726940380716500, 0.4401924459015543200 ) ) ;
#254 = MANIFOLD_SOLID_BREP ( 'Imported1', #104 ) ;
#255 = CARTESIAN_POINT ( 'NONE',  ( -4.283466251640904300, 2.155332310652615700, -0.001972866871727219700 ) ) ;
#256 = CARTESIAN_POINT ( 'NONE',  ( -4.283466251640894600, 2.155332310652615700, 3.001972866871723200 ) ) ;
#257 = CARTESIAN_POINT ( 'NONE',  ( 6.407881928425148000, 2.155332310652616500, 2.711291048821100200 ) ) ;
#258 = VECTOR ( 'NONE', #289, 1000.000000000000000 ) ;
#259 = CARTESIAN_POINT ( 'NONE',  ( -6.349999999999999600, 1.998896044546239400E-015, 0.4298307991928559900 ) ) ;
#260 = EDGE_CURVE ( 'NONE', #59, #12, #112, .T. ) ;
#261 = CARTESIAN_POINT ( 'NONE',  ( 4.283466251640892800, 2.155332310652615700, -0.001972866871727490700 ) ) ;
#262 = CARTESIAN_POINT ( 'NONE',  ( 2.117543905715034900, -6.425726940380697800, 0.4401924459015646400 ) ) ;
#263 = DATE_TIME_ROLE ( 'creation_date' ) ;
#264 = DIRECTION ( 'NONE',  ( 1.000000000000000000, 0.0000000000000000000, 0.0000000000000000000 ) ) ;
#265 = FACE_OUTER_BOUND ( 'NONE', #41, .T. ) ;
#266 = VERTEX_POINT ( 'NONE', #128 ) ;
#267 = CIRCLE ( 'NONE', #113, 6.349999999999999600 ) ;
#268 = PERSON_AND_ORGANIZATION ( #83, #286 ) ;
#269 = CARTESIAN_POINT ( 'NONE',  ( 2.498001805406600200E-016, 1.221245327087670000E-015, 2.570169200807140200 ) ) ;
#270 = EDGE_LOOP ( 'NONE', ( #230, #208, #215 ) ) ;
#271 = AXIS2_PLACEMENT_3D ( 'NONE', #50, #178, #146 ) ;
#272 = CARTESIAN_POINT ( 'NONE',  ( -2.117543905715039800, 6.425726940380716500, 0.4401924459015548200 ) ) ;
#273 = CARTESIAN_POINT ( 'NONE',  ( -4.283466251640893700, -2.155332310652597900, 3.001972866871716900 ) ) ;
#274 = CIRCLE ( 'NONE', #3, 6.349999999999999600 ) ;
#275 = DIRECTION ( 'NONE',  ( 1.000000000000000000, 0.0000000000000000000, 0.0000000000000000000 ) ) ;
#276 = AXIS2_PLACEMENT_3D ( 'NONE', #89, #147, #90 ) ;
#277 = CARTESIAN_POINT ( 'NONE',  ( -4.283466251640904300, -2.155332310652597900, -0.001972866871721093900 ) ) ;
#278 = CARTESIAN_POINT ( 'NONE',  ( 6.071532165918824000E-015, -2.155332310652597900, 3.147650376425824800 ) ) ;
#279 = CC_DESIGN_PERSON_AND_ORGANIZATION_ASSIGNMENT ( #268, #126, ( #114 ) ) ;
#280 = COORDINATED_UNIVERSAL_TIME_OFFSET ( 2, 0, .AHEAD. ) ;
#281 = APPLICATION_CONTEXT ( 'configuration controlled 3d designs of mechanical parts and assemblies' ) ;
#282 = ORIENTED_EDGE ( 'NONE', *, *, #219, .T. ) ;
#283 = CARTESIAN_POINT ( 'NONE',  ( 4.283466251640905200, 2.155332310652615700, 3.001972866871715200 ) ) ;
#284 = DIRECTION ( 'NONE',  ( -0.0000000000000000000, -0.0000000000000000000, -1.000000000000000000 ) ) ;
#285 = CALENDAR_DATE ( 2019, 4, 1 ) ;
#286 = ORGANIZATION ( 'UNSPECIFIED', 'UNSPECIFIED', '' ) ;
#287 = APPROVAL ( #148, 'UNSPECIFIED' ) ;
#288 = ADVANCED_FACE ( 'NONE', ( #30 ), #179, .T. ) ;
#289 = DIRECTION ( 'NONE',  ( 0.0000000000000000000, 0.0000000000000000000, 1.000000000000000000 ) ) ;
#290 = DATE_AND_TIME ( #244, #196 ) ;
#291 = VECTOR ( 'NONE', #174, 1000.000000000000000 ) ;
#292 = CARTESIAN_POINT ( 'NONE',  ( -7.105427357600998700E-015, 6.425726940380716500, 2.559807554098438000 ) ) ;
#293 = DIRECTION ( 'NONE',  ( 1.000000000000000000, 0.0000000000000000000, 0.0000000000000000000 ) ) ;
#294 = CARTESIAN_POINT ( 'NONE',  ( -5.204170427930421300E-015, -6.425726940380698700, 0.4401924459015613700 ) ) ;
#295 = CARTESIAN_POINT ( 'NONE',  ( 2.498001805406600200E-016, 1.221245327087670000E-015, 0.4298307991928559900 ) ) ;
ENDSEC;
END-ISO-10303-21;
