ISO-10303-21;
HEADER;
FILE_DESCRIPTION (( 'STEP AP203' ),
    '1' );
FILE_NAME ('111-1108E UVFS bi-cx 12.7 F25.STEP',
    '2019-01-04T10:43:43',
    ( '' ),
    ( '' ),
    'SwSTEP 2.0',
    'SolidWorks 2017',
    '' );
FILE_SCHEMA (( 'CONFIG_CONTROL_DESIGN' ));
ENDSEC;

DATA;
#1 = CARTESIAN_POINT ( 'NONE',  ( 2.079431593307618600, 6.424207595748241000, 2.594033165329482100 ) ) ;
#2 = CARTESIAN_POINT ( 'NONE',  ( -2.079431593307618600, 6.424207595748244500, 0.9059668346705217500 ) ) ;
#3 = AXIS2_PLACEMENT_3D ( 'NONE', #185, #184, #79 ) ;
#4 = CLOSED_SHELL ( 'NONE', ( #199, #280, #94, #221, #173, #241 ) ) ;
#5 = CARTESIAN_POINT ( 'NONE',  ( -6.472361241948228800, 2.198565022790370400, 2.902775005112341800 ) ) ;
#6 = APPROVAL_ROLE ( '' ) ;
#7 = AXIS2_PLACEMENT_3D ( 'NONE', #231, #41, #211 ) ;
#8 = ORIENTED_EDGE ( 'NONE', *, *, #14, .F. ) ;
#9 = PRODUCT_DEFINITION_SHAPE ( 'NONE', 'NONE',  #10 ) ;
#10 = PRODUCT_DEFINITION ( 'UNKNOWN', '', #63, #155 ) ;
#11 = CARTESIAN_POINT ( 'NONE',  ( 7.605918309324376800E-015, 6.350000000000006800, 2.615254529765370400 ) ) ;
#12 = APPROVAL_PERSON_ORGANIZATION ( #39, #197, #243 ) ;
#13 = UNCERTAINTY_MEASURE_WITH_UNIT (LENGTH_MEASURE( 1.000000000000000100E-005 ), #24, 'distance_accuracy_value', 'NONE');
#14 = EDGE_CURVE ( 'NONE', #223, #244, #109, .T. ) ;
#15 = CARTESIAN_POINT ( 'NONE',  ( -6.138016089917965900, -6.424207595748229400, 1.766374601511539600 ) ) ;
#16 = CARTESIAN_POINT ( 'NONE',  ( 2.192700744449606700, 2.198565022790372100, -0.3100502225103947700 ) ) ;
#17 = CC_DESIGN_DATE_AND_TIME_ASSIGNMENT ( #73, #29, ( #31 ) ) ;
#18 = PERSON_AND_ORGANIZATION ( #130, #99 ) ;
#19 = ADVANCED_BREP_SHAPE_REPRESENTATION ( '111-1108E UVFS bi-cx 12.7 F25', ( #36, #23 ), #179 ) ;
#20 = DIRECTION ( 'NONE',  ( -0.0000000000000000000, -0.0000000000000000000, -1.000000000000000000 ) ) ;
#21 = PERSON_AND_ORGANIZATION ( #130, #99 ) ;
#22 = CARTESIAN_POINT ( 'NONE',  ( -4.364171066754197500, 2.198565022790371700, 3.505660350700753500 ) ) ;
#23 = AXIS2_PLACEMENT_3D ( 'NONE', #256, #192, #281 ) ;
#24 =( LENGTH_UNIT ( ) NAMED_UNIT ( * ) SI_UNIT ( .MILLI., .METRE. ) );
#25 = CARTESIAN_POINT ( 'NONE',  ( 1.734723475976807100E-014, -2.198565022790368100, 3.810050222510394000 ) ) ;
#26 = CARTESIAN_POINT ( 'NONE',  ( 6.138016089917966800, -6.424207595748233000, 1.733625398488460000 ) ) ;
#27 = PERSON_AND_ORGANIZATION_ROLE ( 'creator' ) ;
#28 = AXIS2_PLACEMENT_3D ( 'NONE', #111, #61, #133 ) ;
#29 = DATE_TIME_ROLE ( 'classification_date' ) ;
#30 = PRODUCT ( '111-1108E UVFS bi-cx 12.7 F25', '111-1108E UVFS bi-cx 12.7 F25', '', ( #284 ) ) ;
#31 = SECURITY_CLASSIFICATION ( '', '', #198 ) ;
#32 = EDGE_CURVE ( 'NONE', #223, #250, #50, .T. ) ;
#33 = COORDINATED_UNIVERSAL_TIME_OFFSET ( 2, 0, .AHEAD. ) ;
#34 = PERSON_AND_ORGANIZATION ( #130, #99 ) ;
#35 = DIRECTION ( 'NONE',  ( 1.000000000000000000, 0.0000000000000000000, 0.0000000000000000000 ) ) ;
#36 = MANIFOLD_SOLID_BREP ( 'Imported1', #4 ) ;
#37 = DIRECTION ( 'NONE',  ( 1.000000000000000000, 8.881784197001252300E-016, 0.0000000000000000000 ) ) ;
#38 = CARTESIAN_POINT ( 'NONE',  ( 4.364171066754194900, -2.198565022790367700, -0.005660350700752073300 ) ) ;
#39 = PERSON_AND_ORGANIZATION ( #130, #99 ) ;
#40 = CIRCLE ( 'NONE', #153, 6.349999999999999600 ) ;
#41 = DIRECTION ( 'NONE',  ( 0.0000000000000000000, 0.0000000000000000000, 1.000000000000000000 ) ) ;
#42 = APPROVAL ( #72, 'UNSPECIFIED' ) ;
#43 = APPROVAL_DATE_TIME ( #233, #42 ) ;
#44 = ORIENTED_EDGE ( 'NONE', *, *, #70, .T. ) ;
#45 = CC_DESIGN_APPROVAL ( #197, ( #31 ) ) ;
#46 = SHAPE_DEFINITION_REPRESENTATION ( #9, #19 ) ;
#47 = CARTESIAN_POINT ( 'NONE',  ( 4.138729472217863600, 6.424207595748241000, 2.305367273403267100 ) ) ;
#48 = EDGE_CURVE ( 'NONE', #262, #87, #188, .T. ) ;
#49 = APPROVAL_DATE_TIME ( #248, #103 ) ;
#50 = CIRCLE ( 'NONE', #121, 6.349999999999999600 ) ;
#51 = CARTESIAN_POINT ( 'NONE',  ( 1.474514954580286000E-014, 6.424207595748239200, 2.594033165329482600 ) ) ;
#52 =( BOUNDED_SURFACE ( )  B_SPLINE_SURFACE ( 3, 3, ( 
 ( #168, #176, #71, #170 ),
 ( #214, #242, #65, #194 ),
 ( #145, #117, #22, #5 ),
 ( #274, #236, #273, #143 ) ),
 .UNSPECIFIED., .F., .F., .T. ) 
 B_SPLINE_SURFACE_WITH_KNOTS ( ( 4, 4 ),
 ( 4, 4 ),
 ( 0.0000000000000000000, 1.000000000000000000 ),
 ( 0.0000000000000000000, 1.000000000000000000 ),
 .UNSPECIFIED. ) 
 GEOMETRIC_REPRESENTATION_ITEM ( )  RATIONAL_B_SPLINE_SURFACE ( (
 ( 1.000000000000000000, 0.9935451224709179700, 0.9935451224709179700, 1.000000000000000000),
 ( 0.9740000908402778300, 0.9677130395405890700, 0.9677130395405890700, 0.9740000908402778300),
 ( 0.9740000908402778300, 0.9677130395405890700, 0.9677130395405890700, 0.9740000908402778300),
 ( 1.000000000000000000, 0.9935451224709179700, 0.9935451224709179700, 1.000000000000000000) ) ) 
 REPRESENTATION_ITEM ( '' )  SURFACE ( )  );
#53 = APPLICATION_PROTOCOL_DEFINITION ( 'international standard', 'config_control_design', 1994, #126 ) ;
#54 = FACE_OUTER_BOUND ( 'NONE', #169, .T. ) ;
#55 = FACE_OUTER_BOUND ( 'NONE', #266, .T. ) ;
#56 = CC_DESIGN_PERSON_AND_ORGANIZATION_ASSIGNMENT ( #193, #27, ( #63 ) ) ;
#57 = DIRECTION ( 'NONE',  ( -0.0000000000000000000, -0.0000000000000000000, -1.000000000000000000 ) ) ;
#58 = CARTESIAN_POINT ( 'NONE',  ( 6.138016089917944600, -6.424207595748233900, 1.766374601511538200 ) ) ;
#59 = CARTESIAN_POINT ( 'NONE',  ( 2.192700744449605400, -2.198565022790367300, -0.3100502225103940500 ) ) ;
#60 = ORIENTED_EDGE ( 'NONE', *, *, #90, .F. ) ;
#61 = DIRECTION ( 'NONE',  ( -1.000000000000000000, -3.127268186378829800E-016, 2.702596169056860000E-016 ) ) ;
#62 = CARTESIAN_POINT ( 'NONE',  ( -6.472361241948243900, 2.198565022790377900, 0.5972249948876616800 ) ) ;
#63 = PRODUCT_DEFINITION_FORMATION_WITH_SPECIFIED_SOURCE ( 'ANY', '', #30, .NOT_KNOWN. ) ;
#64 = DIRECTION ( 'NONE',  ( -0.0000000000000000000, -0.0000000000000000000, -1.000000000000000000 ) ) ;
#65 = CARTESIAN_POINT ( 'NONE',  ( -4.364171066754197500, -2.198565022790369900, 3.505660350700753500 ) ) ;
#66 = ORIENTED_EDGE ( 'NONE', *, *, #201, .T. ) ;
#67 = AXIS2_PLACEMENT_3D ( 'NONE', #134, #187, #107 ) ;
#68 = CARTESIAN_POINT ( 'NONE',  ( -1.734723475976807100E-014, 2.198565022790377000, -0.3100502225103923800 ) ) ;
#69 = EDGE_LOOP ( 'NONE', ( #78, #66, #101 ) ) ;
#70 = EDGE_CURVE ( 'NONE', #244, #149, #151, .T. ) ;
#71 = CARTESIAN_POINT ( 'NONE',  ( -4.138729472217846700, -6.424207595748236500, 2.305367273403268900 ) ) ;
#72 = APPROVAL_STATUS ( 'not_yet_approved' ) ;
#73 = DATE_AND_TIME ( #140, #261 ) ;
#74 = ORIENTED_EDGE ( 'NONE', *, *, #135, .F. ) ;
#75 = CC_DESIGN_PERSON_AND_ORGANIZATION_ASSIGNMENT ( #34, #222, ( #30 ) ) ;
#76 = CARTESIAN_POINT ( 'NONE',  ( 6.138016089917949000, 6.424207595748234700, 1.766374601511538200 ) ) ;
#77 = CARTESIAN_POINT ( 'NONE',  ( -2.079431593307621300, -6.424207595748231200, 0.9059668346705186400 ) ) ;
#78 = ORIENTED_EDGE ( 'NONE', *, *, #213, .T. ) ;
#79 = DIRECTION ( 'NONE',  ( -3.127268186378830300E-016, -1.000000000000000000, -2.987039993072418500E-016 ) ) ;
#80 = CARTESIAN_POINT ( 'NONE',  ( -7.576976326164605000E-015, 6.424207595748237400, 0.9059668346705178600 ) ) ;
#81 = EDGE_CURVE ( 'NONE', #250, #215, #40, .T. ) ;
#82 = DIRECTION ( 'NONE',  ( -0.0000000000000000000, -0.0000000000000000000, -1.000000000000000000 ) ) ;
#83 = CARTESIAN_POINT ( 'NONE',  ( 1.157754890602549200E-014, -6.350000000000003200, 2.615254529765370400 ) ) ;
#84 = VECTOR ( 'NONE', #265, 1000.000000000000000 ) ;
#85 = CALENDAR_DATE ( 2019, 4, 1 ) ;
#86 = CARTESIAN_POINT ( 'NONE',  ( -4.364171066754217100, 2.198565022790377900, -0.005660350700749253500 ) ) ;
#87 = VERTEX_POINT ( 'NONE', #83 ) ;
#88 = CARTESIAN_POINT ( 'NONE',  ( 1.821459649775647400E-014, -6.424207595748234700, 2.594033165329481700 ) ) ;
#89 = CIRCLE ( 'NONE', #217, 6.349999999999999600 ) ;
#90 = EDGE_CURVE ( 'NONE', #149, #262, #154, .T. ) ;
#91 = CARTESIAN_POINT ( 'NONE',  ( -6.138016089917963200, 6.424207595748244500, 1.766374601511543100 ) ) ;
#92 = CARTESIAN_POINT ( 'NONE',  ( -6.472361241948244800, -2.198565022790362400, 0.5972249948876599000 ) ) ;
#93 = ORIENTED_EDGE ( 'NONE', *, *, #90, .T. ) ;
#94 = ADVANCED_FACE ( 'NONE', ( #54 ), #235, .T. ) ;
#95 = CARTESIAN_POINT ( 'NONE',  ( 4.364171066754218800, 2.198565022790373900, 3.505660350700752700 ) ) ;
#96 = CC_DESIGN_APPROVAL ( #42, ( #10 ) ) ;
#97 = PERSON_AND_ORGANIZATION_ROLE ( 'creator' ) ;
#98 = APPROVAL_PERSON_ORGANIZATION ( #167, #103, #6 ) ;
#99 = ORGANIZATION ( 'UNSPECIFIED', 'UNSPECIFIED', '' ) ;
#100 = ORIENTED_EDGE ( 'NONE', *, *, #70, .F. ) ;
#101 = ORIENTED_EDGE ( 'NONE', *, *, #81, .T. ) ;
#102 = FACE_OUTER_BOUND ( 'NONE', #282, .T. ) ;
#103 = APPROVAL ( #200, 'UNSPECIFIED' ) ;
#104 = EDGE_CURVE ( 'NONE', #87, #244, #160, .T. ) ;
#105 = ORIENTED_EDGE ( 'NONE', *, *, #104, .T. ) ;
#106 = CARTESIAN_POINT ( 'NONE',  ( 4.138729472217844900, -6.424207595748233900, 1.194632726596731600 ) ) ;
#107 = DIRECTION ( 'NONE',  ( 1.000000000000000000, 0.0000000000000000000, 0.0000000000000000000 ) ) ;
#108 = APPROVAL_DATE_TIME ( #137, #197 ) ;
#109 = LINE ( 'NONE', #189, #113 ) ;
#110 = CARTESIAN_POINT ( 'NONE',  ( 2.079431593307594200, -6.424207595748233000, 0.9059668346705173100 ) ) ;
#111 = CARTESIAN_POINT ( 'NONE',  ( 3.552713678800500100E-015, 1.776356839400250100E-015, -19.73000000000000000 ) ) ;
#112 = AXIS2_PLACEMENT_3D ( 'NONE', #287, #183, #35 ) ;
#113 = VECTOR ( 'NONE', #132, 1000.000000000000000 ) ;
#114 = CALENDAR_DATE ( 2019, 4, 1 ) ;
#115 = DIRECTION ( 'NONE',  ( -0.0000000000000000000, -0.0000000000000000000, -1.000000000000000000 ) ) ;
#116 =( BOUNDED_SURFACE ( )  B_SPLINE_SURFACE ( 3, 3, ( 
 ( #15, #249, #77, #247 ),
 ( #92, #253, #122, #119 ),
 ( #62, #86, #234, #68 ),
 ( #91, #276, #2, #240 ) ),
 .UNSPECIFIED., .F., .F., .F. ) 
 B_SPLINE_SURFACE_WITH_KNOTS ( ( 4, 4 ),
 ( 4, 4 ),
 ( 0.0000000000000000000, 1.000000000000000000 ),
 ( 0.0000000000000000000, 1.000000000000000000 ),
 .UNSPECIFIED. ) 
 GEOMETRIC_REPRESENTATION_ITEM ( )  RATIONAL_B_SPLINE_SURFACE ( (
 ( 1.000000000000000000, 0.9935451224709179700, 0.9935451224709179700, 1.000000000000000000),
 ( 0.9740000908402778300, 0.9677130395405890700, 0.9677130395405890700, 0.9740000908402778300),
 ( 0.9740000908402778300, 0.9677130395405890700, 0.9677130395405890700, 0.9740000908402778300),
 ( 1.000000000000000000, 0.9935451224709179700, 0.9935451224709179700, 1.000000000000000000) ) ) 
 REPRESENTATION_ITEM ( '' )  SURFACE ( )  );
#117 = CARTESIAN_POINT ( 'NONE',  ( -2.192700744449607200, 2.198565022790372100, 3.810050222510394500 ) ) ;
#118 = ORIENTED_EDGE ( 'NONE', *, *, #128, .T. ) ;
#119 = CARTESIAN_POINT ( 'NONE',  ( -1.734723475976807100E-014, -2.198565022790363700, -0.3100502225103939400 ) ) ;
#120 = LINE ( 'NONE', #228, #84 ) ;
#121 = AXIS2_PLACEMENT_3D ( 'NONE', #202, #57, #37 ) ;
#122 = CARTESIAN_POINT ( 'NONE',  ( -2.192700744449629400, -2.198565022790363300, -0.3100502225103928300 ) ) ;
#123 =( NAMED_UNIT ( * ) SI_UNIT ( $, .STERADIAN. ) SOLID_ANGLE_UNIT ( ) );
#124 =( BOUNDED_SURFACE ( )  B_SPLINE_SURFACE ( 3, 3, ( 
 ( #229, #110, #106, #58 ),
 ( #161, #59, #38, #208 ),
 ( #129, #16, #131, #290 ),
 ( #80, #291, #159, #76 ) ),
 .UNSPECIFIED., .F., .F., .T. ) 
 B_SPLINE_SURFACE_WITH_KNOTS ( ( 4, 4 ),
 ( 4, 4 ),
 ( 0.0000000000000000000, 1.000000000000000000 ),
 ( 0.0000000000000000000, 1.000000000000000000 ),
 .UNSPECIFIED. ) 
 GEOMETRIC_REPRESENTATION_ITEM ( )  RATIONAL_B_SPLINE_SURFACE ( (
 ( 1.000000000000000000, 0.9935451224709179700, 0.9935451224709179700, 1.000000000000000000),
 ( 0.9740000908402778300, 0.9677130395405890700, 0.9677130395405890700, 0.9740000908402778300),
 ( 0.9740000908402778300, 0.9677130395405890700, 0.9677130395405890700, 0.9740000908402778300),
 ( 1.000000000000000000, 0.9935451224709179700, 0.9935451224709179700, 1.000000000000000000) ) ) 
 REPRESENTATION_ITEM ( '' )  SURFACE ( )  );
#125 = CYLINDRICAL_SURFACE ( 'NONE', #237, 6.349999999999999600 ) ;
#126 = APPLICATION_CONTEXT ( 'configuration controlled 3d designs of mechanical parts and assemblies' ) ;
#127 = LOCAL_TIME ( 12, 43, 43.00000000000000000, #33 ) ;
#128 = EDGE_CURVE ( 'NONE', #215, #262, #120, .T. ) ;
#129 = CARTESIAN_POINT ( 'NONE',  ( -9.227088388731010800E-015, 2.198565022790372600, -0.3100502225103940500 ) ) ;
#130 = PERSON ( 'UNSPECIFIED', 'UNSPECIFIED', 'UNSPECIFIED', ('UNSPECIFIED'), ('UNSPECIFIED'), ('UNSPECIFIED') ) ;
#131 = CARTESIAN_POINT ( 'NONE',  ( 4.364171066754196600, 2.198565022790371700, -0.005660350700752723000 ) ) ;
#132 = DIRECTION ( 'NONE',  ( 0.0000000000000000000, 0.0000000000000000000, 1.000000000000000000 ) ) ;
#133 = DIRECTION ( 'NONE',  ( 3.127268186378829300E-016, -1.000000000000000000, 0.0000000000000000000 ) ) ;
#134 = CARTESIAN_POINT ( 'NONE',  ( 2.498001805406600200E-016, 1.221245327087670000E-015, 2.615254529765370000 ) ) ;
#135 = EDGE_CURVE ( 'NONE', #87, #149, #245, .T. ) ;
#136 = CARTESIAN_POINT ( 'NONE',  ( 2.498001805406600200E-016, 1.221245327087670000E-015, 2.615254529765370000 ) ) ;
#137 = DATE_AND_TIME ( #178, #289 ) ;
#138 = CARTESIAN_POINT ( 'NONE',  ( 6.349999999999999600, 1.221245327087670000E-015, 2.615254529765370000 ) ) ;
#139 = CC_DESIGN_PERSON_AND_ORGANIZATION_ASSIGNMENT ( #220, #97, ( #10 ) ) ;
#140 = CALENDAR_DATE ( 2019, 4, 1 ) ;
#141 = ORIENTED_EDGE ( 'NONE', *, *, #48, .T. ) ;
#142 = ORIENTED_EDGE ( 'NONE', *, *, #144, .F. ) ;
#143 = CARTESIAN_POINT ( 'NONE',  ( -6.138016089917949900, 6.424207595748237400, 1.733625398488461500 ) ) ;
#144 = EDGE_CURVE ( 'NONE', #186, #223, #89, .T. ) ;
#145 = CARTESIAN_POINT ( 'NONE',  ( 9.227088388731010800E-015, 2.198565022790372600, 3.810050222510394000 ) ) ;
#146 = APPLICATION_CONTEXT ( 'configuration controlled 3d designs of mechanical parts and assemblies' ) ;
#147 = APPROVAL_ROLE ( '' ) ;
#148 =( BOUNDED_SURFACE ( )  B_SPLINE_SURFACE ( 3, 3, ( 
 ( #26, #216, #255, #88 ),
 ( #171, #257, #175, #25 ),
 ( #196, #95, #295, #259 ),
 ( #238, #47, #1, #51 ) ),
 .UNSPECIFIED., .F., .F., .F. ) 
 B_SPLINE_SURFACE_WITH_KNOTS ( ( 4, 4 ),
 ( 4, 4 ),
 ( 0.0000000000000000000, 1.000000000000000000 ),
 ( 0.0000000000000000000, 1.000000000000000000 ),
 .UNSPECIFIED. ) 
 GEOMETRIC_REPRESENTATION_ITEM ( )  RATIONAL_B_SPLINE_SURFACE ( (
 ( 1.000000000000000000, 0.9935451224709179700, 0.9935451224709179700, 1.000000000000000000),
 ( 0.9740000908402778300, 0.9677130395405890700, 0.9677130395405890700, 0.9740000908402778300),
 ( 0.9740000908402778300, 0.9677130395405890700, 0.9677130395405890700, 0.9740000908402778300),
 ( 1.000000000000000000, 0.9935451224709179700, 0.9935451224709179700, 1.000000000000000000) ) ) 
 REPRESENTATION_ITEM ( '' )  SURFACE ( )  );
#149 = VERTEX_POINT ( 'NONE', #11 ) ;
#150 = PERSON_AND_ORGANIZATION_ROLE ( 'design_supplier' ) ;
#151 = CIRCLE ( 'NONE', #224, 6.349999999999999600 ) ;
#152 = ORIENTED_EDGE ( 'NONE', *, *, #201, .F. ) ;
#153 = AXIS2_PLACEMENT_3D ( 'NONE', #252, #115, #232 ) ;
#154 = CIRCLE ( 'NONE', #239, 6.349999999999999600 ) ;
#155 = DESIGN_CONTEXT ( 'detailed design', #146, 'design' ) ;
#156 = COORDINATED_UNIVERSAL_TIME_OFFSET ( 2, 0, .AHEAD. ) ;
#157 = DIRECTION ( 'NONE',  ( 1.000000000000000000, 0.0000000000000000000, 0.0000000000000000000 ) ) ;
#158 = ORIENTED_EDGE ( 'NONE', *, *, #81, .F. ) ;
#159 = CARTESIAN_POINT ( 'NONE',  ( 4.138729472217848500, 6.424207595748236500, 1.194632726596731400 ) ) ;
#160 = CIRCLE ( 'NONE', #67, 6.349999999999999600 ) ;
#161 = CARTESIAN_POINT ( 'NONE',  ( -1.060218887902252100E-014, -2.198565022790365500, -0.3100502225103934400 ) ) ;
#162 = CARTESIAN_POINT ( 'NONE',  ( 2.498001805406600200E-016, 1.221245327087670000E-015, 0.8847454702346250200 ) ) ;
#163 = CALENDAR_DATE ( 2019, 4, 1 ) ;
#164 = ORIENTED_EDGE ( 'NONE', *, *, #213, .F. ) ;
#165 = CC_DESIGN_APPROVAL ( #103, ( #63 ) ) ;
#166 = CARTESIAN_POINT ( 'NONE',  ( 2.498001805406600200E-016, 1.221245327087670000E-015, 2.615254529765370000 ) ) ;
#167 = PERSON_AND_ORGANIZATION ( #130, #99 ) ;
#168 = CARTESIAN_POINT ( 'NONE',  ( 1.159502033353994300E-014, -6.424207595748234700, 2.594033165329481700 ) ) ;
#169 = EDGE_LOOP ( 'NONE', ( #263, #195, #44, #93, #191, #158 ) ) ;
#170 = CARTESIAN_POINT ( 'NONE',  ( -6.138016089917947200, -6.424207595748236500, 1.733625398488461500 ) ) ;
#171 = CARTESIAN_POINT ( 'NONE',  ( 6.472361241948246600, -2.198565022790365500, 2.902775005112340000 ) ) ;
#172 = CC_DESIGN_SECURITY_CLASSIFICATION ( #31, ( #63 ) ) ;
#173 = ADVANCED_FACE ( 'NONE', ( #102 ), #125, .T. ) ;
#174 = COORDINATED_UNIVERSAL_TIME_OFFSET ( 2, 0, .AHEAD. ) ;
#175 = CARTESIAN_POINT ( 'NONE',  ( 2.192700744449629400, -2.198565022790367700, 3.810050222510393600 ) ) ;
#176 = CARTESIAN_POINT ( 'NONE',  ( -2.079431593307594600, -6.424207595748236500, 2.594033165329483000 ) ) ;
#177 = EDGE_LOOP ( 'NONE', ( #286, #219, #100 ) ) ;
#178 = CALENDAR_DATE ( 2019, 4, 1 ) ;
#179 =( GEOMETRIC_REPRESENTATION_CONTEXT ( 3 ) GLOBAL_UNCERTAINTY_ASSIGNED_CONTEXT ( ( #13 ) ) GLOBAL_UNIT_ASSIGNED_CONTEXT ( ( #24, #272, #123 ) ) REPRESENTATION_CONTEXT ( 'NONE', 'WORKASPACE' ) );
#180 = PERSON_AND_ORGANIZATION_ROLE ( 'classification_officer' ) ;
#181 = CC_DESIGN_PERSON_AND_ORGANIZATION_ASSIGNMENT ( #21, #180, ( #31 ) ) ;
#182 = LOCAL_TIME ( 12, 43, 43.00000000000000000, #293 ) ;
#183 = DIRECTION ( 'NONE',  ( -0.0000000000000000000, -0.0000000000000000000, -1.000000000000000000 ) ) ;
#184 = DIRECTION ( 'NONE',  ( 1.000000000000000000, -3.127268186378829800E-016, -2.702596169056860000E-016 ) ) ;
#185 = CARTESIAN_POINT ( 'NONE',  ( -3.552713678800500100E-015, 1.776356839400250100E-015, 23.23000000000000000 ) ) ;
#186 = VERTEX_POINT ( 'NONE', #205 ) ;
#187 = DIRECTION ( 'NONE',  ( -0.0000000000000000000, -0.0000000000000000000, -1.000000000000000000 ) ) ;
#188 = CIRCLE ( 'NONE', #207, 6.349999999999999600 ) ;
#189 = CARTESIAN_POINT ( 'NONE',  ( -6.349999999999999600, 1.998896044546239400E-015, 0.8847454702346250200 ) ) ;
#190 = DIRECTION ( 'NONE',  ( 1.000000000000000000, 0.0000000000000000000, 0.0000000000000000000 ) ) ;
#191 = ORIENTED_EDGE ( 'NONE', *, *, #128, .F. ) ;
#192 = DIRECTION ( 'NONE',  ( 0.0000000000000000000, 0.0000000000000000000, 1.000000000000000000 ) ) ;
#193 = PERSON_AND_ORGANIZATION ( #130, #99 ) ;
#194 = CARTESIAN_POINT ( 'NONE',  ( -6.472361241948228800, -2.198565022790370400, 2.902775005112341800 ) ) ;
#195 = ORIENTED_EDGE ( 'NONE', *, *, #14, .T. ) ;
#196 = CARTESIAN_POINT ( 'NONE',  ( 6.472361241948244800, 2.198565022790374400, 2.902775005112340400 ) ) ;
#197 = APPROVAL ( #283, 'UNSPECIFIED' ) ;
#198 = SECURITY_CLASSIFICATION_LEVEL ( 'unclassified' ) ;
#199 = ADVANCED_FACE ( 'NONE', ( #203 ), #124, .T. ) ;
#200 = APPROVAL_STATUS ( 'not_yet_approved' ) ;
#201 = EDGE_CURVE ( 'NONE', #186, #250, #271, .T. ) ;
#202 = CARTESIAN_POINT ( 'NONE',  ( 2.498001805406600200E-016, 1.221245327087670000E-015, 0.8847454702346250200 ) ) ;
#203 = FACE_OUTER_BOUND ( 'NONE', #69, .T. ) ;
#204 = PERSON_AND_ORGANIZATION ( #130, #99 ) ;
#205 = CARTESIAN_POINT ( 'NONE',  ( -1.157754890602549100E-014, -6.349999999999999600, 0.8847454702346249100 ) ) ;
#206 = CARTESIAN_POINT ( 'NONE',  ( 6.349999999999999600, 1.221245327087670000E-015, 0.8847454702346250200 ) ) ;
#207 = AXIS2_PLACEMENT_3D ( 'NONE', #136, #82, #292 ) ;
#208 = CARTESIAN_POINT ( 'NONE',  ( 6.472361241948227000, -2.198565022790368100, 0.5972249948876585700 ) ) ;
#209 = CARTESIAN_POINT ( 'NONE',  ( 2.498001805406600200E-016, 1.221245327087670000E-015, 2.615254529765370000 ) ) ;
#210 = PRODUCT_RELATED_PRODUCT_CATEGORY ( 'detail', '', ( #30 ) ) ;
#211 = DIRECTION ( 'NONE',  ( 1.000000000000000000, 0.0000000000000000000, 0.0000000000000000000 ) ) ;
#212 = EDGE_LOOP ( 'NONE', ( #74, #260, #60 ) ) ;
#213 = EDGE_CURVE ( 'NONE', #215, #186, #226, .T. ) ;
#214 = CARTESIAN_POINT ( 'NONE',  ( 1.060218887902252300E-014, -2.198565022790367700, 3.810050222510394000 ) ) ;
#215 = VERTEX_POINT ( 'NONE', #206 ) ;
#216 = CARTESIAN_POINT ( 'NONE',  ( 4.138729472217867100, -6.424207595748234700, 2.305367273403267100 ) ) ;
#217 = AXIS2_PLACEMENT_3D ( 'NONE', #230, #288, #157 ) ;
#218 = APPLICATION_PROTOCOL_DEFINITION ( 'international standard', 'config_control_design', 1994, #146 ) ;
#219 = ORIENTED_EDGE ( 'NONE', *, *, #135, .T. ) ;
#220 = PERSON_AND_ORGANIZATION ( #130, #99 ) ;
#221 = ADVANCED_FACE ( 'NONE', ( #55 ), #116, .T. ) ;
#222 = PERSON_AND_ORGANIZATION_ROLE ( 'design_owner' ) ;
#223 = VERTEX_POINT ( 'NONE', #268 ) ;
#224 = AXIS2_PLACEMENT_3D ( 'NONE', #166, #20, #190 ) ;
#225 = DATE_AND_TIME ( #85, #270 ) ;
#226 = CIRCLE ( 'NONE', #112, 6.349999999999999600 ) ;
#227 = CARTESIAN_POINT ( 'NONE',  ( -6.349999999999999600, 1.998896044546239400E-015, 2.615254529765370000 ) ) ;
#228 = CARTESIAN_POINT ( 'NONE',  ( 6.349999999999999600, 1.221245327087670000E-015, 0.8847454702346250200 ) ) ;
#229 = CARTESIAN_POINT ( 'NONE',  ( -1.159502033353994000E-014, -6.424207595748231200, 0.9059668346705178600 ) ) ;
#230 = CARTESIAN_POINT ( 'NONE',  ( 2.498001805406600200E-016, 1.221245327087670000E-015, 0.8847454702346250200 ) ) ;
#231 = CARTESIAN_POINT ( 'NONE',  ( 2.498001805406600200E-016, 1.221245327087670000E-015, 0.8847454702346250200 ) ) ;
#232 = DIRECTION ( 'NONE',  ( 1.000000000000000000, -1.776356839400250500E-015, 0.0000000000000000000 ) ) ;
#233 = DATE_AND_TIME ( #114, #182 ) ;
#234 = CARTESIAN_POINT ( 'NONE',  ( -2.192700744449629400, 2.198565022790377500, -0.3100502225103911600 ) ) ;
#235 = CYLINDRICAL_SURFACE ( 'NONE', #7, 6.349999999999999600 ) ;
#236 = CARTESIAN_POINT ( 'NONE',  ( -2.079431593307599500, 6.424207595748239200, 2.594033165329483000 ) ) ;
#237 = AXIS2_PLACEMENT_3D ( 'NONE', #162, #246, #267 ) ;
#238 = CARTESIAN_POINT ( 'NONE',  ( 6.138016089917963200, 6.424207595748241000, 1.733625398488460000 ) ) ;
#239 = AXIS2_PLACEMENT_3D ( 'NONE', #209, #64, #269 ) ;
#240 = CARTESIAN_POINT ( 'NONE',  ( -1.474514954580286000E-014, 6.424207595748242700, 0.9059668346705205300 ) ) ;
#241 = ADVANCED_FACE ( 'NONE', ( #294 ), #148, .T. ) ;
#242 = CARTESIAN_POINT ( 'NONE',  ( -2.192700744449605800, -2.198565022790369500, 3.810050222510394500 ) ) ;
#243 = APPROVAL_ROLE ( '' ) ;
#244 = VERTEX_POINT ( 'NONE', #227 ) ;
#245 = CIRCLE ( 'NONE', #28, 23.23000000000000000 ) ;
#246 = DIRECTION ( 'NONE',  ( 0.0000000000000000000, 0.0000000000000000000, 1.000000000000000000 ) ) ;
#247 = CARTESIAN_POINT ( 'NONE',  ( -1.821459649775647400E-014, -6.424207595748231200, 0.9059668346705175300 ) ) ;
#248 = DATE_AND_TIME ( #163, #127 ) ;
#249 = CARTESIAN_POINT ( 'NONE',  ( -4.138729472217867100, -6.424207595748231200, 1.194632726596732500 ) ) ;
#250 = VERTEX_POINT ( 'NONE', #277 ) ;
#251 = APPROVAL_PERSON_ORGANIZATION ( #18, #42, #147 ) ;
#252 = CARTESIAN_POINT ( 'NONE',  ( 2.498001805406600200E-016, 1.221245327087670000E-015, 0.8847454702346250200 ) ) ;
#253 = CARTESIAN_POINT ( 'NONE',  ( -4.364171066754218800, -2.198565022790363300, -0.005660350700751096700 ) ) ;
#254 = COORDINATED_UNIVERSAL_TIME_OFFSET ( 2, 0, .AHEAD. ) ;
#255 = CARTESIAN_POINT ( 'NONE',  ( 2.079431593307621700, -6.424207595748234700, 2.594033165329481200 ) ) ;
#256 = CARTESIAN_POINT ( 'NONE',  ( 0.0000000000000000000, 0.0000000000000000000, 0.0000000000000000000 ) ) ;
#257 = CARTESIAN_POINT ( 'NONE',  ( 4.364171066754218800, -2.198565022790367300, 3.505660350700751800 ) ) ;
#258 = CC_DESIGN_DATE_AND_TIME_ASSIGNMENT ( #225, #279, ( #10 ) ) ;
#259 = CARTESIAN_POINT ( 'NONE',  ( 1.647987302177967100E-014, 2.198565022790372100, 3.810050222510394900 ) ) ;
#260 = ORIENTED_EDGE ( 'NONE', *, *, #48, .F. ) ;
#261 = LOCAL_TIME ( 12, 43, 43.00000000000000000, #174 ) ;
#262 = VERTEX_POINT ( 'NONE', #138 ) ;
#263 = ORIENTED_EDGE ( 'NONE', *, *, #32, .F. ) ;
#264 = ORIENTED_EDGE ( 'NONE', *, *, #144, .T. ) ;
#265 = DIRECTION ( 'NONE',  ( 0.0000000000000000000, 0.0000000000000000000, 1.000000000000000000 ) ) ;
#266 = EDGE_LOOP ( 'NONE', ( #152, #264, #285 ) ) ;
#267 = DIRECTION ( 'NONE',  ( 1.000000000000000000, 0.0000000000000000000, 0.0000000000000000000 ) ) ;
#268 = CARTESIAN_POINT ( 'NONE',  ( -6.349999999999999600, 1.998896044546239400E-015, 0.8847454702346250200 ) ) ;
#269 = DIRECTION ( 'NONE',  ( 1.000000000000000000, -8.881784197001252300E-016, 0.0000000000000000000 ) ) ;
#270 = LOCAL_TIME ( 12, 43, 43.00000000000000000, #156 ) ;
#271 = CIRCLE ( 'NONE', #3, 23.23000000000000000 ) ;
#272 =( NAMED_UNIT ( * ) PLANE_ANGLE_UNIT ( ) SI_UNIT ( $, .RADIAN. ) );
#273 = CARTESIAN_POINT ( 'NONE',  ( -4.138729472217850300, 6.424207595748239200, 2.305367273403268900 ) ) ;
#274 = CARTESIAN_POINT ( 'NONE',  ( 7.576976326164605000E-015, 6.424207595748239200, 2.594033165329481700 ) ) ;
#275 = FACE_OUTER_BOUND ( 'NONE', #177, .T. ) ;
#276 = CARTESIAN_POINT ( 'NONE',  ( -4.138729472217863600, 6.424207595748244500, 1.194632726596736000 ) ) ;
#277 = CARTESIAN_POINT ( 'NONE',  ( -7.605918309324376800E-015, 6.350000000000002300, 0.8847454702346283500 ) ) ;
#278 = CC_DESIGN_PERSON_AND_ORGANIZATION_ASSIGNMENT ( #204, #150, ( #63 ) ) ;
#279 = DATE_TIME_ROLE ( 'creation_date' ) ;
#280 = ADVANCED_FACE ( 'NONE', ( #275 ), #52, .T. ) ;
#281 = DIRECTION ( 'NONE',  ( 1.000000000000000000, 0.0000000000000000000, 0.0000000000000000000 ) ) ;
#282 = EDGE_LOOP ( 'NONE', ( #8, #142, #164, #118, #141, #105 ) ) ;
#283 = APPROVAL_STATUS ( 'not_yet_approved' ) ;
#284 = MECHANICAL_CONTEXT ( 'NONE', #126, 'mechanical' ) ;
#285 = ORIENTED_EDGE ( 'NONE', *, *, #32, .T. ) ;
#286 = ORIENTED_EDGE ( 'NONE', *, *, #104, .F. ) ;
#287 = CARTESIAN_POINT ( 'NONE',  ( 2.498001805406600200E-016, 1.221245327087670000E-015, 0.8847454702346250200 ) ) ;
#288 = DIRECTION ( 'NONE',  ( -0.0000000000000000000, -0.0000000000000000000, -1.000000000000000000 ) ) ;
#289 = LOCAL_TIME ( 12, 43, 43.00000000000000000, #254 ) ;
#290 = CARTESIAN_POINT ( 'NONE',  ( 6.472361241948228800, 2.198565022790370400, 0.5972249948876579000 ) ) ;
#291 = CARTESIAN_POINT ( 'NONE',  ( 2.079431593307599500, 6.424207595748237400, 0.9059668346705173100 ) ) ;
#292 = DIRECTION ( 'NONE',  ( 1.000000000000000000, 0.0000000000000000000, 0.0000000000000000000 ) ) ;
#293 = COORDINATED_UNIVERSAL_TIME_OFFSET ( 2, 0, .AHEAD. ) ;
#294 = FACE_OUTER_BOUND ( 'NONE', #212, .T. ) ;
#295 = CARTESIAN_POINT ( 'NONE',  ( 2.192700744449628900, 2.198565022790373500, 3.810050222510393600 ) ) ;
ENDSEC;
END-ISO-10303-21;
