ISO-10303-21;
HEADER;
FILE_DESCRIPTION (( 'STEP AP203' ),
    '1' );
FILE_NAME ('111-1104E UVFS bi-cx 12.7 F12.7.STEP',
    '2019-01-04T10:33:54',
    ( '' ),
    ( '' ),
    'SwSTEP 2.0',
    'SolidWorks 2017',
    '' );
FILE_SCHEMA (( 'CONFIG_CONTROL_DESIGN' ));
ENDSEC;

DATA;
#1 = APPROVAL_ROLE ( '' ) ;
#2 = AXIS2_PLACEMENT_3D ( 'NONE', #198, #68, #174 ) ;
#3 = CARTESIAN_POINT ( 'NONE',  ( 1.776356839400250500E-015, 2.442601144828924700, 6.783543120425753700 ) ) ;
#4 = DIRECTION ( 'NONE',  ( 0.0000000000000000000, 0.0000000000000000000, 1.000000000000000000 ) ) ;
#5 = CALENDAR_DATE ( 2019, 4, 1 ) ;
#6 =( LENGTH_UNIT ( ) NAMED_UNIT ( * ) SI_UNIT ( .MILLI., .METRE. ) );
#7 = CIRCLE ( 'NONE', #235, 6.349999999999999600 ) ;
#8 = VECTOR ( 'NONE', #4, 1000.000000000000000 ) ;
#9 = CALENDAR_DATE ( 2019, 4, 1 ) ;
#10 = FACE_OUTER_BOUND ( 'NONE', #242, .T. ) ;
#11 = ADVANCED_FACE ( 'NONE', ( #10 ), #218, .T. ) ;
#12 = CARTESIAN_POINT ( 'NONE',  ( 2.498001805406600200E-016, 1.221245327087670000E-015, 2.011219594645850400 ) ) ;
#13 = CC_DESIGN_SECURITY_CLASSIFICATION ( #55, ( #293 ) ) ;
#14 = CARTESIAN_POINT ( 'NONE',  ( 5.204170427930421300E-015, -6.416219619127216900, 3.941790557025221600 ) ) ;
#15 = CARTESIAN_POINT ( 'NONE',  ( 1.875535457933899900, -6.416219619127219600, 2.058209442974778400 ) ) ;
#16 = CARTESIAN_POINT ( 'NONE',  ( 5.192050068258888400, -6.416219619127217800, 2.286805442802195600 ) ) ;
#17 = CARTESIAN_POINT ( 'NONE',  ( 5.204170427930422900E-015, -2.442601144828920200, 6.783543120425753700 ) ) ;
#18 = VERTEX_POINT ( 'NONE', #105 ) ;
#19 = DIRECTION ( 'NONE',  ( -0.0000000000000000000, -0.0000000000000000000, -1.000000000000000000 ) ) ;
#20 = ORIENTED_EDGE ( 'NONE', *, *, #101, .T. ) ;
#21 = CC_DESIGN_APPROVAL ( #164, ( #245 ) ) ;
#22 = CARTESIAN_POINT ( 'NONE',  ( -5.192050068258888400, -6.416219619127218700, 3.713194557197804900 ) ) ;
#23 = CARTESIAN_POINT ( 'NONE',  ( 1.776356839400250100E-015, -6.349999999999999600, 3.988780405354149600 ) ) ;
#24 = APPROVAL_STATUS ( 'not_yet_approved' ) ;
#25 = APPROVAL ( #24, 'UNSPECIFIED' ) ;
#26 = CARTESIAN_POINT ( 'NONE',  ( 0.0000000000000000000, 0.0000000000000000000, 0.0000000000000000000 ) ) ;
#27 = CARTESIAN_POINT ( 'NONE',  ( -3.662486046500291500, -6.416219619127218700, 3.372193464345184300 ) ) ;
#28 = CC_DESIGN_PERSON_AND_ORGANIZATION_ASSIGNMENT ( #98, #271, ( #245 ) ) ;
#29 = PRODUCT_RELATED_PRODUCT_CATEGORY ( 'detail', '', ( #82 ) ) ;
#30 = SECURITY_CLASSIFICATION_LEVEL ( 'unclassified' ) ;
#31 = EDGE_LOOP ( 'NONE', ( #244, #229, #176 ) ) ;
#32 = DATE_AND_TIME ( #5, #210 ) ;
#33 = LOCAL_TIME ( 12, 33, 54.00000000000000000, #90 ) ;
#34 = DIRECTION ( 'NONE',  ( 0.0000000000000000000, 0.0000000000000000000, 1.000000000000000000 ) ) ;
#35 = CARTESIAN_POINT ( 'NONE',  ( 2.469598333282548200, -2.442601144828921500, -0.7835431204257531400 ) ) ;
#36 = DIRECTION ( 'NONE',  ( 1.000000000000000000, 0.0000000000000000000, 0.0000000000000000000 ) ) ;
#37 = CARTESIAN_POINT ( 'NONE',  ( 3.662486046500292000, -6.416219619127219600, 2.627806535654816600 ) ) ;
#38 = CARTESIAN_POINT ( 'NONE',  ( 2.498001805406600200E-016, 1.221245327087670000E-015, 2.011219594645850400 ) ) ;
#39 = CC_DESIGN_PERSON_AND_ORGANIZATION_ASSIGNMENT ( #56, #232, ( #293 ) ) ;
#40 = DIRECTION ( 'NONE',  ( 0.0000000000000000000, 0.0000000000000000000, 1.000000000000000000 ) ) ;
#41 = EDGE_LOOP ( 'NONE', ( #50, #114, #148 ) ) ;
#42 = DIRECTION ( 'NONE',  ( 1.000000000000000000, 0.0000000000000000000, 0.0000000000000000000 ) ) ;
#43 = CARTESIAN_POINT ( 'NONE',  ( -6.349999999999999600, 1.998896044546239400E-015, 2.011219594645850400 ) ) ;
#44 = LOCAL_TIME ( 12, 33, 54.00000000000000000, #144 ) ;
#45 = CARTESIAN_POINT ( 'NONE',  ( 2.498001805406600200E-016, 1.221245327087670000E-015, 3.988780405354150500 ) ) ;
#46 = CIRCLE ( 'NONE', #107, 6.349999999999999600 ) ;
#47 = CC_DESIGN_DATE_AND_TIME_ASSIGNMENT ( #285, #250, ( #245 ) ) ;
#48 = CARTESIAN_POINT ( 'NONE',  ( -5.192050068258886600, 6.416219619127221400, 2.286805442802193300 ) ) ;
#49 = CARTESIAN_POINT ( 'NONE',  ( 1.776356839400250100E-015, -6.416219619127217800, 3.941790557025222500 ) ) ;
#50 = ORIENTED_EDGE ( 'NONE', *, *, #143, .F. ) ;
#51 = DIRECTION ( 'NONE',  ( 0.0000000000000000000, -1.000000000000000000, 0.0000000000000000000 ) ) ;
#52 = PERSON_AND_ORGANIZATION_ROLE ( 'design_owner' ) ;
#53 = APPROVAL_DATE_TIME ( #172, #211 ) ;
#54 = ORIENTED_EDGE ( 'NONE', *, *, #161, .T. ) ;
#55 = SECURITY_CLASSIFICATION ( '', '', #30 ) ;
#56 = PERSON_AND_ORGANIZATION ( #169, #59 ) ;
#57 = CARTESIAN_POINT ( 'NONE',  ( -5.204170427930422900E-015, 2.442601144828921500, -0.7835431204257533600 ) ) ;
#58 = DIRECTION ( 'NONE',  ( 1.000000000000000000, 0.0000000000000000000, 0.0000000000000000000 ) ) ;
#59 = ORGANIZATION ( 'UNSPECIFIED', 'UNSPECIFIED', '' ) ;
#60 = CARTESIAN_POINT ( 'NONE',  ( 4.822553152938835900, 2.442601144828921500, -0.03353009093346750300 ) ) ;
#61 = ADVANCED_FACE ( 'NONE', ( #166 ), #162, .T. ) ;
#62 = CARTESIAN_POINT ( 'NONE',  ( -3.662486046500296000, 6.416219619127221400, 2.627806535654815300 ) ) ;
#63 = AXIS2_PLACEMENT_3D ( 'NONE', #246, #171, #42 ) ;
#64 = CARTESIAN_POINT ( 'NONE',  ( -4.336808689942017700E-015, -6.416219619127218700, 2.058209442974777900 ) ) ;
#65 = APPROVAL_STATUS ( 'not_yet_approved' ) ;
#66 = AXIS2_PLACEMENT_3D ( 'NONE', #26, #179, #256 ) ;
#67 = ORIENTED_EDGE ( 'NONE', *, *, #135, .F. ) ;
#68 = DIRECTION ( 'NONE',  ( -0.0000000000000000000, -0.0000000000000000000, -1.000000000000000000 ) ) ;
#69 = VECTOR ( 'NONE', #40, 1000.000000000000000 ) ;
#70 = ORIENTED_EDGE ( 'NONE', *, *, #77, .F. ) ;
#71 = DIRECTION ( 'NONE',  ( 1.000000000000000000, -8.881784197001252300E-016, 0.0000000000000000000 ) ) ;
#72 = PERSON_AND_ORGANIZATION ( #169, #59 ) ;
#73 = DIRECTION ( 'NONE',  ( -0.0000000000000000000, -0.0000000000000000000, -1.000000000000000000 ) ) ;
#74 = LINE ( 'NONE', #290, #69 ) ;
#75 = PERSON_AND_ORGANIZATION_ROLE ( 'creator' ) ;
#76 = ADVANCED_BREP_SHAPE_REPRESENTATION ( '111-1104E UVFS bi-cx 12.7 F12.7', ( #191, #66 ), #287 ) ;
#77 = EDGE_CURVE ( 'NONE', #204, #18, #295, .T. ) ;
#78 = VERTEX_POINT ( 'NONE', #150 ) ;
#79 = CIRCLE ( 'NONE', #96, 11.02999999999999900 ) ;
#80 = CARTESIAN_POINT ( 'NONE',  ( 5.192050068258888400, 6.416219619127219600, 3.713194557197804900 ) ) ;
#81 = CARTESIAN_POINT ( 'NONE',  ( 3.662486046500296000, 6.416219619127222300, 3.372193464345183400 ) ) ;
#82 = PRODUCT ( '111-1104E UVFS bi-cx 12.7 F12.7', '111-1104E UVFS bi-cx 12.7 F12.7', '', ( #226 ) ) ;
#83 = CARTESIAN_POINT ( 'NONE',  ( 6.836595992174299100, 2.442601144828921500, 1.395647074248059800 ) ) ;
#84 = CARTESIAN_POINT ( 'NONE',  ( 5.204170427930422900E-015, 2.442601144828923300, 6.783543120425753700 ) ) ;
#85 = APPROVAL_PERSON_ORGANIZATION ( #269, #25, #115 ) ;
#86 = CARTESIAN_POINT ( 'NONE',  ( 2.469598333282553100, 2.442601144828923300, 6.783543120425751000 ) ) ;
#87 = ORIENTED_EDGE ( 'NONE', *, *, #258, .F. ) ;
#88 = CARTESIAN_POINT ( 'NONE',  ( 2.498001805406600200E-016, 1.221245327087670000E-015, 3.988780405354150500 ) ) ;
#89 = DESIGN_CONTEXT ( 'detailed design', #253, 'design' ) ;
#90 = COORDINATED_UNIVERSAL_TIME_OFFSET ( 2, 0, .AHEAD. ) ;
#91 = CARTESIAN_POINT ( 'NONE',  ( -6.836595992174296500, 2.442601144828924700, 4.604352925751939600 ) ) ;
#92 = APPLICATION_CONTEXT ( 'configuration controlled 3d designs of mechanical parts and assemblies' ) ;
#93 = COORDINATED_UNIVERSAL_TIME_OFFSET ( 2, 0, .AHEAD. ) ;
#94 =( BOUNDED_SURFACE ( )  B_SPLINE_SURFACE ( 3, 3, ( 
 ( #49, #136, #27, #227 ),
 ( #255, #203, #156, #117 ),
 ( #3, #159, #272, #91 ),
 ( #274, #180, #177, #48 ) ),
 .UNSPECIFIED., .F., .F., .T. ) 
 B_SPLINE_SURFACE_WITH_KNOTS ( ( 4, 4 ),
 ( 4, 4 ),
 ( 0.0000000000000000000, 1.000000000000000000 ),
 ( 0.0000000000000000000, 1.000000000000000000 ),
 .UNSPECIFIED. ) 
 GEOMETRIC_REPRESENTATION_ITEM ( )  RATIONAL_B_SPLINE_SURFACE ( (
 ( 1.000000000000000000, 0.9685121497818034400, 0.9685121497818034400, 1.000000000000000000),
 ( 0.8755993083726335600, 0.8480285684994395300, 0.8480285684994395300, 0.8755993083726335600),
 ( 0.8755993083726335600, 0.8480285684994395300, 0.8480285684994395300, 0.8755993083726335600),
 ( 1.000000000000000000, 0.9685121497818034400, 0.9685121497818034400, 1.000000000000000000) ) ) 
 REPRESENTATION_ITEM ( '' )  SURFACE ( )  );
#95 = DIRECTION ( 'NONE',  ( 1.000000000000000000, -8.881784197001252300E-016, 0.0000000000000000000 ) ) ;
#96 = AXIS2_PLACEMENT_3D ( 'NONE', #97, #230, #51 ) ;
#97 = CARTESIAN_POINT ( 'NONE',  ( -1.776356839400250100E-015, 1.776356839400250100E-015, 11.02999999999999900 ) ) ;
#98 = PERSON_AND_ORGANIZATION ( #169, #59 ) ;
#99 = FACE_OUTER_BOUND ( 'NONE', #134, .T. ) ;
#100 = CC_DESIGN_PERSON_AND_ORGANIZATION_ASSIGNMENT ( #72, #182, ( #55 ) ) ;
#101 = EDGE_CURVE ( 'NONE', #121, #122, #102, .T. ) ;
#102 = CIRCLE ( 'NONE', #2, 6.349999999999999600 ) ;
#103 = CARTESIAN_POINT ( 'NONE',  ( 4.822553152938836800, -2.442601144828920200, 6.033530090933465900 ) ) ;
#104 = PERSON_AND_ORGANIZATION ( #169, #59 ) ;
#105 = CARTESIAN_POINT ( 'NONE',  ( -6.349999999999999600, 1.998896044546239400E-015, 3.988780405354150500 ) ) ;
#106 = ORIENTED_EDGE ( 'NONE', *, *, #186, .F. ) ;
#107 = AXIS2_PLACEMENT_3D ( 'NONE', #275, #181, #95 ) ;
#108 = CARTESIAN_POINT ( 'NONE',  ( -1.776356839400250100E-015, -6.416219619127218700, 2.058209442974778400 ) ) ;
#109 = CARTESIAN_POINT ( 'NONE',  ( 1.875535457933904500, 6.416219619127223200, 3.941790557025222100 ) ) ;
#110 = CARTESIAN_POINT ( 'NONE',  ( 1.875535457933900100, 6.416219619127220500, 2.058209442974776600 ) ) ;
#111 = DIRECTION ( 'NONE',  ( -0.0000000000000000000, -0.0000000000000000000, -1.000000000000000000 ) ) ;
#112 = DIRECTION ( 'NONE',  ( 1.000000000000000000, 0.0000000000000000000, 0.0000000000000000000 ) ) ;
#113 = AXIS2_PLACEMENT_3D ( 'NONE', #214, #260, #170 ) ;
#114 = ORIENTED_EDGE ( 'NONE', *, *, #118, .F. ) ;
#115 = APPROVAL_ROLE ( '' ) ;
#116 = APPLICATION_PROTOCOL_DEFINITION ( 'international standard', 'config_control_design', 1994, #253 ) ;
#117 = CARTESIAN_POINT ( 'NONE',  ( -6.836595992174299100, -2.442601144828920200, 4.604352925751941300 ) ) ;
#118 = EDGE_CURVE ( 'NONE', #78, #204, #237, .T. ) ;
#119 = ORIENTED_EDGE ( 'NONE', *, *, #161, .F. ) ;
#120 = APPROVAL_STATUS ( 'not_yet_approved' ) ;
#121 = VERTEX_POINT ( 'NONE', #154 ) ;
#122 = VERTEX_POINT ( 'NONE', #217 ) ;
#123 = UNCERTAINTY_MEASURE_WITH_UNIT (LENGTH_MEASURE( 1.000000000000000100E-005 ), #6, 'distance_accuracy_value', 'NONE');
#124 = ADVANCED_FACE ( 'NONE', ( #185 ), #175, .T. ) ;
#125 = CARTESIAN_POINT ( 'NONE',  ( -5.192050068258889300, 6.416219619127219600, 3.713194557197804000 ) ) ;
#126 = CARTESIAN_POINT ( 'NONE',  ( 6.836595992174298300, -2.442601144828921500, 1.395647074248060900 ) ) ;
#127 = ORIENTED_EDGE ( 'NONE', *, *, #194, .T. ) ;
#128 = CARTESIAN_POINT ( 'NONE',  ( -6.836595992174299100, 2.442601144828921500, 1.395647074248059300 ) ) ;
#129 = CARTESIAN_POINT ( 'NONE',  ( 3.662486046500293300, 6.416219619127220500, 2.627806535654815300 ) ) ;
#130 = ORIENTED_EDGE ( 'NONE', *, *, #173, .F. ) ;
#131 = PERSON_AND_ORGANIZATION ( #169, #59 ) ;
#132 = CARTESIAN_POINT ( 'NONE',  ( 5.192050068258889300, 6.416219619127220500, 2.286805442802194700 ) ) ;
#133 = ADVANCED_FACE ( 'NONE', ( #278 ), #151, .T. ) ;
#134 = EDGE_LOOP ( 'NONE', ( #70, #167, #67 ) ) ;
#135 = EDGE_CURVE ( 'NONE', #18, #273, #259, .T. ) ;
#136 = CARTESIAN_POINT ( 'NONE',  ( -1.875535457933899900, -6.416219619127218700, 3.941790557025222500 ) ) ;
#137 = ORIENTED_EDGE ( 'NONE', *, *, #206, .F. ) ;
#138 = CARTESIAN_POINT ( 'NONE',  ( 1.776356839400250100E-015, 6.350000000000002300, 3.988780405354150500 ) ) ;
#139 = SHAPE_DEFINITION_REPRESENTATION ( #208, #76 ) ;
#140 = ORIENTED_EDGE ( 'NONE', *, *, #233, .T. ) ;
#141 = AXIS2_PLACEMENT_3D ( 'NONE', #201, #73, #71 ) ;
#142 = VERTEX_POINT ( 'NONE', #43 ) ;
#143 = EDGE_CURVE ( 'NONE', #204, #273, #183, .T. ) ;
#144 = COORDINATED_UNIVERSAL_TIME_OFFSET ( 2, 0, .AHEAD. ) ;
#145 = CARTESIAN_POINT ( 'NONE',  ( 4.336808689942017700E-015, 6.416219619127221400, 3.941790557025221600 ) ) ;
#146 = CARTESIAN_POINT ( 'NONE',  ( -1.875535457933904100, -6.416219619127220500, 2.058209442974778400 ) ) ;
#147 = CARTESIAN_POINT ( 'NONE',  ( -5.204170427930422900E-015, -2.442601144828921500, -0.7835431204257540200 ) ) ;
#148 = ORIENTED_EDGE ( 'NONE', *, *, #233, .F. ) ;
#149 = LOCAL_TIME ( 12, 33, 54.00000000000000000, #93 ) ;
#150 = CARTESIAN_POINT ( 'NONE',  ( 6.349999999999999600, 1.221245327087670000E-015, 3.988780405354150500 ) ) ;
#151 =( BOUNDED_SURFACE ( )  B_SPLINE_SURFACE ( 3, 3, ( 
 ( #16, #196, #221, #14 ),
 ( #216, #103, #241, #17 ),
 ( #168, #188, #86, #84 ),
 ( #132, #81, #109, #145 ) ),
 .UNSPECIFIED., .F., .F., .F. ) 
 B_SPLINE_SURFACE_WITH_KNOTS ( ( 4, 4 ),
 ( 4, 4 ),
 ( 0.0000000000000000000, 1.000000000000000000 ),
 ( 0.0000000000000000000, 1.000000000000000000 ),
 .UNSPECIFIED. ) 
 GEOMETRIC_REPRESENTATION_ITEM ( )  RATIONAL_B_SPLINE_SURFACE ( (
 ( 1.000000000000000000, 0.9685121497818035600, 0.9685121497818035600, 1.000000000000000000),
 ( 0.8755993083726335600, 0.8480285684994396400, 0.8480285684994396400, 0.8755993083726335600),
 ( 0.8755993083726335600, 0.8480285684994396400, 0.8480285684994396400, 0.8755993083726335600),
 ( 1.000000000000000000, 0.9685121497818035600, 0.9685121497818035600, 1.000000000000000000) ) ) 
 REPRESENTATION_ITEM ( '' )  SURFACE ( )  );
#152 = CARTESIAN_POINT ( 'NONE',  ( -2.469598333282553100, 2.442601144828921100, -0.7835431204257528000 ) ) ;
#153 = CC_DESIGN_PERSON_AND_ORGANIZATION_ASSIGNMENT ( #131, #75, ( #293 ) ) ;
#154 = CARTESIAN_POINT ( 'NONE',  ( 6.349999999999999600, 1.221245327087670000E-015, 2.011219594645850400 ) ) ;
#155 = APPROVAL_DATE_TIME ( #207, #164 ) ;
#156 = CARTESIAN_POINT ( 'NONE',  ( -4.822553152938835900, -2.442601144828919300, 6.033530090933467700 ) ) ;
#157 = APPROVAL_PERSON_ORGANIZATION ( #104, #211, #279 ) ;
#158 = CARTESIAN_POINT ( 'NONE',  ( -1.776356839400250100E-015, 6.350000000000002300, 2.011219594645850000 ) ) ;
#159 = CARTESIAN_POINT ( 'NONE',  ( -2.469598333282548200, 2.442601144828924200, 6.783543120425751000 ) ) ;
#160 = CC_DESIGN_APPROVAL ( #211, ( #55 ) ) ;
#161 = EDGE_CURVE ( 'NONE', #234, #121, #7, .T. ) ;
#162 = CYLINDRICAL_SURFACE ( 'NONE', #240, 6.349999999999999600 ) ;
#163 = ORIENTED_EDGE ( 'NONE', *, *, #101, .F. ) ;
#164 = APPROVAL ( #65, 'UNSPECIFIED' ) ;
#165 = PERSON_AND_ORGANIZATION ( #169, #59 ) ;
#166 = FACE_OUTER_BOUND ( 'NONE', #225, .T. ) ;
#167 = ORIENTED_EDGE ( 'NONE', *, *, #143, .T. ) ;
#168 = CARTESIAN_POINT ( 'NONE',  ( 6.836595992174299100, 2.442601144828922400, 4.604352925751941300 ) ) ;
#169 = PERSON ( 'UNSPECIFIED', 'UNSPECIFIED', 'UNSPECIFIED', ('UNSPECIFIED'), ('UNSPECIFIED'), ('UNSPECIFIED') ) ;
#170 = DIRECTION ( 'NONE',  ( 0.0000000000000000000, -1.000000000000000000, 1.572732072508438100E-016 ) ) ;
#171 = DIRECTION ( 'NONE',  ( -0.0000000000000000000, -0.0000000000000000000, -1.000000000000000000 ) ) ;
#172 = DATE_AND_TIME ( #247, #202 ) ;
#173 = EDGE_CURVE ( 'NONE', #122, #142, #251, .T. ) ;
#174 = DIRECTION ( 'NONE',  ( 1.000000000000000000, 0.0000000000000000000, 0.0000000000000000000 ) ) ;
#175 =( BOUNDED_SURFACE ( )  B_SPLINE_SURFACE ( 3, 3, ( 
 ( #22, #224, #146, #64 ),
 ( #282, #223, #262, #147 ),
 ( #128, #261, #152, #57 ),
 ( #125, #62, #189, #288 ) ),
 .UNSPECIFIED., .F., .F., .F. ) 
 B_SPLINE_SURFACE_WITH_KNOTS ( ( 4, 4 ),
 ( 4, 4 ),
 ( 0.0000000000000000000, 1.000000000000000000 ),
 ( 0.0000000000000000000, 1.000000000000000000 ),
 .UNSPECIFIED. ) 
 GEOMETRIC_REPRESENTATION_ITEM ( )  RATIONAL_B_SPLINE_SURFACE ( (
 ( 1.000000000000000000, 0.9685121497818035600, 0.9685121497818035600, 1.000000000000000000),
 ( 0.8755993083726335600, 0.8480285684994396400, 0.8480285684994396400, 0.8755993083726335600),
 ( 0.8755993083726335600, 0.8480285684994396400, 0.8480285684994396400, 0.8755993083726335600),
 ( 1.000000000000000000, 0.9685121497818035600, 0.9685121497818035600, 1.000000000000000000) ) ) 
 REPRESENTATION_ITEM ( '' )  SURFACE ( )  );
#176 = ORIENTED_EDGE ( 'NONE', *, *, #258, .T. ) ;
#177 = CARTESIAN_POINT ( 'NONE',  ( -3.662486046500291500, 6.416219619127222300, 3.372193464345182500 ) ) ;
#178 = CC_DESIGN_DATE_AND_TIME_ASSIGNMENT ( #32, #236, ( #55 ) ) ;
#179 = DIRECTION ( 'NONE',  ( 0.0000000000000000000, 0.0000000000000000000, 1.000000000000000000 ) ) ;
#180 = CARTESIAN_POINT ( 'NONE',  ( -1.875535457933899900, 6.416219619127222300, 3.941790557025221200 ) ) ;
#181 = DIRECTION ( 'NONE',  ( -0.0000000000000000000, -0.0000000000000000000, -1.000000000000000000 ) ) ;
#182 = PERSON_AND_ORGANIZATION_ROLE ( 'classification_officer' ) ;
#183 = CIRCLE ( 'NONE', #113, 11.02999999999999900 ) ;
#184 = ORIENTED_EDGE ( 'NONE', *, *, #118, .T. ) ;
#185 = FACE_OUTER_BOUND ( 'NONE', #31, .T. ) ;
#186 = EDGE_CURVE ( 'NONE', #121, #78, #74, .T. ) ;
#187 = ADVANCED_FACE ( 'NONE', ( #222 ), #209, .T. ) ;
#188 = CARTESIAN_POINT ( 'NONE',  ( 4.822553152938836800, 2.442601144828922900, 6.033530090933465900 ) ) ;
#189 = CARTESIAN_POINT ( 'NONE',  ( -1.875535457933904500, 6.416219619127221400, 2.058209442974777900 ) ) ;
#190 = CARTESIAN_POINT ( 'NONE',  ( -1.776356839400250500E-015, -2.442601144828921500, -0.7835431204257533600 ) ) ;
#191 = MANIFOLD_SOLID_BREP ( 'Imported1', #277 ) ;
#192 = ORIENTED_EDGE ( 'NONE', *, *, #206, .T. ) ;
#193 = DIRECTION ( 'NONE',  ( -0.0000000000000000000, -0.0000000000000000000, -1.000000000000000000 ) ) ;
#194 = EDGE_CURVE ( 'NONE', #122, #234, #79, .T. ) ;
#195 = CARTESIAN_POINT ( 'NONE',  ( 5.192050068258886600, -6.416219619127218700, 3.713194557197805800 ) ) ;
#196 = CARTESIAN_POINT ( 'NONE',  ( 3.662486046500295500, -6.416219619127219600, 3.372193464345183900 ) ) ;
#197 = CIRCLE ( 'NONE', #141, 6.349999999999999600 ) ;
#198 = CARTESIAN_POINT ( 'NONE',  ( 2.498001805406600200E-016, 1.221245327087670000E-015, 2.011219594645850400 ) ) ;
#199 = AXIS2_PLACEMENT_3D ( 'NONE', #12, #34, #36 ) ;
#200 = APPROVAL_DATE_TIME ( #257, #25 ) ;
#201 = CARTESIAN_POINT ( 'NONE',  ( 2.498001805406600200E-016, 1.221245327087670000E-015, 2.011219594645850400 ) ) ;
#202 = LOCAL_TIME ( 12, 33, 54.00000000000000000, #238 ) ;
#203 = CARTESIAN_POINT ( 'NONE',  ( -2.469598333282548200, -2.442601144828919300, 6.783543120425754600 ) ) ;
#204 = VERTEX_POINT ( 'NONE', #23 ) ;
#205 =( NAMED_UNIT ( * ) PLANE_ANGLE_UNIT ( ) SI_UNIT ( $, .RADIAN. ) );
#206 = EDGE_CURVE ( 'NONE', #142, #18, #239, .T. ) ;
#207 = DATE_AND_TIME ( #213, #33 ) ;
#208 = PRODUCT_DEFINITION_SHAPE ( 'NONE', 'NONE',  #245 ) ;
#209 = CYLINDRICAL_SURFACE ( 'NONE', #199, 6.349999999999999600 ) ;
#210 = LOCAL_TIME ( 12, 33, 54.00000000000000000, #276 ) ;
#211 = APPROVAL ( #120, 'UNSPECIFIED' ) ;
#212 = ADVANCED_FACE ( 'NONE', ( #99 ), #94, .T. ) ;
#213 = CALENDAR_DATE ( 2019, 4, 1 ) ;
#214 = CARTESIAN_POINT ( 'NONE',  ( 1.776356839400250100E-015, 1.776356839400250100E-015, -5.030000000000000200 ) ) ;
#215 = CARTESIAN_POINT ( 'NONE',  ( -1.776356839400250100E-015, 6.416219619127219600, 2.058209442974776600 ) ) ;
#216 = CARTESIAN_POINT ( 'NONE',  ( 6.836595992174299100, -2.442601144828921500, 4.604352925751941300 ) ) ;
#217 = CARTESIAN_POINT ( 'NONE',  ( -1.776356839400250100E-015, -6.349999999999999600, 2.011219594645850000 ) ) ;
#218 =( BOUNDED_SURFACE ( )  B_SPLINE_SURFACE ( 3, 3, ( 
 ( #108, #15, #37, #195 ),
 ( #190, #35, #248, #126 ),
 ( #266, #289, #60, #83 ),
 ( #215, #110, #129, #80 ) ),
 .UNSPECIFIED., .F., .F., .T. ) 
 B_SPLINE_SURFACE_WITH_KNOTS ( ( 4, 4 ),
 ( 4, 4 ),
 ( 0.0000000000000000000, 1.000000000000000000 ),
 ( 0.0000000000000000000, 1.000000000000000000 ),
 .UNSPECIFIED. ) 
 GEOMETRIC_REPRESENTATION_ITEM ( )  RATIONAL_B_SPLINE_SURFACE ( (
 ( 1.000000000000000000, 0.9685121497818034400, 0.9685121497818034400, 1.000000000000000000),
 ( 0.8755993083726335600, 0.8480285684994395300, 0.8480285684994395300, 0.8755993083726335600),
 ( 0.8755993083726335600, 0.8480285684994395300, 0.8480285684994395300, 0.8755993083726335600),
 ( 1.000000000000000000, 0.9685121497818034400, 0.9685121497818034400, 1.000000000000000000) ) ) 
 REPRESENTATION_ITEM ( '' )  SURFACE ( )  );
#219 = EDGE_LOOP ( 'NONE', ( #87, #192, #281, #140, #106, #119 ) ) ;
#220 = CALENDAR_DATE ( 2019, 4, 1 ) ;
#221 = CARTESIAN_POINT ( 'NONE',  ( 1.875535457933905000, -6.416219619127218700, 3.941790557025222100 ) ) ;
#222 = FACE_OUTER_BOUND ( 'NONE', #219, .T. ) ;
#223 = CARTESIAN_POINT ( 'NONE',  ( -4.822553152938836800, -2.442601144828921100, -0.03353009093346685100 ) ) ;
#224 = CARTESIAN_POINT ( 'NONE',  ( -3.662486046500295500, -6.416219619127220500, 2.627806535654816600 ) ) ;
#225 = EDGE_LOOP ( 'NONE', ( #137, #130, #163, #284, #184, #254 ) ) ;
#226 = MECHANICAL_CONTEXT ( 'NONE', #92, 'mechanical' ) ;
#227 = CARTESIAN_POINT ( 'NONE',  ( -5.192050068258886600, -6.416219619127217800, 2.286805442802195100 ) ) ;
#228 = CC_DESIGN_PERSON_AND_ORGANIZATION_ASSIGNMENT ( #286, #52, ( #82 ) ) ;
#229 = ORIENTED_EDGE ( 'NONE', *, *, #173, .T. ) ;
#230 = DIRECTION ( 'NONE',  ( 1.000000000000000000, 0.0000000000000000000, 0.0000000000000000000 ) ) ;
#231 =( NAMED_UNIT ( * ) SI_UNIT ( $, .STERADIAN. ) SOLID_ANGLE_UNIT ( ) );
#232 = PERSON_AND_ORGANIZATION_ROLE ( 'design_supplier' ) ;
#233 = EDGE_CURVE ( 'NONE', #273, #78, #46, .T. ) ;
#234 = VERTEX_POINT ( 'NONE', #158 ) ;
#235 = AXIS2_PLACEMENT_3D ( 'NONE', #38, #193, #265 ) ;
#236 = DATE_TIME_ROLE ( 'classification_date' ) ;
#237 = CIRCLE ( 'NONE', #268, 6.349999999999999600 ) ;
#238 = COORDINATED_UNIVERSAL_TIME_OFFSET ( 2, 0, .AHEAD. ) ;
#239 = LINE ( 'NONE', #294, #8 ) ;
#240 = AXIS2_PLACEMENT_3D ( 'NONE', #264, #291, #58 ) ;
#241 = CARTESIAN_POINT ( 'NONE',  ( 2.469598333282553100, -2.442601144828919800, 6.783543120425751000 ) ) ;
#242 = EDGE_LOOP ( 'NONE', ( #20, #127, #54 ) ) ;
#243 = DIRECTION ( 'NONE',  ( 1.000000000000000000, 0.0000000000000000000, 0.0000000000000000000 ) ) ;
#244 = ORIENTED_EDGE ( 'NONE', *, *, #194, .F. ) ;
#245 = PRODUCT_DEFINITION ( 'UNKNOWN', '', #293, #89 ) ;
#246 = CARTESIAN_POINT ( 'NONE',  ( 2.498001805406600200E-016, 1.221245327087670000E-015, 2.011219594645850400 ) ) ;
#247 = CALENDAR_DATE ( 2019, 4, 1 ) ;
#248 = CARTESIAN_POINT ( 'NONE',  ( 4.822553152938835900, -2.442601144828921500, -0.03353009093346641400 ) ) ;
#249 = DIRECTION ( 'NONE',  ( -0.0000000000000000000, -0.0000000000000000000, -1.000000000000000000 ) ) ;
#250 = DATE_TIME_ROLE ( 'creation_date' ) ;
#251 = CIRCLE ( 'NONE', #63, 6.349999999999999600 ) ;
#252 = APPLICATION_PROTOCOL_DEFINITION ( 'international standard', 'config_control_design', 1994, #92 ) ;
#253 = APPLICATION_CONTEXT ( 'configuration controlled 3d designs of mechanical parts and assemblies' ) ;
#254 = ORIENTED_EDGE ( 'NONE', *, *, #77, .T. ) ;
#255 = CARTESIAN_POINT ( 'NONE',  ( 1.776356839400250500E-015, -2.442601144828920200, 6.783543120425754600 ) ) ;
#256 = DIRECTION ( 'NONE',  ( 1.000000000000000000, 0.0000000000000000000, 0.0000000000000000000 ) ) ;
#257 = DATE_AND_TIME ( #9, #149 ) ;
#258 = EDGE_CURVE ( 'NONE', #142, #234, #197, .T. ) ;
#259 = CIRCLE ( 'NONE', #280, 6.349999999999999600 ) ;
#260 = DIRECTION ( 'NONE',  ( -1.000000000000000000, 0.0000000000000000000, 0.0000000000000000000 ) ) ;
#261 = CARTESIAN_POINT ( 'NONE',  ( -4.822553152938836800, 2.442601144828921100, -0.03353009093346641400 ) ) ;
#262 = CARTESIAN_POINT ( 'NONE',  ( -2.469598333282553100, -2.442601144828921100, -0.7835431204257530300 ) ) ;
#263 = AXIS2_PLACEMENT_3D ( 'NONE', #45, #111, #267 ) ;
#264 = CARTESIAN_POINT ( 'NONE',  ( 2.498001805406600200E-016, 1.221245327087670000E-015, 2.011219594645850400 ) ) ;
#265 = DIRECTION ( 'NONE',  ( 1.000000000000000000, 1.776356839400250500E-015, 0.0000000000000000000 ) ) ;
#266 = CARTESIAN_POINT ( 'NONE',  ( -1.776356839400250500E-015, 2.442601144828921500, -0.7835431204257542500 ) ) ;
#267 = DIRECTION ( 'NONE',  ( 1.000000000000000000, 0.0000000000000000000, 0.0000000000000000000 ) ) ;
#268 = AXIS2_PLACEMENT_3D ( 'NONE', #88, #249, #112 ) ;
#269 = PERSON_AND_ORGANIZATION ( #169, #59 ) ;
#270 = APPROVAL_PERSON_ORGANIZATION ( #165, #164, #1 ) ;
#271 = PERSON_AND_ORGANIZATION_ROLE ( 'creator' ) ;
#272 = CARTESIAN_POINT ( 'NONE',  ( -4.822553152938833200, 2.442601144828924700, 6.033530090933463300 ) ) ;
#273 = VERTEX_POINT ( 'NONE', #138 ) ;
#274 = CARTESIAN_POINT ( 'NONE',  ( 1.776356839400250100E-015, 6.416219619127221400, 3.941790557025220700 ) ) ;
#275 = CARTESIAN_POINT ( 'NONE',  ( 2.498001805406600200E-016, 1.221245327087670000E-015, 3.988780405354150500 ) ) ;
#276 = COORDINATED_UNIVERSAL_TIME_OFFSET ( 2, 0, .AHEAD. ) ;
#277 = CLOSED_SHELL ( 'NONE', ( #11, #212, #187, #124, #61, #133 ) ) ;
#278 = FACE_OUTER_BOUND ( 'NONE', #41, .T. ) ;
#279 = APPROVAL_ROLE ( '' ) ;
#280 = AXIS2_PLACEMENT_3D ( 'NONE', #283, #19, #243 ) ;
#281 = ORIENTED_EDGE ( 'NONE', *, *, #135, .T. ) ;
#282 = CARTESIAN_POINT ( 'NONE',  ( -6.836595992174299100, -2.442601144828921500, 1.395647074248058500 ) ) ;
#283 = CARTESIAN_POINT ( 'NONE',  ( 2.498001805406600200E-016, 1.221245327087670000E-015, 3.988780405354150500 ) ) ;
#284 = ORIENTED_EDGE ( 'NONE', *, *, #186, .T. ) ;
#285 = DATE_AND_TIME ( #220, #44 ) ;
#286 = PERSON_AND_ORGANIZATION ( #169, #59 ) ;
#287 =( GEOMETRIC_REPRESENTATION_CONTEXT ( 3 ) GLOBAL_UNCERTAINTY_ASSIGNED_CONTEXT ( ( #123 ) ) GLOBAL_UNIT_ASSIGNED_CONTEXT ( ( #6, #205, #231 ) ) REPRESENTATION_CONTEXT ( 'NONE', 'WORKASPACE' ) );
#288 = CARTESIAN_POINT ( 'NONE',  ( -4.336808689942017700E-015, 6.416219619127219600, 2.058209442974777000 ) ) ;
#289 = CARTESIAN_POINT ( 'NONE',  ( 2.469598333282548200, 2.442601144828921500, -0.7835431204257541400 ) ) ;
#290 = CARTESIAN_POINT ( 'NONE',  ( 6.349999999999999600, 1.221245327087670000E-015, 2.011219594645850400 ) ) ;
#291 = DIRECTION ( 'NONE',  ( 0.0000000000000000000, 0.0000000000000000000, 1.000000000000000000 ) ) ;
#292 = CC_DESIGN_APPROVAL ( #25, ( #293 ) ) ;
#293 = PRODUCT_DEFINITION_FORMATION_WITH_SPECIFIED_SOURCE ( 'ANY', '', #82, .NOT_KNOWN. ) ;
#294 = CARTESIAN_POINT ( 'NONE',  ( -6.349999999999999600, 1.998896044546239400E-015, 2.011219594645850400 ) ) ;
#295 = CIRCLE ( 'NONE', #263, 6.349999999999999600 ) ;
ENDSEC;
END-ISO-10303-21;
